ISO-10303-21;
HEADER;
/* Generated by software containing ST-Developer
 * from STEP Tools, Inc. (www.steptools.com) 
 */

FILE_DESCRIPTION(
/* description */ ('RISCONTRO MAGNETE 90x20x3  2 FORI5,5 ZN'),
/* implementation_level */ '2;1');

FILE_NAME(
/* name */ 'C:\\Users\\tecnico7\\Desktop\\NUOVI DISEGNI 3D\\PROAC167-0.
stp',
/* time_stamp */ '2022-11-24T08:17:30+01:00',
/* author */ ('tecnico7'),
/* organization */ (''),
/* preprocessor_version */ 'ST-DEVELOPER v18.1',
/* originating_system */ 'Autodesk Inventor 2022',
/* authorisation */ '');

FILE_SCHEMA (('AUTOMOTIVE_DESIGN { 1 0 10303 214 3 1 1 }'));
ENDSEC;

DATA;
#10=MECHANICAL_DESIGN_GEOMETRIC_PRESENTATION_REPRESENTATION('',(#13),#342);
#11=SHAPE_REPRESENTATION_RELATIONSHIP('SRR','None',#349,#12);
#12=ADVANCED_BREP_SHAPE_REPRESENTATION('',(#14),#341);
#13=STYLED_ITEM('',(#358),#14);
#14=MANIFOLD_SOLID_BREP('None',#189);
#15=FACE_BOUND('',#41,.T.);
#16=FACE_BOUND('',#42,.T.);
#17=FACE_BOUND('',#44,.T.);
#18=FACE_BOUND('',#45,.T.);
#19=PLANE('',#215);
#20=PLANE('',#219);
#21=PLANE('',#223);
#22=PLANE('',#224);
#23=PLANE('',#227);
#24=FACE_OUTER_BOUND('',#34,.T.);
#25=FACE_OUTER_BOUND('',#35,.T.);
#26=FACE_OUTER_BOUND('',#36,.T.);
#27=FACE_OUTER_BOUND('',#37,.T.);
#28=FACE_OUTER_BOUND('',#38,.T.);
#29=FACE_OUTER_BOUND('',#39,.T.);
#30=FACE_OUTER_BOUND('',#40,.T.);
#31=FACE_OUTER_BOUND('',#43,.T.);
#32=FACE_OUTER_BOUND('',#46,.T.);
#33=FACE_OUTER_BOUND('',#47,.T.);
#34=EDGE_LOOP('',(#126,#127,#128,#129));
#35=EDGE_LOOP('',(#130,#131,#132,#133));
#36=EDGE_LOOP('',(#134,#135,#136,#137));
#37=EDGE_LOOP('',(#138,#139,#140,#141));
#38=EDGE_LOOP('',(#142,#143,#144,#145));
#39=EDGE_LOOP('',(#146,#147,#148,#149));
#40=EDGE_LOOP('',(#150,#151,#152,#153,#154,#155));
#41=EDGE_LOOP('',(#156));
#42=EDGE_LOOP('',(#157));
#43=EDGE_LOOP('',(#158,#159,#160,#161,#162,#163));
#44=EDGE_LOOP('',(#164));
#45=EDGE_LOOP('',(#165));
#46=EDGE_LOOP('',(#166,#167,#168,#169));
#47=EDGE_LOOP('',(#170,#171,#172,#173));
#48=LINE('',#294,#62);
#49=LINE('',#297,#63);
#50=LINE('',#300,#64);
#51=LINE('',#302,#65);
#52=LINE('',#303,#66);
#53=LINE('',#308,#67);
#54=LINE('',#312,#68);
#55=LINE('',#314,#69);
#56=LINE('',#315,#70);
#57=LINE('',#320,#71);
#58=LINE('',#323,#72);
#59=LINE('',#324,#73);
#60=LINE('',#336,#74);
#61=LINE('',#338,#75);
#62=VECTOR('',#238,2.99999999998818);
#63=VECTOR('',#241,2.99999999998818);
#64=VECTOR('',#244,76.9999999996918);
#65=VECTOR('',#245,2.99999999998818);
#66=VECTOR('',#246,76.9999999996918);
#67=VECTOR('',#251,2.99999999998818);
#68=VECTOR('',#256,13.9999999999439);
#69=VECTOR('',#257,2.99999999998818);
#70=VECTOR('',#258,13.9999999999439);
#71=VECTOR('',#263,2.99999999998818);
#72=VECTOR('',#268,76.9999999996921);
#73=VECTOR('',#269,76.9999999996921);
#74=VECTOR('',#284,2.74999999998886);
#75=VECTOR('',#287,2.74999999998886);
#76=CIRCLE('',#213,9.99999999995999);
#77=CIRCLE('',#214,9.99999999995999);
#78=CIRCLE('',#217,2.99999999998819);
#79=CIRCLE('',#218,2.99999999998819);
#80=CIRCLE('',#221,2.9999999999879);
#81=CIRCLE('',#222,2.9999999999879);
#82=CIRCLE('',#225,2.74999999998886);
#83=CIRCLE('',#226,2.74999999998886);
#84=CIRCLE('',#228,2.74999999998886);
#85=CIRCLE('',#229,2.74999999998886);
#86=VERTEX_POINT('',#290);
#87=VERTEX_POINT('',#291);
#88=VERTEX_POINT('',#293);
#89=VERTEX_POINT('',#295);
#90=VERTEX_POINT('',#299);
#91=VERTEX_POINT('',#301);
#92=VERTEX_POINT('',#305);
#93=VERTEX_POINT('',#307);
#94=VERTEX_POINT('',#311);
#95=VERTEX_POINT('',#313);
#96=VERTEX_POINT('',#317);
#97=VERTEX_POINT('',#319);
#98=VERTEX_POINT('',#326);
#99=VERTEX_POINT('',#328);
#100=VERTEX_POINT('',#331);
#101=VERTEX_POINT('',#333);
#102=EDGE_CURVE('',#86,#87,#76,.T.);
#103=EDGE_CURVE('',#87,#88,#48,.T.);
#104=EDGE_CURVE('',#89,#88,#77,.T.);
#105=EDGE_CURVE('',#86,#89,#49,.T.);
#106=EDGE_CURVE('',#87,#90,#50,.T.);
#107=EDGE_CURVE('',#90,#91,#51,.T.);
#108=EDGE_CURVE('',#88,#91,#52,.T.);
#109=EDGE_CURVE('',#90,#92,#78,.T.);
#110=EDGE_CURVE('',#92,#93,#53,.T.);
#111=EDGE_CURVE('',#91,#93,#79,.T.);
#112=EDGE_CURVE('',#92,#94,#54,.T.);
#113=EDGE_CURVE('',#94,#95,#55,.T.);
#114=EDGE_CURVE('',#93,#95,#56,.T.);
#115=EDGE_CURVE('',#94,#96,#80,.T.);
#116=EDGE_CURVE('',#96,#97,#57,.T.);
#117=EDGE_CURVE('',#95,#97,#81,.T.);
#118=EDGE_CURVE('',#96,#86,#58,.T.);
#119=EDGE_CURVE('',#97,#89,#59,.T.);
#120=EDGE_CURVE('',#98,#98,#82,.T.);
#121=EDGE_CURVE('',#99,#99,#83,.T.);
#122=EDGE_CURVE('',#100,#100,#84,.T.);
#123=EDGE_CURVE('',#101,#101,#85,.T.);
#124=EDGE_CURVE('',#98,#100,#60,.T.);
#125=EDGE_CURVE('',#99,#101,#61,.T.);
#126=ORIENTED_EDGE('',*,*,#102,.T.);
#127=ORIENTED_EDGE('',*,*,#103,.T.);
#128=ORIENTED_EDGE('',*,*,#104,.F.);
#129=ORIENTED_EDGE('',*,*,#105,.F.);
#130=ORIENTED_EDGE('',*,*,#106,.T.);
#131=ORIENTED_EDGE('',*,*,#107,.T.);
#132=ORIENTED_EDGE('',*,*,#108,.F.);
#133=ORIENTED_EDGE('',*,*,#103,.F.);
#134=ORIENTED_EDGE('',*,*,#109,.T.);
#135=ORIENTED_EDGE('',*,*,#110,.T.);
#136=ORIENTED_EDGE('',*,*,#111,.F.);
#137=ORIENTED_EDGE('',*,*,#107,.F.);
#138=ORIENTED_EDGE('',*,*,#112,.T.);
#139=ORIENTED_EDGE('',*,*,#113,.T.);
#140=ORIENTED_EDGE('',*,*,#114,.F.);
#141=ORIENTED_EDGE('',*,*,#110,.F.);
#142=ORIENTED_EDGE('',*,*,#115,.T.);
#143=ORIENTED_EDGE('',*,*,#116,.T.);
#144=ORIENTED_EDGE('',*,*,#117,.F.);
#145=ORIENTED_EDGE('',*,*,#113,.F.);
#146=ORIENTED_EDGE('',*,*,#118,.T.);
#147=ORIENTED_EDGE('',*,*,#105,.T.);
#148=ORIENTED_EDGE('',*,*,#119,.F.);
#149=ORIENTED_EDGE('',*,*,#116,.F.);
#150=ORIENTED_EDGE('',*,*,#118,.F.);
#151=ORIENTED_EDGE('',*,*,#115,.F.);
#152=ORIENTED_EDGE('',*,*,#112,.F.);
#153=ORIENTED_EDGE('',*,*,#109,.F.);
#154=ORIENTED_EDGE('',*,*,#106,.F.);
#155=ORIENTED_EDGE('',*,*,#102,.F.);
#156=ORIENTED_EDGE('',*,*,#120,.F.);
#157=ORIENTED_EDGE('',*,*,#121,.F.);
#158=ORIENTED_EDGE('',*,*,#104,.T.);
#159=ORIENTED_EDGE('',*,*,#108,.T.);
#160=ORIENTED_EDGE('',*,*,#111,.T.);
#161=ORIENTED_EDGE('',*,*,#114,.T.);
#162=ORIENTED_EDGE('',*,*,#117,.T.);
#163=ORIENTED_EDGE('',*,*,#119,.T.);
#164=ORIENTED_EDGE('',*,*,#122,.F.);
#165=ORIENTED_EDGE('',*,*,#123,.F.);
#166=ORIENTED_EDGE('',*,*,#120,.T.);
#167=ORIENTED_EDGE('',*,*,#124,.T.);
#168=ORIENTED_EDGE('',*,*,#122,.T.);
#169=ORIENTED_EDGE('',*,*,#124,.F.);
#170=ORIENTED_EDGE('',*,*,#121,.T.);
#171=ORIENTED_EDGE('',*,*,#125,.T.);
#172=ORIENTED_EDGE('',*,*,#123,.T.);
#173=ORIENTED_EDGE('',*,*,#125,.F.);
#174=CYLINDRICAL_SURFACE('',#212,9.99999999995999);
#175=CYLINDRICAL_SURFACE('',#216,2.99999999998819);
#176=CYLINDRICAL_SURFACE('',#220,2.9999999999879);
#177=CYLINDRICAL_SURFACE('',#230,2.74999999998886);
#178=CYLINDRICAL_SURFACE('',#231,2.74999999998886);
#179=ADVANCED_FACE('',(#24),#174,.T.);
#180=ADVANCED_FACE('',(#25),#19,.T.);
#181=ADVANCED_FACE('',(#26),#175,.T.);
#182=ADVANCED_FACE('',(#27),#20,.T.);
#183=ADVANCED_FACE('',(#28),#176,.T.);
#184=ADVANCED_FACE('',(#29),#21,.T.);
#185=ADVANCED_FACE('',(#30,#15,#16),#22,.F.);
#186=ADVANCED_FACE('',(#31,#17,#18),#23,.T.);
#187=ADVANCED_FACE('',(#32),#177,.F.);
#188=ADVANCED_FACE('',(#33),#178,.F.);
#189=CLOSED_SHELL('',(#179,#180,#181,#182,#183,#184,#185,#186,#187,#188));
#190=DERIVED_UNIT_ELEMENT(#193,1.);
#191=DERIVED_UNIT_ELEMENT(#344,-3.);
#192=DIMENSIONAL_EXPONENTS(1.,0.,0.,0.,0.,0.,0.);
#193=(
CONVERSION_BASED_UNIT('gram',#195)
MASS_UNIT()
NAMED_UNIT(#192)
);
#194=(
MASS_UNIT()
NAMED_UNIT(*)
SI_UNIT(.KILO.,.GRAM.)
);
#195=MASS_MEASURE_WITH_UNIT(MASS_MEASURE(0.001),#194);
#196=DERIVED_UNIT((#190,#191));
#197=MEASURE_REPRESENTATION_ITEM('density measure',
POSITIVE_RATIO_MEASURE(7.85),#196);
#198=PROPERTY_DEFINITION_REPRESENTATION(#203,#200);
#199=PROPERTY_DEFINITION_REPRESENTATION(#204,#201);
#200=REPRESENTATION('material name',(#202),#341);
#201=REPRESENTATION('density',(#197),#341);
#202=DESCRIPTIVE_REPRESENTATION_ITEM('Acciaio','Acciaio');
#203=PROPERTY_DEFINITION('material property','material name',#351);
#204=PROPERTY_DEFINITION('material property','density of part',#351);
#205=DATE_TIME_ROLE('creation_date');
#206=APPLIED_DATE_AND_TIME_ASSIGNMENT(#207,#205,(#351));
#207=DATE_AND_TIME(#208,#209);
#208=CALENDAR_DATE(2011,30,12);
#209=LOCAL_TIME(0,0,0.,#210);
#210=COORDINATED_UNIVERSAL_TIME_OFFSET(0,0,.BEHIND.);
#211=AXIS2_PLACEMENT_3D('placement',#288,#232,#233);
#212=AXIS2_PLACEMENT_3D('',#289,#234,#235);
#213=AXIS2_PLACEMENT_3D('',#292,#236,#237);
#214=AXIS2_PLACEMENT_3D('',#296,#239,#240);
#215=AXIS2_PLACEMENT_3D('',#298,#242,#243);
#216=AXIS2_PLACEMENT_3D('',#304,#247,#248);
#217=AXIS2_PLACEMENT_3D('',#306,#249,#250);
#218=AXIS2_PLACEMENT_3D('',#309,#252,#253);
#219=AXIS2_PLACEMENT_3D('',#310,#254,#255);
#220=AXIS2_PLACEMENT_3D('',#316,#259,#260);
#221=AXIS2_PLACEMENT_3D('',#318,#261,#262);
#222=AXIS2_PLACEMENT_3D('',#321,#264,#265);
#223=AXIS2_PLACEMENT_3D('',#322,#266,#267);
#224=AXIS2_PLACEMENT_3D('',#325,#270,#271);
#225=AXIS2_PLACEMENT_3D('',#327,#272,#273);
#226=AXIS2_PLACEMENT_3D('',#329,#274,#275);
#227=AXIS2_PLACEMENT_3D('',#330,#276,#277);
#228=AXIS2_PLACEMENT_3D('',#332,#278,#279);
#229=AXIS2_PLACEMENT_3D('',#334,#280,#281);
#230=AXIS2_PLACEMENT_3D('',#335,#282,#283);
#231=AXIS2_PLACEMENT_3D('',#337,#285,#286);
#232=DIRECTION('axis',(0.,0.,1.));
#233=DIRECTION('refdir',(1.,0.,0.));
#234=DIRECTION('center_axis',(0.,0.,1.));
#235=DIRECTION('ref_axis',(1.,0.,0.));
#236=DIRECTION('center_axis',(0.,0.,1.));
#237=DIRECTION('ref_axis',(0.,1.,0.));
#238=DIRECTION('',(0.,0.,1.));
#239=DIRECTION('center_axis',(0.,0.,1.));
#240=DIRECTION('ref_axis',(0.,1.,0.));
#241=DIRECTION('',(0.,0.,1.));
#242=DIRECTION('center_axis',(-1.,0.,0.));
#243=DIRECTION('ref_axis',(0.,0.,1.));
#244=DIRECTION('',(0.,-1.,0.));
#245=DIRECTION('',(0.,0.,1.));
#246=DIRECTION('',(0.,-1.,0.));
#247=DIRECTION('center_axis',(0.,0.,1.));
#248=DIRECTION('ref_axis',(0.,1.,0.));
#249=DIRECTION('center_axis',(0.,0.,1.));
#250=DIRECTION('ref_axis',(0.,1.,0.));
#251=DIRECTION('',(0.,0.,1.));
#252=DIRECTION('center_axis',(0.,0.,1.));
#253=DIRECTION('ref_axis',(0.,1.,0.));
#254=DIRECTION('center_axis',(0.,-1.,0.));
#255=DIRECTION('ref_axis',(0.,0.,-1.));
#256=DIRECTION('',(1.,0.,0.));
#257=DIRECTION('',(0.,0.,1.));
#258=DIRECTION('',(1.,0.,0.));
#259=DIRECTION('center_axis',(0.,0.,1.));
#260=DIRECTION('ref_axis',(0.,-1.,0.));
#261=DIRECTION('center_axis',(0.,0.,1.));
#262=DIRECTION('ref_axis',(0.,-1.,0.));
#263=DIRECTION('',(0.,0.,1.));
#264=DIRECTION('center_axis',(0.,0.,1.));
#265=DIRECTION('ref_axis',(0.,-1.,0.));
#266=DIRECTION('center_axis',(1.,0.,0.));
#267=DIRECTION('ref_axis',(0.,0.,-1.));
#268=DIRECTION('',(0.,1.,0.));
#269=DIRECTION('',(0.,1.,0.));
#270=DIRECTION('center_axis',(0.,0.,1.));
#271=DIRECTION('ref_axis',(1.,0.,0.));
#272=DIRECTION('center_axis',(0.,0.,-1.));
#273=DIRECTION('ref_axis',(0.,1.,0.));
#274=DIRECTION('center_axis',(0.,0.,-1.));
#275=DIRECTION('ref_axis',(0.,1.,0.));
#276=DIRECTION('center_axis',(0.,0.,1.));
#277=DIRECTION('ref_axis',(1.,0.,0.));
#278=DIRECTION('center_axis',(0.,0.,1.));
#279=DIRECTION('ref_axis',(0.,1.,0.));
#280=DIRECTION('center_axis',(0.,0.,1.));
#281=DIRECTION('ref_axis',(0.,1.,0.));
#282=DIRECTION('center_axis',(0.,0.,1.));
#283=DIRECTION('ref_axis',(0.,1.,0.));
#284=DIRECTION('',(0.,0.,1.));
#285=DIRECTION('center_axis',(0.,0.,1.));
#286=DIRECTION('ref_axis',(0.,1.,0.));
#287=DIRECTION('',(0.,0.,1.));
#288=CARTESIAN_POINT('',(0.,0.,0.));
#289=CARTESIAN_POINT('Origin',(1.49444E-14,69.99999999972,-4.286264E-15));
#290=CARTESIAN_POINT('',(9.99999999996001,69.99999999972,-4.286264E-15));
#291=CARTESIAN_POINT('',(-9.99999999995998,69.99999999972,-4.286264E-15));
#292=CARTESIAN_POINT('Origin',(1.49444E-14,69.99999999972,-4.286264E-15));
#293=CARTESIAN_POINT('',(-9.99999999995998,69.99999999972,2.99999999998817));
#294=CARTESIAN_POINT('',(-9.99999999995998,69.99999999972,-4.286264E-15));
#295=CARTESIAN_POINT('',(9.99999999996001,69.99999999972,2.99999999998817));
#296=CARTESIAN_POINT('Origin',(1.49444E-14,69.99999999972,2.99999999998817));
#297=CARTESIAN_POINT('',(9.99999999996001,69.99999999972,-4.286264E-15));
#298=CARTESIAN_POINT('Origin',(-9.99999999995998,69.99999999972,-4.286264E-15));
#299=CARTESIAN_POINT('',(-9.99999999995998,-6.99999999997181,4.286264E-16));
#300=CARTESIAN_POINT('',(-9.99999999995998,69.99999999972,-4.286264E-15));
#301=CARTESIAN_POINT('',(-9.99999999995998,-6.99999999997181,2.99999999998818));
#302=CARTESIAN_POINT('',(-9.99999999995998,-6.99999999997181,4.286264E-16));
#303=CARTESIAN_POINT('',(-9.99999999995998,69.99999999972,2.99999999998817));
#304=CARTESIAN_POINT('Origin',(-6.99999999997179,-6.99999999997181,4.286264E-16));
#305=CARTESIAN_POINT('',(-6.99999999997181,-9.99999999996001,6.123234E-16));
#306=CARTESIAN_POINT('Origin',(-6.99999999997179,-6.99999999997181,4.286264E-16));
#307=CARTESIAN_POINT('',(-6.99999999997181,-9.99999999996001,2.99999999998818));
#308=CARTESIAN_POINT('',(-6.99999999997181,-9.99999999996001,6.123234E-16));
#309=CARTESIAN_POINT('Origin',(-6.99999999997179,-6.99999999997181,2.99999999998818));
#310=CARTESIAN_POINT('Origin',(-6.99999999997181,-9.99999999996001,6.123234E-16));
#311=CARTESIAN_POINT('',(6.99999999997207,-9.99999999996001,6.123234E-16));
#312=CARTESIAN_POINT('',(-6.99999999997181,-9.99999999996001,6.123234E-16));
#313=CARTESIAN_POINT('',(6.99999999997207,-9.99999999996001,2.99999999998818));
#314=CARTESIAN_POINT('',(6.99999999997207,-9.99999999996001,6.123234E-16));
#315=CARTESIAN_POINT('',(-6.99999999997181,-9.99999999996001,2.99999999998818));
#316=CARTESIAN_POINT('Origin',(6.99999999997207,-6.9999999999721,4.286264E-16));
#317=CARTESIAN_POINT('',(9.99999999995997,-6.9999999999721,4.286264E-16));
#318=CARTESIAN_POINT('Origin',(6.99999999997207,-6.9999999999721,4.286264E-16));
#319=CARTESIAN_POINT('',(9.99999999995997,-6.9999999999721,2.99999999998818));
#320=CARTESIAN_POINT('',(9.99999999995997,-6.9999999999721,4.286264E-16));
#321=CARTESIAN_POINT('Origin',(6.99999999997207,-6.9999999999721,2.99999999998818));
#322=CARTESIAN_POINT('Origin',(9.99999999995997,-6.9999999999721,4.286264E-16));
#323=CARTESIAN_POINT('',(9.99999999995997,-6.9999999999721,4.286264E-16));
#324=CARTESIAN_POINT('',(9.99999999995997,-6.9999999999721,2.99999999998818));
#325=CARTESIAN_POINT('Origin',(12.0000047245773,-19.0000047243784,1.163415E-15));
#326=CARTESIAN_POINT('',(-1.683889E-16,-2.74999999998886,1.683889E-16));
#327=CARTESIAN_POINT('Origin',(0.,0.,0.));
#328=CARTESIAN_POINT('',(4.439345E-16,7.24999999997113,-4.439345E-16));
#329=CARTESIAN_POINT('Origin',(6.123234E-16,9.99999999995998,-6.123234E-16));
#330=CARTESIAN_POINT('Origin',(12.0000047245773,-19.0000047243784,2.99999999998818));
#331=CARTESIAN_POINT('',(-1.683889E-16,-2.74999999998886,2.99999999998818));
#332=CARTESIAN_POINT('Origin',(2.052683E-48,1.83697E-16,2.99999999998818));
#333=CARTESIAN_POINT('',(4.439345E-16,7.24999999997113,2.99999999998818));
#334=CARTESIAN_POINT('Origin',(6.123234E-16,9.99999999995998,2.99999999998818));
#335=CARTESIAN_POINT('Origin',(2.264241E-48,1.83697E-16,2.99999999998818));
#336=CARTESIAN_POINT('',(3.36777869764158E-16,-2.74999999998886,2.99999999998818));
#337=CARTESIAN_POINT('Origin',(6.123234E-16,9.99999999995998,2.99999999998818));
#338=CARTESIAN_POINT('',(9.49101269764158E-16,7.24999999997112,2.99999999998818));
#339=UNCERTAINTY_MEASURE_WITH_UNIT(LENGTH_MEASURE(0.01),#343,
'DISTANCE_ACCURACY_VALUE',
'Maximum model space distance between geometric entities at asserted c
onnectivities');
#340=UNCERTAINTY_MEASURE_WITH_UNIT(LENGTH_MEASURE(0.01),#343,
'DISTANCE_ACCURACY_VALUE',
'Maximum model space distance between geometric entities at asserted c
onnectivities');
#341=(
GEOMETRIC_REPRESENTATION_CONTEXT(3)
GLOBAL_UNCERTAINTY_ASSIGNED_CONTEXT((#339))
GLOBAL_UNIT_ASSIGNED_CONTEXT((#343,#345,#346))
REPRESENTATION_CONTEXT('','3D')
);
#342=(
GEOMETRIC_REPRESENTATION_CONTEXT(3)
GLOBAL_UNCERTAINTY_ASSIGNED_CONTEXT((#340))
GLOBAL_UNIT_ASSIGNED_CONTEXT((#343,#345,#346))
REPRESENTATION_CONTEXT('','3D')
);
#343=(
LENGTH_UNIT()
NAMED_UNIT(*)
SI_UNIT(.MILLI.,.METRE.)
);
#344=(
LENGTH_UNIT()
NAMED_UNIT(*)
SI_UNIT(.CENTI.,.METRE.)
);
#345=(
NAMED_UNIT(*)
PLANE_ANGLE_UNIT()
SI_UNIT($,.RADIAN.)
);
#346=(
NAMED_UNIT(*)
SI_UNIT($,.STERADIAN.)
SOLID_ANGLE_UNIT()
);
#347=SHAPE_DEFINITION_REPRESENTATION(#348,#349);
#348=PRODUCT_DEFINITION_SHAPE('',$,#351);
#349=SHAPE_REPRESENTATION('',(#211),#341);
#350=PRODUCT_DEFINITION_CONTEXT('part definition',#355,'design');
#351=PRODUCT_DEFINITION('PROAC167-0','PROAC167-0',#352,#350);
#352=PRODUCT_DEFINITION_FORMATION('A',$,#357);
#353=PRODUCT_RELATED_PRODUCT_CATEGORY('PROAC167-0','PROAC167-0',(#357));
#354=APPLICATION_PROTOCOL_DEFINITION('international standard',
'automotive_design',2009,#355);
#355=APPLICATION_CONTEXT(
'Core Data for Automotive Mechanical Design Process');
#356=PRODUCT_CONTEXT('part definition',#355,'mechanical');
#357=PRODUCT('PROAC167-0','PROAC167-0',
'RISCONTRO MAGNETE 90x20x3  2 FORI5,5 ZN',(#356));
#358=PRESENTATION_STYLE_ASSIGNMENT((#359));
#359=SURFACE_STYLE_USAGE(.BOTH.,#362);
#360=SURFACE_STYLE_RENDERING_WITH_PROPERTIES($,#366,(#361));
#361=SURFACE_STYLE_TRANSPARENT(0.);
#362=SURFACE_SIDE_STYLE('',(#363,#360));
#363=SURFACE_STYLE_FILL_AREA(#364);
#364=FILL_AREA_STYLE('',(#365));
#365=FILL_AREA_STYLE_COLOUR('',#366);
#366=COLOUR_RGB('',0.63921568627451,0.63921568627451,0.662745098039216);
ENDSEC;
END-ISO-10303-21;
