ISO-10303-21;
HEADER;
/* Generated by software containing ST-Developer
 * from STEP Tools, Inc. (www.steptools.com) 
 */

FILE_DESCRIPTION(
/* description */ ('RISCONTRO MAGNETE L=62'),
/* implementation_level */ '2;1');

FILE_NAME(
/* name */ 'C:\\Users\\tecnico7\\Desktop\\NUOVI DISEGNI 3D\\PROAC162-0.
stp',
/* time_stamp */ '2022-11-24T08:06:05+01:00',
/* author */ ('tecnico7'),
/* organization */ (''),
/* preprocessor_version */ 'ST-DEVELOPER v18.1',
/* originating_system */ 'Autodesk Inventor 2022',
/* authorisation */ '');

FILE_SCHEMA (('AUTOMOTIVE_DESIGN { 1 0 10303 214 3 1 1 }'));
ENDSEC;

DATA;
#10=MECHANICAL_DESIGN_GEOMETRIC_PRESENTATION_REPRESENTATION('',(#13),#410);
#11=SHAPE_REPRESENTATION_RELATIONSHIP('SRR','None',#417,#12);
#12=ADVANCED_BREP_SHAPE_REPRESENTATION('',(#14),#409);
#13=STYLED_ITEM('',(#426),#14);
#14=MANIFOLD_SOLID_BREP('Importato1',#229);
#15=FACE_BOUND('',#46,.T.);
#16=FACE_BOUND('',#47,.T.);
#17=FACE_BOUND('',#49,.T.);
#18=FACE_BOUND('',#50,.T.);
#19=PLANE('',#258);
#20=PLANE('',#259);
#21=PLANE('',#263);
#22=PLANE('',#267);
#23=PLANE('',#268);
#24=PLANE('',#271);
#25=FACE_OUTER_BOUND('',#37,.T.);
#26=FACE_OUTER_BOUND('',#38,.T.);
#27=FACE_OUTER_BOUND('',#39,.T.);
#28=FACE_OUTER_BOUND('',#40,.T.);
#29=FACE_OUTER_BOUND('',#41,.T.);
#30=FACE_OUTER_BOUND('',#42,.T.);
#31=FACE_OUTER_BOUND('',#43,.T.);
#32=FACE_OUTER_BOUND('',#44,.T.);
#33=FACE_OUTER_BOUND('',#45,.T.);
#34=FACE_OUTER_BOUND('',#48,.T.);
#35=FACE_OUTER_BOUND('',#51,.T.);
#36=FACE_OUTER_BOUND('',#52,.T.);
#37=EDGE_LOOP('',(#151,#152,#153,#154));
#38=EDGE_LOOP('',(#155,#156,#157,#158));
#39=EDGE_LOOP('',(#159,#160,#161,#162));
#40=EDGE_LOOP('',(#163,#164,#165,#166));
#41=EDGE_LOOP('',(#167,#168,#169,#170));
#42=EDGE_LOOP('',(#171,#172,#173,#174));
#43=EDGE_LOOP('',(#175,#176,#177,#178));
#44=EDGE_LOOP('',(#179,#180,#181,#182));
#45=EDGE_LOOP('',(#183,#184,#185,#186,#187,#188,#189,#190));
#46=EDGE_LOOP('',(#191));
#47=EDGE_LOOP('',(#192));
#48=EDGE_LOOP('',(#193,#194,#195,#196,#197,#198,#199,#200));
#49=EDGE_LOOP('',(#201));
#50=EDGE_LOOP('',(#202));
#51=EDGE_LOOP('',(#203,#204,#205,#206));
#52=EDGE_LOOP('',(#207,#208,#209,#210));
#53=LINE('',#349,#71);
#54=LINE('',#355,#72);
#55=LINE('',#360,#73);
#56=LINE('',#362,#74);
#57=LINE('',#364,#75);
#58=LINE('',#365,#76);
#59=LINE('',#369,#77);
#60=LINE('',#371,#78);
#61=LINE('',#373,#79);
#62=LINE('',#374,#80);
#63=LINE('',#379,#81);
#64=LINE('',#383,#82);
#65=LINE('',#385,#83);
#66=LINE('',#386,#84);
#67=LINE('',#391,#85);
#68=LINE('',#395,#86);
#69=LINE('',#397,#87);
#70=LINE('',#398,#88);
#71=VECTOR('',#282,2.75);
#72=VECTOR('',#289,2.75);
#73=VECTOR('',#294,18.);
#74=VECTOR('',#295,3.);
#75=VECTOR('',#296,18.);
#76=VECTOR('',#297,3.);
#77=VECTOR('',#300,51.01);
#78=VECTOR('',#301,3.);
#79=VECTOR('',#302,51.01);
#80=VECTOR('',#303,3.);
#81=VECTOR('',#308,3.);
#82=VECTOR('',#313,0.00999999999999078);
#83=VECTOR('',#314,3.);
#84=VECTOR('',#315,0.00999999999999078);
#85=VECTOR('',#320,3.);
#86=VECTOR('',#325,51.);
#87=VECTOR('',#326,3.);
#88=VECTOR('',#327,51.);
#89=CIRCLE('',#253,2.75);
#90=CIRCLE('',#254,2.75);
#91=CIRCLE('',#256,2.75);
#92=CIRCLE('',#257,2.75);
#93=CIRCLE('',#261,9.99);
#94=CIRCLE('',#262,9.99);
#95=CIRCLE('',#265,10.);
#96=CIRCLE('',#266,10.);
#97=CIRCLE('',#269,1.);
#98=CIRCLE('',#270,1.);
#99=CIRCLE('',#272,1.);
#100=CIRCLE('',#273,1.);
#101=VERTEX_POINT('',#346);
#102=VERTEX_POINT('',#348);
#103=VERTEX_POINT('',#352);
#104=VERTEX_POINT('',#354);
#105=VERTEX_POINT('',#358);
#106=VERTEX_POINT('',#359);
#107=VERTEX_POINT('',#361);
#108=VERTEX_POINT('',#363);
#109=VERTEX_POINT('',#367);
#110=VERTEX_POINT('',#368);
#111=VERTEX_POINT('',#370);
#112=VERTEX_POINT('',#372);
#113=VERTEX_POINT('',#376);
#114=VERTEX_POINT('',#378);
#115=VERTEX_POINT('',#382);
#116=VERTEX_POINT('',#384);
#117=VERTEX_POINT('',#388);
#118=VERTEX_POINT('',#390);
#119=VERTEX_POINT('',#394);
#120=VERTEX_POINT('',#396);
#121=EDGE_CURVE('',#101,#101,#89,.T.);
#122=EDGE_CURVE('',#101,#102,#53,.T.);
#123=EDGE_CURVE('',#102,#102,#90,.T.);
#124=EDGE_CURVE('',#103,#103,#91,.T.);
#125=EDGE_CURVE('',#103,#104,#54,.T.);
#126=EDGE_CURVE('',#104,#104,#92,.T.);
#127=EDGE_CURVE('',#105,#106,#55,.T.);
#128=EDGE_CURVE('',#105,#107,#56,.T.);
#129=EDGE_CURVE('',#107,#108,#57,.T.);
#130=EDGE_CURVE('',#108,#106,#58,.T.);
#131=EDGE_CURVE('',#109,#110,#59,.T.);
#132=EDGE_CURVE('',#109,#111,#60,.T.);
#133=EDGE_CURVE('',#111,#112,#61,.T.);
#134=EDGE_CURVE('',#110,#112,#62,.T.);
#135=EDGE_CURVE('',#112,#113,#93,.T.);
#136=EDGE_CURVE('',#114,#113,#63,.T.);
#137=EDGE_CURVE('',#110,#114,#94,.T.);
#138=EDGE_CURVE('',#113,#115,#64,.T.);
#139=EDGE_CURVE('',#116,#115,#65,.T.);
#140=EDGE_CURVE('',#114,#116,#66,.T.);
#141=EDGE_CURVE('',#115,#117,#95,.T.);
#142=EDGE_CURVE('',#118,#117,#67,.T.);
#143=EDGE_CURVE('',#116,#118,#96,.T.);
#144=EDGE_CURVE('',#117,#119,#68,.T.);
#145=EDGE_CURVE('',#119,#120,#69,.T.);
#146=EDGE_CURVE('',#118,#120,#70,.T.);
#147=EDGE_CURVE('',#120,#105,#97,.T.);
#148=EDGE_CURVE('',#106,#109,#98,.T.);
#149=EDGE_CURVE('',#107,#119,#99,.T.);
#150=EDGE_CURVE('',#111,#108,#100,.T.);
#151=ORIENTED_EDGE('',*,*,#121,.F.);
#152=ORIENTED_EDGE('',*,*,#122,.T.);
#153=ORIENTED_EDGE('',*,*,#123,.T.);
#154=ORIENTED_EDGE('',*,*,#122,.F.);
#155=ORIENTED_EDGE('',*,*,#124,.F.);
#156=ORIENTED_EDGE('',*,*,#125,.T.);
#157=ORIENTED_EDGE('',*,*,#126,.T.);
#158=ORIENTED_EDGE('',*,*,#125,.F.);
#159=ORIENTED_EDGE('',*,*,#127,.F.);
#160=ORIENTED_EDGE('',*,*,#128,.T.);
#161=ORIENTED_EDGE('',*,*,#129,.T.);
#162=ORIENTED_EDGE('',*,*,#130,.T.);
#163=ORIENTED_EDGE('',*,*,#131,.F.);
#164=ORIENTED_EDGE('',*,*,#132,.T.);
#165=ORIENTED_EDGE('',*,*,#133,.T.);
#166=ORIENTED_EDGE('',*,*,#134,.F.);
#167=ORIENTED_EDGE('',*,*,#135,.T.);
#168=ORIENTED_EDGE('',*,*,#136,.F.);
#169=ORIENTED_EDGE('',*,*,#137,.F.);
#170=ORIENTED_EDGE('',*,*,#134,.T.);
#171=ORIENTED_EDGE('',*,*,#138,.T.);
#172=ORIENTED_EDGE('',*,*,#139,.F.);
#173=ORIENTED_EDGE('',*,*,#140,.F.);
#174=ORIENTED_EDGE('',*,*,#136,.T.);
#175=ORIENTED_EDGE('',*,*,#141,.T.);
#176=ORIENTED_EDGE('',*,*,#142,.F.);
#177=ORIENTED_EDGE('',*,*,#143,.F.);
#178=ORIENTED_EDGE('',*,*,#139,.T.);
#179=ORIENTED_EDGE('',*,*,#144,.T.);
#180=ORIENTED_EDGE('',*,*,#145,.T.);
#181=ORIENTED_EDGE('',*,*,#146,.F.);
#182=ORIENTED_EDGE('',*,*,#142,.T.);
#183=ORIENTED_EDGE('',*,*,#146,.T.);
#184=ORIENTED_EDGE('',*,*,#147,.T.);
#185=ORIENTED_EDGE('',*,*,#127,.T.);
#186=ORIENTED_EDGE('',*,*,#148,.T.);
#187=ORIENTED_EDGE('',*,*,#131,.T.);
#188=ORIENTED_EDGE('',*,*,#137,.T.);
#189=ORIENTED_EDGE('',*,*,#140,.T.);
#190=ORIENTED_EDGE('',*,*,#143,.T.);
#191=ORIENTED_EDGE('',*,*,#126,.F.);
#192=ORIENTED_EDGE('',*,*,#123,.F.);
#193=ORIENTED_EDGE('',*,*,#129,.F.);
#194=ORIENTED_EDGE('',*,*,#149,.T.);
#195=ORIENTED_EDGE('',*,*,#144,.F.);
#196=ORIENTED_EDGE('',*,*,#141,.F.);
#197=ORIENTED_EDGE('',*,*,#138,.F.);
#198=ORIENTED_EDGE('',*,*,#135,.F.);
#199=ORIENTED_EDGE('',*,*,#133,.F.);
#200=ORIENTED_EDGE('',*,*,#150,.T.);
#201=ORIENTED_EDGE('',*,*,#124,.T.);
#202=ORIENTED_EDGE('',*,*,#121,.T.);
#203=ORIENTED_EDGE('',*,*,#148,.F.);
#204=ORIENTED_EDGE('',*,*,#130,.F.);
#205=ORIENTED_EDGE('',*,*,#150,.F.);
#206=ORIENTED_EDGE('',*,*,#132,.F.);
#207=ORIENTED_EDGE('',*,*,#147,.F.);
#208=ORIENTED_EDGE('',*,*,#145,.F.);
#209=ORIENTED_EDGE('',*,*,#149,.F.);
#210=ORIENTED_EDGE('',*,*,#128,.F.);
#211=CYLINDRICAL_SURFACE('',#252,2.75);
#212=CYLINDRICAL_SURFACE('',#255,2.75);
#213=CYLINDRICAL_SURFACE('',#260,9.99);
#214=CYLINDRICAL_SURFACE('',#264,10.);
#215=CYLINDRICAL_SURFACE('',#274,1.);
#216=CYLINDRICAL_SURFACE('',#275,1.);
#217=ADVANCED_FACE('',(#25),#211,.F.);
#218=ADVANCED_FACE('',(#26),#212,.F.);
#219=ADVANCED_FACE('',(#27),#19,.F.);
#220=ADVANCED_FACE('',(#28),#20,.F.);
#221=ADVANCED_FACE('',(#29),#213,.T.);
#222=ADVANCED_FACE('',(#30),#21,.F.);
#223=ADVANCED_FACE('',(#31),#214,.T.);
#224=ADVANCED_FACE('',(#32),#22,.F.);
#225=ADVANCED_FACE('',(#33,#15,#16),#23,.T.);
#226=ADVANCED_FACE('',(#34,#17,#18),#24,.F.);
#227=ADVANCED_FACE('',(#35),#215,.T.);
#228=ADVANCED_FACE('',(#36),#216,.T.);
#229=CLOSED_SHELL('',(#217,#218,#219,#220,#221,#222,#223,#224,#225,#226,
#227,#228));
#230=DERIVED_UNIT_ELEMENT(#233,1.);
#231=DERIVED_UNIT_ELEMENT(#412,-3.);
#232=DIMENSIONAL_EXPONENTS(1.,0.,0.,0.,0.,0.,0.);
#233=(
CONVERSION_BASED_UNIT('gram',#235)
MASS_UNIT()
NAMED_UNIT(#232)
);
#234=(
MASS_UNIT()
NAMED_UNIT(*)
SI_UNIT(.KILO.,.GRAM.)
);
#235=MASS_MEASURE_WITH_UNIT(MASS_MEASURE(0.001),#234);
#236=DERIVED_UNIT((#230,#231));
#237=MEASURE_REPRESENTATION_ITEM('density measure',
POSITIVE_RATIO_MEASURE(6.E-5),#236);
#238=PROPERTY_DEFINITION_REPRESENTATION(#243,#240);
#239=PROPERTY_DEFINITION_REPRESENTATION(#244,#241);
#240=REPRESENTATION('material name',(#242),#409);
#241=REPRESENTATION('density',(#237),#409);
#242=DESCRIPTIVE_REPRESENTATION_ITEM('Acciaio','Acciaio');
#243=PROPERTY_DEFINITION('material property','material name',#419);
#244=PROPERTY_DEFINITION('material property','density of part',#419);
#245=DATE_TIME_ROLE('creation_date');
#246=APPLIED_DATE_AND_TIME_ASSIGNMENT(#247,#245,(#419));
#247=DATE_AND_TIME(#248,#249);
#248=CALENDAR_DATE(2011,30,12);
#249=LOCAL_TIME(0,0,0.,#250);
#250=COORDINATED_UNIVERSAL_TIME_OFFSET(0,0,.BEHIND.);
#251=AXIS2_PLACEMENT_3D('placement',#344,#276,#277);
#252=AXIS2_PLACEMENT_3D('',#345,#278,#279);
#253=AXIS2_PLACEMENT_3D('',#347,#280,#281);
#254=AXIS2_PLACEMENT_3D('',#350,#283,#284);
#255=AXIS2_PLACEMENT_3D('',#351,#285,#286);
#256=AXIS2_PLACEMENT_3D('',#353,#287,#288);
#257=AXIS2_PLACEMENT_3D('',#356,#290,#291);
#258=AXIS2_PLACEMENT_3D('',#357,#292,#293);
#259=AXIS2_PLACEMENT_3D('',#366,#298,#299);
#260=AXIS2_PLACEMENT_3D('',#375,#304,#305);
#261=AXIS2_PLACEMENT_3D('',#377,#306,#307);
#262=AXIS2_PLACEMENT_3D('',#380,#309,#310);
#263=AXIS2_PLACEMENT_3D('',#381,#311,#312);
#264=AXIS2_PLACEMENT_3D('',#387,#316,#317);
#265=AXIS2_PLACEMENT_3D('',#389,#318,#319);
#266=AXIS2_PLACEMENT_3D('',#392,#321,#322);
#267=AXIS2_PLACEMENT_3D('',#393,#323,#324);
#268=AXIS2_PLACEMENT_3D('',#399,#328,#329);
#269=AXIS2_PLACEMENT_3D('',#400,#330,#331);
#270=AXIS2_PLACEMENT_3D('',#401,#332,#333);
#271=AXIS2_PLACEMENT_3D('',#402,#334,#335);
#272=AXIS2_PLACEMENT_3D('',#403,#336,#337);
#273=AXIS2_PLACEMENT_3D('',#404,#338,#339);
#274=AXIS2_PLACEMENT_3D('',#405,#340,#341);
#275=AXIS2_PLACEMENT_3D('',#406,#342,#343);
#276=DIRECTION('axis',(0.,0.,1.));
#277=DIRECTION('refdir',(1.,0.,0.));
#278=DIRECTION('center_axis',(0.,0.,1.));
#279=DIRECTION('ref_axis',(0.,1.,0.));
#280=DIRECTION('center_axis',(0.,0.,1.));
#281=DIRECTION('ref_axis',(1.,0.,0.));
#282=DIRECTION('',(0.,0.,1.));
#283=DIRECTION('center_axis',(0.,0.,1.));
#284=DIRECTION('ref_axis',(0.,1.,0.));
#285=DIRECTION('center_axis',(0.,0.,1.));
#286=DIRECTION('ref_axis',(0.,1.,0.));
#287=DIRECTION('center_axis',(0.,0.,1.));
#288=DIRECTION('ref_axis',(1.,0.,0.));
#289=DIRECTION('',(0.,0.,1.));
#290=DIRECTION('center_axis',(0.,0.,1.));
#291=DIRECTION('ref_axis',(0.,1.,0.));
#292=DIRECTION('center_axis',(1.,0.,0.));
#293=DIRECTION('ref_axis',(0.,0.,-1.));
#294=DIRECTION('',(0.,-1.,0.));
#295=DIRECTION('',(0.,0.,-1.));
#296=DIRECTION('',(0.,-1.,0.));
#297=DIRECTION('',(0.,0.,1.));
#298=DIRECTION('center_axis',(0.,1.,0.));
#299=DIRECTION('ref_axis',(0.,0.,1.));
#300=DIRECTION('',(1.,0.,0.));
#301=DIRECTION('',(0.,0.,-1.));
#302=DIRECTION('',(1.,0.,0.));
#303=DIRECTION('',(0.,0.,-1.));
#304=DIRECTION('center_axis',(0.,0.,-1.));
#305=DIRECTION('ref_axis',(-1.,0.,0.));
#306=DIRECTION('center_axis',(0.,0.,1.));
#307=DIRECTION('ref_axis',(-1.,0.,0.));
#308=DIRECTION('',(0.,0.,-1.));
#309=DIRECTION('center_axis',(0.,0.,1.));
#310=DIRECTION('ref_axis',(-1.,0.,0.));
#311=DIRECTION('center_axis',(-1.,0.,0.));
#312=DIRECTION('ref_axis',(0.,0.,1.));
#313=DIRECTION('',(0.,1.,0.));
#314=DIRECTION('',(0.,0.,-1.));
#315=DIRECTION('',(0.,1.,0.));
#316=DIRECTION('center_axis',(0.,0.,-1.));
#317=DIRECTION('ref_axis',(-1.,0.,0.));
#318=DIRECTION('center_axis',(0.,0.,1.));
#319=DIRECTION('ref_axis',(-1.,0.,0.));
#320=DIRECTION('',(0.,0.,-1.));
#321=DIRECTION('center_axis',(0.,0.,1.));
#322=DIRECTION('ref_axis',(-1.,0.,0.));
#323=DIRECTION('center_axis',(0.,-1.,0.));
#324=DIRECTION('ref_axis',(0.,0.,-1.));
#325=DIRECTION('',(-1.,0.,0.));
#326=DIRECTION('',(0.,0.,1.));
#327=DIRECTION('',(-1.,0.,0.));
#328=DIRECTION('center_axis',(0.,0.,1.));
#329=DIRECTION('ref_axis',(1.,0.,0.));
#330=DIRECTION('center_axis',(0.,0.,1.));
#331=DIRECTION('ref_axis',(1.,0.,0.));
#332=DIRECTION('center_axis',(0.,0.,1.));
#333=DIRECTION('ref_axis',(1.,0.,0.));
#334=DIRECTION('center_axis',(0.,0.,1.));
#335=DIRECTION('ref_axis',(1.,0.,0.));
#336=DIRECTION('center_axis',(0.,0.,-1.));
#337=DIRECTION('ref_axis',(1.,0.,0.));
#338=DIRECTION('center_axis',(0.,0.,-1.));
#339=DIRECTION('ref_axis',(1.,0.,0.));
#340=DIRECTION('center_axis',(0.,0.,-1.));
#341=DIRECTION('ref_axis',(-0.707106781186545,-0.70710678118655,0.));
#342=DIRECTION('center_axis',(0.,0.,-1.));
#343=DIRECTION('ref_axis',(-0.707106781186543,0.707106781186552,0.));
#344=CARTESIAN_POINT('',(0.,0.,0.));
#345=CARTESIAN_POINT('Origin',(10.,4.99999999999999,-1.0000001E-8));
#346=CARTESIAN_POINT('',(10.,2.24999999999999,0.));
#347=CARTESIAN_POINT('Origin',(10.,5.,0.));
#348=CARTESIAN_POINT('',(10.,2.24999999999999,3.));
#349=CARTESIAN_POINT('',(10.,2.24999999999999,-1.0000001E-8));
#350=CARTESIAN_POINT('Origin',(10.,5.,3.));
#351=CARTESIAN_POINT('Origin',(10.,-5.00000000000001,-1.0000001E-8));
#352=CARTESIAN_POINT('',(10.,-7.75000000000001,0.));
#353=CARTESIAN_POINT('Origin',(10.,-5.00000000000001,0.));
#354=CARTESIAN_POINT('',(10.,-7.75000000000001,3.));
#355=CARTESIAN_POINT('',(10.,-7.75000000000001,-1.0000001E-8));
#356=CARTESIAN_POINT('Origin',(10.,-5.00000000000001,3.));
#357=CARTESIAN_POINT('Origin',(0.,-9.9,3.15));
#358=CARTESIAN_POINT('',(0.,8.99999999999999,3.));
#359=CARTESIAN_POINT('',(0.,-9.,3.));
#360=CARTESIAN_POINT('',(0.,8.99999999999999,3.));
#361=CARTESIAN_POINT('',(0.,8.99999999999999,0.));
#362=CARTESIAN_POINT('',(0.,8.99999999999999,3.));
#363=CARTESIAN_POINT('',(0.,-9.,0.));
#364=CARTESIAN_POINT('',(0.,8.99999999999999,0.));
#365=CARTESIAN_POINT('',(0.,-9.,0.));
#366=CARTESIAN_POINT('Origin',(-1.5505,-10.,-0.15));
#367=CARTESIAN_POINT('',(1.,-10.,3.));
#368=CARTESIAN_POINT('',(52.01,-10.,3.));
#369=CARTESIAN_POINT('',(1.,-10.,3.));
#370=CARTESIAN_POINT('',(1.,-10.,0.));
#371=CARTESIAN_POINT('',(1.,-10.,3.));
#372=CARTESIAN_POINT('',(52.01,-10.,0.));
#373=CARTESIAN_POINT('',(1.,-10.,0.));
#374=CARTESIAN_POINT('',(52.01,-10.,3.));
#375=CARTESIAN_POINT('Origin',(52.01,-0.009999999999997,3.00000001));
#376=CARTESIAN_POINT('',(62.,-0.009999999999997,0.));
#377=CARTESIAN_POINT('Origin',(52.01,-0.009999999999997,0.));
#378=CARTESIAN_POINT('',(62.,-0.009999999999997,3.));
#379=CARTESIAN_POINT('',(62.,-0.009999999999997,3.));
#380=CARTESIAN_POINT('Origin',(52.01,-0.009999999999997,3.));
#381=CARTESIAN_POINT('Origin',(62.,-0.0105,-0.15));
#382=CARTESIAN_POINT('',(62.,-6.217249E-15,0.));
#383=CARTESIAN_POINT('',(62.,-0.009999999999997,0.));
#384=CARTESIAN_POINT('',(62.,-6.217249E-15,3.));
#385=CARTESIAN_POINT('',(62.,-6.217249E-15,3.));
#386=CARTESIAN_POINT('',(62.,-0.009999999999997,3.));
#387=CARTESIAN_POINT('Origin',(52.,-6.217249E-15,3.00000001));
#388=CARTESIAN_POINT('',(52.,9.99999999999999,0.));
#389=CARTESIAN_POINT('Origin',(52.,-6.217249E-15,0.));
#390=CARTESIAN_POINT('',(52.,9.99999999999999,3.));
#391=CARTESIAN_POINT('',(52.,9.99999999999999,3.));
#392=CARTESIAN_POINT('Origin',(52.,-6.217249E-15,3.));
#393=CARTESIAN_POINT('Origin',(-1.55000000000001,9.99999999999999,3.15));
#394=CARTESIAN_POINT('',(1.,9.99999999999999,0.));
#395=CARTESIAN_POINT('',(52.,9.99999999999999,0.));
#396=CARTESIAN_POINT('',(1.,9.99999999999999,3.));
#397=CARTESIAN_POINT('',(1.,9.99999999999999,0.));
#398=CARTESIAN_POINT('',(52.,9.99999999999999,3.));
#399=CARTESIAN_POINT('Origin',(-3.09999999999999,-11.,3.));
#400=CARTESIAN_POINT('Origin',(1.,8.99999999999999,3.));
#401=CARTESIAN_POINT('Origin',(1.,-9.,3.));
#402=CARTESIAN_POINT('Origin',(-3.09999999999999,-11.,0.));
#403=CARTESIAN_POINT('Origin',(1.,8.99999999999999,0.));
#404=CARTESIAN_POINT('Origin',(1.,-9.,0.));
#405=CARTESIAN_POINT('Origin',(1.,-8.99999999999999,3.00000001));
#406=CARTESIAN_POINT('Origin',(0.999999999999986,8.99999999999999,3.00000001));
#407=UNCERTAINTY_MEASURE_WITH_UNIT(LENGTH_MEASURE(0.01),#411,
'DISTANCE_ACCURACY_VALUE',
'Maximum model space distance between geometric entities at asserted c
onnectivities');
#408=UNCERTAINTY_MEASURE_WITH_UNIT(LENGTH_MEASURE(0.01),#411,
'DISTANCE_ACCURACY_VALUE',
'Maximum model space distance between geometric entities at asserted c
onnectivities');
#409=(
GEOMETRIC_REPRESENTATION_CONTEXT(3)
GLOBAL_UNCERTAINTY_ASSIGNED_CONTEXT((#407))
GLOBAL_UNIT_ASSIGNED_CONTEXT((#411,#413,#414))
REPRESENTATION_CONTEXT('','3D')
);
#410=(
GEOMETRIC_REPRESENTATION_CONTEXT(3)
GLOBAL_UNCERTAINTY_ASSIGNED_CONTEXT((#408))
GLOBAL_UNIT_ASSIGNED_CONTEXT((#411,#413,#414))
REPRESENTATION_CONTEXT('','3D')
);
#411=(
LENGTH_UNIT()
NAMED_UNIT(*)
SI_UNIT(.MILLI.,.METRE.)
);
#412=(
LENGTH_UNIT()
NAMED_UNIT(*)
SI_UNIT(.CENTI.,.METRE.)
);
#413=(
NAMED_UNIT(*)
PLANE_ANGLE_UNIT()
SI_UNIT($,.RADIAN.)
);
#414=(
NAMED_UNIT(*)
SI_UNIT($,.STERADIAN.)
SOLID_ANGLE_UNIT()
);
#415=SHAPE_DEFINITION_REPRESENTATION(#416,#417);
#416=PRODUCT_DEFINITION_SHAPE('',$,#419);
#417=SHAPE_REPRESENTATION('',(#251),#409);
#418=PRODUCT_DEFINITION_CONTEXT('part definition',#423,'design');
#419=PRODUCT_DEFINITION('PROAC162-0','PROAC162-0',#420,#418);
#420=PRODUCT_DEFINITION_FORMATION('A',$,#425);
#421=PRODUCT_RELATED_PRODUCT_CATEGORY('PROAC162-0','PROAC162-0',(#425));
#422=APPLICATION_PROTOCOL_DEFINITION('international standard',
'automotive_design',2009,#423);
#423=APPLICATION_CONTEXT(
'Core Data for Automotive Mechanical Design Process');
#424=PRODUCT_CONTEXT('part definition',#423,'mechanical');
#425=PRODUCT('PROAC162-0','PROAC162-0','RISCONTRO MAGNETE L=62',(#424));
#426=PRESENTATION_STYLE_ASSIGNMENT((#427));
#427=SURFACE_STYLE_USAGE(.BOTH.,#430);
#428=SURFACE_STYLE_RENDERING_WITH_PROPERTIES($,#434,(#429));
#429=SURFACE_STYLE_TRANSPARENT(0.);
#430=SURFACE_SIDE_STYLE('',(#431,#428));
#431=SURFACE_STYLE_FILL_AREA(#432);
#432=FILL_AREA_STYLE('',(#433));
#433=FILL_AREA_STYLE_COLOUR('',#434);
#434=COLOUR_RGB('',0.63921568627451,0.63921568627451,0.662745098039216);
ENDSEC;
END-ISO-10303-21;
