  0
SECTION
  2
HEADER
  9
$ACADVER
  1
AC1015
  9
$ACADMAINTVER
 70
    20
  9
$DWGCODEPAGE
  3
ANSI_1252
  9
$INSBASE
 10
0.0
 20
0.0
 30
0.0
  9
$EXTMIN
 10
2638.950834209301
 20
1684.101756456179
 30
0.0
  9
$EXTMAX
 10
2791.223481763355
 20
1724.101756456179
 30
0.0
  9
$LIMMIN
 10
0.0
 20
0.0
  9
$LIMMAX
 10
420.0
 20
297.0
  9
$ORTHOMODE
 70
     0
  9
$REGENMODE
 70
     1
  9
$FILLMODE
 70
     1
  9
$QTEXTMODE
 70
     0
  9
$MIRRTEXT
 70
     0
  9
$LTSCALE
 40
1.0
  9
$ATTMODE
 70
     1
  9
$TEXTSIZE
 40
2.5
  9
$TRACEWID
 40
1.0
  9
$TEXTSTYLE
  7
Standard
  9
$CLAYER
  8
0
  9
$CELTYPE
  6
ByLayer
  9
$CECOLOR
 62
   256
  9
$CELTSCALE
 40
1.0
  9
$DISPSILH
 70
     0
  9
$DIMSCALE
 40
1.0
  9
$DIMASZ
 40
2.5
  9
$DIMEXO
 40
0.625
  9
$DIMDLI
 40
3.75
  9
$DIMRND
 40
0.0
  9
$DIMDLE
 40
0.0
  9
$DIMEXE
 40
1.25
  9
$DIMTP
 40
0.0
  9
$DIMTM
 40
0.0
  9
$DIMTXT
 40
2.5
  9
$DIMCEN
 40
2.5
  9
$DIMTSZ
 40
0.0
  9
$DIMTOL
 70
     0
  9
$DIMLIM
 70
     0
  9
$DIMTIH
 70
     0
  9
$DIMTOH
 70
     0
  9
$DIMSE1
 70
     0
  9
$DIMSE2
 70
     0
  9
$DIMTAD
 70
     1
  9
$DIMZIN
 70
     8
  9
$DIMBLK
  1

  9
$DIMASO
 70
     1
  9
$DIMSHO
 70
     1
  9
$DIMPOST
  1

  9
$DIMAPOST
  1

  9
$DIMALT
 70
     0
  9
$DIMALTD
 70
     3
  9
$DIMALTF
 40
0.03937007874016
  9
$DIMLFAC
 40
1.0
  9
$DIMTOFL
 70
     1
  9
$DIMTVP
 40
0.0
  9
$DIMTIX
 70
     0
  9
$DIMSOXD
 70
     0
  9
$DIMSAH
 70
     0
  9
$DIMBLK1
  1

  9
$DIMBLK2
  1

  9
$DIMSTYLE
  2
ISO-25
  9
$DIMCLRD
 70
     0
  9
$DIMCLRE
 70
     0
  9
$DIMCLRT
 70
     0
  9
$DIMTFAC
 40
1.0
  9
$DIMGAP
 40
0.625
  9
$DIMJUST
 70
     0
  9
$DIMSD1
 70
     0
  9
$DIMSD2
 70
     0
  9
$DIMTOLJ
 70
     0
  9
$DIMTZIN
 70
     8
  9
$DIMALTZ
 70
     0
  9
$DIMALTTZ
 70
     0
  9
$DIMUPT
 70
     0
  9
$DIMDEC
 70
     2
  9
$DIMTDEC
 70
     2
  9
$DIMALTU
 70
     2
  9
$DIMALTTD
 70
     3
  9
$DIMTXSTY
  7
Standard
  9
$DIMAUNIT
 70
     0
  9
$DIMADEC
 70
     0
  9
$DIMALTRND
 40
0.0
  9
$DIMAZIN
 70
     0
  9
$DIMDSEP
 70
    44
  9
$DIMATFIT
 70
     3
  9
$DIMFRAC
 70
     0
  9
$DIMLDRBLK
  1

  9
$DIMLUNIT
 70
     2
  9
$DIMLWD
 70
    -2
  9
$DIMLWE
 70
    -2
  9
$DIMTMOVE
 70
     0
  9
$LUNITS
 70
     2
  9
$LUPREC
 70
     4
  9
$SKETCHINC
 40
1.0
  9
$FILLETRAD
 40
0.0
  9
$AUNITS
 70
     0
  9
$AUPREC
 70
     0
  9
$MENU
  1
.
  9
$ELEVATION
 40
0.0
  9
$PELEVATION
 40
0.0
  9
$THICKNESS
 40
0.0
  9
$LIMCHECK
 70
     0
  9
$CHAMFERA
 40
0.0
  9
$CHAMFERB
 40
0.0
  9
$CHAMFERC
 40
0.0
  9
$CHAMFERD
 40
0.0
  9
$SKPOLY
 70
     0
  9
$TDCREATE
 40
2459768.680127315
  9
$TDUCREATE
 40
2459768.596793981
  9
$TDUPDATE
 40
2459768.680462963
  9
$TDUUPDATE
 40
2459768.597129630
  9
$TDINDWG
 40
0.0003356481
  9
$TDUSRTIMER
 40
0.0003356481
  9
$USRTIMER
 70
     1
  9
$ANGBASE
 50
0.0
  9
$ANGDIR
 70
     0
  9
$PDMODE
 70
     0
  9
$PDSIZE
 40
0.0
  9
$PLINEWID
 40
0.0
  9
$SPLFRAME
 70
     0
  9
$SPLINETYPE
 70
     6
  9
$SPLINESEGS
 70
     8
  9
$HANDSEED
  5
4BB
  9
$SURFTAB1
 70
     6
  9
$SURFTAB2
 70
     6
  9
$SURFTYPE
 70
     6
  9
$SURFU
 70
     6
  9
$SURFV
 70
     6
  9
$UCSBASE
  2

  9
$UCSNAME
  2

  9
$UCSORG
 10
0.0
 20
0.0
 30
0.0
  9
$UCSXDIR
 10
1.0
 20
0.0
 30
0.0
  9
$UCSYDIR
 10
0.0
 20
1.0
 30
0.0
  9
$UCSORTHOREF
  2

  9
$UCSORTHOVIEW
 70
     0
  9
$UCSORGTOP
 10
0.0
 20
0.0
 30
0.0
  9
$UCSORGBOTTOM
 10
0.0
 20
0.0
 30
0.0
  9
$UCSORGLEFT
 10
0.0
 20
0.0
 30
0.0
  9
$UCSORGRIGHT
 10
0.0
 20
0.0
 30
0.0
  9
$UCSORGFRONT
 10
0.0
 20
0.0
 30
0.0
  9
$UCSORGBACK
 10
0.0
 20
0.0
 30
0.0
  9
$PUCSBASE
  2

  9
$PUCSNAME
  2

  9
$PUCSORG
 10
0.0
 20
0.0
 30
0.0
  9
$PUCSXDIR
 10
1.0
 20
0.0
 30
0.0
  9
$PUCSYDIR
 10
0.0
 20
1.0
 30
0.0
  9
$PUCSORTHOREF
  2

  9
$PUCSORTHOVIEW
 70
     0
  9
$PUCSORGTOP
 10
0.0
 20
0.0
 30
0.0
  9
$PUCSORGBOTTOM
 10
0.0
 20
0.0
 30
0.0
  9
$PUCSORGLEFT
 10
0.0
 20
0.0
 30
0.0
  9
$PUCSORGRIGHT
 10
0.0
 20
0.0
 30
0.0
  9
$PUCSORGFRONT
 10
0.0
 20
0.0
 30
0.0
  9
$PUCSORGBACK
 10
0.0
 20
0.0
 30
0.0
  9
$USERI1
 70
     0
  9
$USERI2
 70
     0
  9
$USERI3
 70
     0
  9
$USERI4
 70
     0
  9
$USERI5
 70
     0
  9
$USERR1
 40
0.0
  9
$USERR2
 40
0.0
  9
$USERR3
 40
0.0
  9
$USERR4
 40
0.0
  9
$USERR5
 40
0.0
  9
$WORLDVIEW
 70
     1
  9
$SHADEDGE
 70
     3
  9
$SHADEDIF
 70
    70
  9
$TILEMODE
 70
     1
  9
$MAXACTVP
 70
    64
  9
$PINSBASE
 10
0.0
 20
0.0
 30
0.0
  9
$PLIMCHECK
 70
     0
  9
$PEXTMIN
 10
0.0
 20
0.0
 30
0.0
  9
$PEXTMAX
 10
0.0
 20
0.0
 30
0.0
  9
$PLIMMIN
 10
0.0
 20
0.0
  9
$PLIMMAX
 10
12.0
 20
9.0
  9
$UNITMODE
 70
     0
  9
$VISRETAIN
 70
     1
  9
$PLINEGEN
 70
     0
  9
$PSLTSCALE
 70
     1
  9
$TREEDEPTH
 70
  3020
  9
$CMLSTYLE
  2
Standard
  9
$CMLJUST
 70
     0
  9
$CMLSCALE
 40
20.0
  9
$PROXYGRAPHICS
 70
     1
  9
$MEASUREMENT
 70
     1
  9
$CELWEIGHT
370
    -1
  9
$ENDCAPS
280
     0
  9
$JOINSTYLE
280
     0
  9
$LWDISPLAY
290
     0
  9
$INSUNITS
 70
     4
  9
$HYPERLINKBASE
  1

  9
$STYLESHEET
  1

  9
$XEDIT
290
     1
  9
$CEPSNTYPE
380
     0
  9
$PSTYLEMODE
290
     1
  9
$FINGERPRINTGUID
  2
{F0D89DAB-AB3D-264D-9131-5DC5021D7A63}
  9
$VERSIONGUID
  2
{2F9AC377-A9ED-4D4F-894D-FABAFA3B6C92}
  9
$EXTNAMES
290
     1
  9
$PSVPSCALE
 40
0.0
  9
$OLESTARTUP
290
     0
  0
ENDSEC
  0
SECTION
  2
CLASSES
  0
CLASS
  1
ACDBDICTIONARYWDFLT
  2
AcDbDictionaryWithDefault
  3
ObjectDBX Classes
 90
        0
280
     0
281
     0
  0
CLASS
  1
ACDBPLACEHOLDER
  2
AcDbPlaceHolder
  3
ObjectDBX Classes
 90
        0
280
     0
281
     0
  0
CLASS
  1
LAYOUT
  2
AcDbLayout
  3
ObjectDBX Classes
 90
        0
280
     0
281
     0
  0
CLASS
  1
DICTIONARYVAR
  2
AcDbDictionaryVar
  3
ObjectDBX Classes
 90
        0
280
     0
281
     0
  0
CLASS
  1
TABLESTYLE
  2
AcDbTableStyle
  3
ObjectDBX Classes
 90
     4095
280
     0
281
     0
  0
CLASS
  1
MATERIAL
  2
AcDbMaterial
  3
ObjectDBX Classes
 90
     1153
280
     0
281
     0
  0
CLASS
  1
VISUALSTYLE
  2
AcDbVisualStyle
  3
ObjectDBX Classes
 90
     4095
280
     0
281
     0
  0
CLASS
  1
SCALE
  2
AcDbScale
  3
ObjectDBX Classes
 90
     1153
280
     0
281
     0
  0
CLASS
  1
MLEADERSTYLE
  2
AcDbMLeaderStyle
  3
ACDB_MLEADERSTYLE_CLASS
 90
     4095
280
     0
281
     0
  0
CLASS
  1
CELLSTYLEMAP
  2
AcDbCellStyleMap
  3
ObjectDBX Classes
 90
     1152
280
     0
281
     0
  0
CLASS
  1
EXACXREFPANELOBJECT
  2
ExAcXREFPanelObject
  3
EXAC_ESW
 90
     1025
280
     0
281
     0
  0
CLASS
  1
NPOCOLLECTION
  2
AcDbImpNonPersistentObjectsCollection
  3
ObjectDBX Classes
 90
     1153
280
     0
281
     0
  0
CLASS
  1
LAYER_INDEX
  2
AcDbLayerIndex
  3
ObjectDBX Classes
 90
    32768
280
     0
281
     0
  0
CLASS
  1
SPATIAL_INDEX
  2
AcDbSpatialIndex
  3
ObjectDBX Classes
 90
    32768
280
     0
281
     0
  0
CLASS
  1
IDBUFFER
  2
AcDbIdBuffer
  3
ObjectDBX Classes
 90
    32768
280
     0
281
     0
  0
CLASS
  1
ACDBSECTIONVIEWSTYLE
  2
AcDbSectionViewStyle
  3
ObjectDBX Classes
 90
     1025
280
     0
281
     0
  0
CLASS
  1
ACDBDETAILVIEWSTYLE
  2
AcDbDetailViewStyle
  3
ObjectDBX Classes
 90
     1025
280
     0
281
     0
  0
ENDSEC
  0
SECTION
  2
TABLES
  0
TABLE
  2
VPORT
  5
8
330
0
100
AcDbSymbolTable
 70
     1
  0
VPORT
  5
EA
330
8
100
AcDbSymbolTableRecord
100
AcDbViewportTableRecord
  2
*Active
 70
     0
 10
0.0
 20
0.0
 11
1.0
 21
1.0
 12
2742.190561154167
 22
1691.397531514765
 13
0.0
 23
0.0
 14
10.0
 24
10.0
 15
10.0
 25
10.0
 16
0.0
 26
0.0
 36
1.0
 17
0.0
 27
0.0
 37
0.0
 40
169.585957770039
 41
2.303721488595438
 42
50.0
 43
0.0
 44
0.0
 50
0.0
 51
0.0
 71
     0
 72
  1000
 73
     1
 74
     3
 75
     0
 76
     1
 77
     0
 78
     0
281
     0
 65
     1
110
0.0
120
0.0
130
0.0
111
1.0
121
0.0
131
0.0
112
0.0
122
1.0
132
0.0
 79
     0
146
0.0
1001
ACAD_NAV_VCDISPLAY
1070
     3
  0
ENDTAB
  0
TABLE
  2
LTYPE
  5
5
330
0
100
AcDbSymbolTable
 70
     1
  0
LTYPE
  5
14
330
5
100
AcDbSymbolTableRecord
100
AcDbLinetypeTableRecord
  2
ByBlock
 70
     0
  3

 72
    65
 73
     0
 40
0.0
  0
LTYPE
  5
15
330
5
100
AcDbSymbolTableRecord
100
AcDbLinetypeTableRecord
  2
ByLayer
 70
     0
  3

 72
    65
 73
     0
 40
0.0
  0
LTYPE
  5
16
330
5
100
AcDbSymbolTableRecord
100
AcDbLinetypeTableRecord
  2
Continuous
 70
     0
  3
Solid line
 72
    65
 73
     0
 40
0.0
  0
ENDTAB
  0
TABLE
  2
LAYER
  5
2
102
{ACAD_XDICTIONARY
360
1FF
102
}
330
0
100
AcDbSymbolTable
 70
     3
  0
LAYER
  5
10
102
{ACAD_XDICTIONARY
360
13C
102
}
330
2
100
AcDbSymbolTableRecord
100
AcDbLayerTableRecord
  2
0
 70
     0
 62
     7
  6
Continuous
370
    -3
390
F
  0
LAYER
  5
284
330
2
100
AcDbSymbolTableRecord
100
AcDbLayerTableRecord
  2
NASCOSTA
 70
     0
 62
     1
  6
Continuous
370
     9
390
F
  0
LAYER
  5
285
330
2
100
AcDbSymbolTableRecord
100
AcDbLayerTableRecord
  2
VISIBILE
 70
     0
 62
     7
  6
Continuous
370
    30
390
F
  0
ENDTAB
  0
TABLE
  2
STYLE
  5
3
330
0
100
AcDbSymbolTable
 70
     2
  0
STYLE
  5
11
330
3
100
AcDbSymbolTableRecord
100
AcDbTextStyleTableRecord
  2
Standard
 70
     0
 40
0.0
 41
1.0
 50
0.0
 71
     0
 42
2.5
  3
arial.ttf
  4

1001
ACAD
1000
Arial
1071
       34
  0
STYLE
  5
132
330
3
100
AcDbSymbolTableRecord
100
AcDbTextStyleTableRecord
  2
Annotativa
 70
     0
 40
0.0
 41
1.0
 50
0.0
 71
     0
 42
2.5
  3
arial.ttf
  4

1001
AcadAnnotative
1000
AnnotativeData
1002
{
1070
     1
1070
     1
1002
}
1001
ACAD
1000
Arial
1071
       34
  0
ENDTAB
  0
TABLE
  2
VIEW
  5
6
330
0
100
AcDbSymbolTable
 70
     0
  0
ENDTAB
  0
TABLE
  2
UCS
  5
7
330
0
100
AcDbSymbolTable
 70
     0
  0
ENDTAB
  0
TABLE
  2
APPID
  5
9
330
0
100
AcDbSymbolTable
 70
     8
  0
APPID
  5
12
330
9
100
AcDbSymbolTableRecord
100
AcDbRegAppTableRecord
  2
ACAD
 70
     0
  0
APPID
  5
9E
330
9
100
AcDbSymbolTableRecord
100
AcDbRegAppTableRecord
  2
ACAD_PSEXT
 70
     0
  0
APPID
  5
133
330
9
100
AcDbSymbolTableRecord
100
AcDbRegAppTableRecord
  2
AcadAnnoPO
 70
     0
  0
APPID
  5
134
330
9
100
AcDbSymbolTableRecord
100
AcDbRegAppTableRecord
  2
AcadAnnotative
 70
     0
  0
APPID
  5
135
330
9
100
AcDbSymbolTableRecord
100
AcDbRegAppTableRecord
  2
ACAD_DSTYLE_DIMJAG
 70
     0
  0
APPID
  5
136
330
9
100
AcDbSymbolTableRecord
100
AcDbRegAppTableRecord
  2
ACAD_DSTYLE_DIMTALN
 70
     0
  0
APPID
  5
165
330
9
100
AcDbSymbolTableRecord
100
AcDbRegAppTableRecord
  2
ACAD_MLEADERVER
 70
     0
  0
APPID
  5
217
330
9
100
AcDbSymbolTableRecord
100
AcDbRegAppTableRecord
  2
ACAD_NAV_VCDISPLAY
 70
     0
  0
ENDTAB
  0
TABLE
  2
DIMSTYLE
  5
A
330
0
100
AcDbSymbolTable
 70
     3
100
AcDbDimStyleTable
 71
     2
340
27
340
137
  0
DIMSTYLE
105
1B0
330
A
100
AcDbSymbolTableRecord
100
AcDbDimStyleTableRecord
  2
Standard
 70
     0
340
11
  0
DIMSTYLE
105
137
330
A
100
AcDbSymbolTableRecord
100
AcDbDimStyleTableRecord
  2
Annotativa
 70
     0
 40
0.0
 41
2.5
 42
0.625
 43
3.75
 44
1.25
 73
     0
 74
     0
 77
     1
 78
     8
140
2.5
141
2.5
143
0.03937007874016
147
0.625
171
     3
172
     1
271
     2
272
     2
274
     3
278
    44
283
     0
284
     8
340
11
1001
AcadAnnotative
1000
AnnotativeData
1002
{
1070
     1
1070
     1
1002
}
1001
ACAD_DSTYLE_DIMJAG
1070
   388
1040
1.5
1001
ACAD_DSTYLE_DIMTALN
1070
   392
1070
     0
  0
DIMSTYLE
105
27
330
A
100
AcDbSymbolTableRecord
100
AcDbDimStyleTableRecord
  2
ISO-25
 70
     0
 41
2.5
 42
0.625
 43
3.75
 44
1.25
 73
     0
 74
     0
 77
     1
 78
     8
140
2.5
141
2.5
143
0.03937007874016
147
0.625
171
     3
172
     1
271
     2
272
     2
274
     3
278
    44
283
     0
284
     8
340
11
  0
ENDTAB
  0
TABLE
  2
BLOCK_RECORD
  5
1
330
0
100
AcDbSymbolTable
 70
     2
  0
BLOCK_RECORD
  5
1F
102
{ACAD_XDICTIONARY
360
1CE
102
}
330
1
100
AcDbSymbolTableRecord
100
AcDbBlockTableRecord
  2
*Model_Space
340
22
  0
BLOCK_RECORD
  5
D2
330
1
100
AcDbSymbolTableRecord
100
AcDbBlockTableRecord
  2
*Paper_Space
340
D3
  0
BLOCK_RECORD
  5
D6
330
1
100
AcDbSymbolTableRecord
100
AcDbBlockTableRecord
  2
*Paper_Space0
340
D7
  0
ENDTAB
  0
ENDSEC
  0
SECTION
  2
BLOCKS
  0
BLOCK
  5
20
330
1F
100
AcDbEntity
  8
0
100
AcDbBlockBegin
  2
*Model_Space
 70
     0
 10
0.0
 20
0.0
 30
0.0
  3
*Model_Space
  1

  0
ENDBLK
  5
21
330
1F
100
AcDbEntity
  8
0
100
AcDbBlockEnd
  0
BLOCK
  5
D4
330
D2
100
AcDbEntity
 67
     1
  8
0
100
AcDbBlockBegin
  2
*Paper_Space
 70
     0
 10
0.0
 20
0.0
 30
0.0
  3
*Paper_Space
  1

  0
ENDBLK
  5
D5
330
D2
100
AcDbEntity
 67
     1
  8
0
100
AcDbBlockEnd
  0
BLOCK
  5
D8
330
D6
100
AcDbEntity
 67
     1
  8
0
100
AcDbBlockBegin
  2
*Paper_Space0
 70
     0
 10
0.0
 20
0.0
 30
0.0
  3
*Paper_Space0
  1

  0
ENDBLK
  5
D9
330
D6
100
AcDbEntity
 67
     1
  8
0
100
AcDbBlockEnd
  0
ENDSEC
  0
SECTION
  2
ENTITIES
  0
ELLIPSE
  5
37B
330
1F
100
AcDbEntity
  8
NASCOSTA
100
AcDbEllipse
 10
2659.065668347594
 20
1716.256211845996
 30
0.0
 11
0.2464295005758537
 21
-0.0609956381370289
 31
0.0
210
0.0
220
0.0
230
1.0
 40
0.5658967929884354
 41
4.158395536778659
 42
4.235656477027925
  0
SPLINE
  5
37C
330
1F
100
AcDbEntity
  8
NASCOSTA
100
AcDbSpline
210
0.0
220
0.0
230
1.0
 70
     8
 71
     3
 72
    20
 73
    16
 74
     0
 42
0.000000001
 43
0.0000000001
 40
0.114862406606401
 40
0.114862406606401
 40
0.114862406606401
 40
0.114862406606401
 40
0.122353229314164
 40
0.122353229314164
 40
0.130569849442461
 40
0.130569849442461
 40
0.136643403223001
 40
0.136643403223001
 40
0.141799530399626
 40
0.141799530399626
 40
0.144607468704364
 40
0.144607468704364
 40
0.147534811985262
 40
0.147534811985262
 40
0.147908039378677
 40
0.147908039378677
 40
0.147908039378677
 40
0.147908039378677
 10
2658.906670345754
 20
1716.169705256134
 30
0.0
 10
2658.906507428271
 20
1716.194322984113
 30
0.0
 10
2658.908247423696
 20
1716.219871216119
 30
0.0
 10
2658.915811609756
 20
1716.273262155353
 30
0.0
 10
2658.921952158842
 20
1716.300651279862
 30
0.0
 10
2658.935871887456
 20
1716.345045621744
 30
0.0
 10
2658.943060882729
 20
1716.363705962462
 30
0.0
 10
2658.958716906316
 20
1716.395814464832
 30
0.0
 10
2658.966520443928
 20
1716.40899158415
 30
0.0
 10
2658.979208176265
 20
1716.426313233577
 30
0.0
 10
2658.983711060505
 20
1716.431712434721
 30
0.0
 10
2658.992878262037
 20
1716.441316890945
 30
0.0
 10
2658.997476194076
 20
1716.445393979469
 30
0.0
 10
2659.002520660322
 20
1716.449148593221
 30
0.0
 10
2659.00308891406
 20
1716.449560898228
 30
0.0
 10
2659.003654946965
 20
1716.449961143933
 30
0.0
  0
SPLINE
  5
37D
330
1F
100
AcDbEntity
  8
NASCOSTA
100
AcDbSpline
210
0.0
220
0.0
230
1.0
 70
     8
 71
     3
 72
    21
 73
    17
 74
     0
 42
0.000000001
 43
0.0000000001
 40
-0.0327113183273528
 40
-0.0327113183273528
 40
-0.0327113183273528
 40
-0.0327113183273528
 40
-0.0322258982919843
 40
-0.0322258982919843
 40
-0.0227029730012657
 40
-0.0227029730012657
 40
-0.0158412509858798
 40
-0.0158412509858798
 40
-0.0106057353782844
 40
-0.0106057353782844
 40
-0.0056460560620839
 40
-0.0056460560620839
 40
0.0
 40
0.0
 40
0.0
 40
0.0003733004663478
 40
0.0003733004663478
 40
0.0003733004663478
 40
0.0003733004663478
 10
2657.358547335176
 20
1715.075016977246
 30
0.0
 10
2657.358356209751
 20
1715.076432763159
 30
0.0
 10
2657.358152497768
 20
1715.077839046523
 30
0.0
 10
2657.353695880969
 20
1715.106631782153
 30
0.0
 10
2657.344771670855
 20
1715.129546820423
 30
0.0
 10
2657.322770132923
 20
1715.159423826943
 30
0.0
 10
2657.310947600003
 20
1715.169862060071
 30
0.0
 10
2657.285033665828
 20
1715.181667307672
 30
0.0
 10
2657.272272883179
 20
1715.184529640217
 30
0.0
 10
2657.244615556451
 20
1715.184475514443
 30
0.0
 10
2657.230437125967
 20
1715.181856622677
 30
0.0
 10
2657.199232773317
 20
1715.17092245774
 30
0.0
 10
2657.182978924478
 20
1715.162196096855
 30
0.0
 10
2657.167517545711
 20
1715.151584229401
 30
0.0
 10
2657.166495285244
 20
1715.150882604226
 30
0.0
 10
2657.165477333764
 20
1715.150173313699
 30
0.0
 10
2657.164463791303
 20
1715.149456605867
 30
0.0
  0
ELLIPSE
  5
37E
330
1F
100
AcDbEntity
  8
NASCOSTA
100
AcDbEllipse
 10
2657.236684103101
 20
1714.962924682959
 30
0.0
 11
0.2479148642754726
 21
-0.0576354292162762
 31
0.0
210
0.0
220
0.0
230
1.0
 40
0.5775913556033562
 41
1.118157828376604
 42
1.195418773258487
  0
ELLIPSE
  5
37F
330
1F
100
AcDbEntity
  8
NASCOSTA
100
AcDbEllipse
 10
2669.494918345091
 20
1714.875264845348
 30
0.0
 11
0.0672827546146193
 21
0.1883428547396182
 31
0.0
210
0.0
220
0.0
230
1.0
 40
0.6950722372880611
 41
6.283082684200898
 42
6.283185307179533
  0
ELLIPSE
  5
380
330
1F
100
AcDbEntity
  8
NASCOSTA
100
AcDbEllipse
 10
2655.041057915303
 20
1713.410382526373
 30
0.0
 11
0.0412144542579281
 21
0.2910011885855889
 31
0.0
210
0.0
220
0.0
230
1.0
 40
0.010969723761821
 41
1.481993083322391
 42
1.559254049473198
  0
SPLINE
  5
381
330
1F
100
AcDbEntity
  8
NASCOSTA
100
AcDbSpline
210
0.0
220
0.0
230
1.0
 70
     8
 71
     3
 72
    20
 73
    16
 74
     0
 42
0.000000001
 43
0.0000000001
 40
0.114862406600323
 40
0.114862406600323
 40
0.114862406600323
 40
0.114862406600323
 40
0.122353229306649
 40
0.122353229306649
 40
0.130569849434418
 40
0.130569849434418
 40
0.13664340321515
 40
0.13664340321515
 40
0.141799530391843
 40
0.141799530391843
 40
0.1446074686966
 40
0.1446074686966
 40
0.147534811977528
 40
0.147534811977528
 40
0.147908039370938
 40
0.147908039370938
 40
0.147908039370938
 40
0.147908039370938
 10
2655.041533459927
 20
1713.436640753954
 30
0.0
 10
2655.009767208415
 20
1713.438911550132
 30
0.0
 10
2654.979833062709
 20
1713.442062782155
 30
0.0
 10
2654.923390184439
 20
1713.45019389216
 30
0.0
 10
2654.897952314087
 20
1713.455253702145
 30
0.0
 10
2654.863064324261
 20
1713.46513577534
 30
0.0
 10
2654.850539372689
 20
1713.469856250561
 30
0.0
 10
2654.834468500438
 20
1713.479530449738
 30
0.0
 10
2654.830177232421
 20
1713.484155249978
 30
0.0
 10
2654.828744733787
 20
1713.491492388334
 30
0.0
 10
2654.829248079003
 20
1713.494063488312
 30
0.0
 10
2654.832178053724
 20
1713.499257559162
 30
0.0
 10
2654.834664167555
 20
1713.501841366711
 30
0.0
 10
2654.838392752534
 20
1713.504665511895
 30
0.0
 10
2654.838827602329
 20
1713.50498348607
 30
0.0
 10
2654.839275326343
 20
1713.505300074756
 30
0.0
  0
SPLINE
  5
382
330
1F
100
AcDbEntity
  8
NASCOSTA
100
AcDbSpline
210
0.0
220
0.0
230
1.0
 70
     8
 71
     3
 72
    10
 73
     6
 74
     0
 42
0.000000001
 43
0.0000000001
 40
0.0716701476905239
 40
0.0716701476905239
 40
0.0716701476905239
 40
0.0716701476905239
 40
0.0786331249632526
 40
0.0786331249632526
 40
0.0794368849796468
 40
0.0794368849796468
 40
0.0794368849796468
 40
0.0794368849796468
 10
2669.959899546832
 20
1700.082708685857
 30
0.0
 10
2669.962313558674
 20
1700.063353529671
 30
0.0
 10
2669.963450808709
 20
1700.043123937733
 30
0.0
 10
2669.963199970153
 20
1700.020525928767
 30
0.0
 10
2669.963155413884
 20
1700.018156332638
 30
0.0
 10
2669.963093076561
 20
1700.015759750666
 30
0.0
  0
LINE
  5
383
330
1F
100
AcDbEntity
  8
NASCOSTA
100
AcDbLine
 10
2659.412221851133
 20
1716.738861572439
 30
0.0
 11
2659.003654946965
 21
1716.449961143933
 31
0.0
  0
SPLINE
  5
384
330
1F
100
AcDbEntity
  8
NASCOSTA
100
AcDbSpline
210
0.0
220
0.0
230
1.0
 70
     8
 71
     3
 72
    17
 73
    13
 74
     0
 42
0.000000001
 43
0.0000000001
 40
-0.0225429039069979
 40
-0.0225429039069979
 40
-0.0225429039069979
 40
-0.0225429039069979
 40
-0.0168514905637764
 40
-0.0168514905637764
 40
-0.0168514905637764
 40
-0.0113529436856899
 40
-0.0113529436856899
 40
-0.0113529436856899
 40
-0.0054356670669585
 40
-0.0054356670669585
 40
-0.0054356670669585
 40
-0.0000000001717114
 40
-0.0000000001717114
 40
-0.0000000001717114
 40
-0.0000000001717114
 10
2658.906670345688
 20
1716.16970525605
 30
0.0
 10
2658.907899846744
 20
1716.156369061065
 30
0.0
 10
2658.91003269176
 20
1716.14417325758
 30
0.0
 10
2658.913150666111
 20
1716.133709764773
 30
0.0
 10
2658.916162980821
 20
1716.123600851181
 30
0.0
 10
2658.920106101091
 20
1716.115076134755
 30
0.0
 10
2658.925032663902
 20
1716.108827325085
 30
0.0
 10
2658.930334398266
 20
1716.102102651062
 30
0.0
 10
2658.936733561123
 20
1716.098071205137
 30
0.0
 10
2658.944186429027
 20
1716.097567625217
 30
0.0
 10
2658.951032704762
 20
1716.097105031887
 30
0.0
 10
2658.958571951151
 20
1716.099638425861
 30
0.0
 10
2658.966635556446
 20
1716.105340256528
 30
0.0
  0
LINE
  5
385
330
1F
100
AcDbEntity
  8
NASCOSTA
100
AcDbLine
 10
2658.966635557095
 20
1716.105340260668
 30
0.0
 11
2659.316296673369
 21
1716.352588007103
 31
0.0
  0
LINE
  5
386
330
1F
100
AcDbEntity
  8
NASCOSTA
100
AcDbLine
 10
2670.560711245764
 20
1700.450584417874
 30
0.0
 11
2670.04297723031
 21
1700.084491184695
 31
0.0
  0
SPLINE
  5
387
330
1F
100
AcDbEntity
  8
NASCOSTA
100
AcDbSpline
210
0.0
220
0.0
230
1.0
 70
     8
 71
     3
 72
    20
 73
    16
 74
     0
 42
0.000000001
 43
0.0000000001
 40
0.0000000000394436
 40
0.0000000000394436
 40
0.0000000000394436
 40
0.0000000000394436
 40
0.0033055603547566
 40
0.0033055603547566
 40
0.0033055603547566
 40
0.0068308974228598
 40
0.0068308974228598
 40
0.0068308974228598
 40
0.0144516738489122
 40
0.0144516738489122
 40
0.0144516738489122
 40
0.0215001663535888
 40
0.0215001663535888
 40
0.0215001663535888
 40
0.0287327785063278
 40
0.0287327785063278
 40
0.0287327785063278
 40
0.0287327785063278
 10
2670.04297723026
 20
1700.084491183225
 30
0.0
 10
2670.037137717991
 20
1700.08036202433
 30
0.0
 10
2670.031353938251
 20
1700.077471418215
 30
0.0
 10
2670.025682112759
 20
1700.075800798831
 30
0.0
 10
2670.019633184667
 20
1700.074019104994
 30
0.0
 10
2670.013816710799
 20
1700.073655380204
 30
0.0
 10
2670.008285566907
 20
1700.074544529369
 30
0.0
 10
2669.996328806414
 20
1700.076466617062
 30
0.0
 10
2669.985983973407
 20
1700.084171745053
 30
0.0
 10
2669.977417685529
 20
1700.09543224247
 30
0.0
 10
2669.969494684969
 20
1700.105847130298
 30
0.0
 10
2669.963043047207
 20
1700.119356400522
 30
0.0
 10
2669.958006782339
 20
1700.1346458944
 30
0.0
 10
2669.952838960928
 20
1700.15033477811
 30
0.0
 10
2669.949088037186
 20
1700.168108435764
 30
0.0
 10
2669.946675165905
 20
1700.187077681029
 30
0.0
  0
SPLINE
  5
388
330
1F
100
AcDbEntity
  8
NASCOSTA
100
AcDbSpline
210
0.0
220
0.0
230
1.0
 70
     8
 71
     3
 72
     8
 73
     4
 74
     0
 42
0.000000001
 43
0.0000000001
 40
0.0003373548629883
 40
0.0003373548629883
 40
0.0003373548629883
 40
0.0003373548629883
 40
0.0004710026131028
 40
0.0004710026131028
 40
0.0004710026131028
 40
0.0004710026131028
 10
2669.946675165477
 20
1700.187077684395
 30
0.0
 10
2669.95110171539
 20
1700.152277524938
 30
0.0
 10
2669.955510502275
 20
1700.117487482969
 30
0.0
 10
2669.959899546832
 20
1700.082708685857
 30
0.0
  0
SPLINE
  5
389
330
1F
100
AcDbEntity
  8
NASCOSTA
100
AcDbSpline
210
0.0
220
0.0
230
1.0
 70
     8
 71
     3
 72
    16
 73
    12
 74
     0
 42
0.000000001
 43
0.0000000001
 40
-0.0269083325850809
 40
-0.0269083325850809
 40
-0.0269083325850809
 40
-0.0269083325850809
 40
-0.0188067078373773
 40
-0.0188067078373773
 40
-0.0139504917004279
 40
-0.0139504917004279
 40
-0.0092987563283018
 40
-0.0092987563283018
 40
-0.0047833977370057
 40
-0.0047833977370057
 40
0.0
 40
0.0
 40
0.0
 40
0.0
 10
2669.963092997136
 20
1700.015759697442
 30
0.0
 10
2669.962319703627
 20
1699.986424390708
 30
0.0
 10
2669.962251924136
 20
1699.960521222494
 30
0.0
 10
2669.966284271131
 20
1699.926546449791
 30
0.0
 10
2669.96879979123
 20
1699.914879520203
 30
0.0
 10
2669.976893712199
 20
1699.896426571137
 30
0.0
 10
2669.982116314877
 20
1699.889959050285
 30
0.0
 10
2669.994985790834
 20
1699.882654871934
 30
0.0
 10
2670.002212420515
 20
1699.881869261074
 30
0.0
 10
2670.017997189057
 20
1699.884984947374
 30
0.0
 10
2670.026515565778
 20
1699.889143530821
 30
0.0
 10
2670.0350342375
 20
1699.895127011506
 30
0.0
  0
SPLINE
  5
38A
330
1F
100
AcDbEntity
  8
NASCOSTA
100
AcDbSpline
210
0.0
220
0.0
230
1.0
 70
     8
 71
     3
 72
    16
 73
    12
 74
     0
 42
0.000000001
 43
0.0000000001
 40
-0.0338087776645638
 40
-0.0338087776645638
 40
-0.0338087776645638
 40
-0.0338087776645638
 40
-0.0277949650016346
 40
-0.0277949650016346
 40
-0.0220997067600221
 40
-0.0220997067600221
 40
-0.0162330673440065
 40
-0.0162330673440065
 40
-0.0101093935362904
 40
-0.0101093935362904
 40
-0.0000000059045568
 40
-0.0000000059045568
 40
-0.0000000059045568
 40
-0.0000000059045568
 10
2670.035000609856
 20
1699.895139165031
 30
0.0
 10
2670.026560390299
 20
1699.889182538573
 30
0.0
 10
2670.018066022281
 20
1699.885037001547
 30
0.0
 10
2670.002297706961
 20
1699.881911492673
 30
0.0
 10
2669.995065073018
 20
1699.882690308763
 30
0.0
 10
2669.982184272237
 20
1699.88998287407
 30
0.0
 10
2669.976956302894
 20
1699.896445243831
 30
0.0
 10
2669.968851285299
 20
1699.914892863821
 30
0.0
 10
2669.96633046704
 20
1699.92655865351
 30
0.0
 10
2669.962306684548
 20
1699.960303546253
 30
0.0
 10
2669.962311425747
 20
1699.986032157741
 30
0.0
 10
2669.963093068667
 20
1700.015759745361
 30
0.0
  0
LINE
  5
38B
330
1F
100
AcDbEntity
  8
NASCOSTA
100
AcDbLine
 10
2655.224204300749
 20
1713.459041741181
 30
0.0
 11
2657.266902343888
 21
1714.903447379401
 31
0.0
  0
LINE
  5
38C
330
1F
100
AcDbEntity
  8
NASCOSTA
100
AcDbLine
 10
2657.164463791303
 20
1715.149456605867
 30
0.0
 11
2654.839275326343
 21
1713.505300074756
 31
0.0
  0
SPLINE
  5
38D
330
1F
100
AcDbEntity
  8
NASCOSTA
100
AcDbSpline
210
0.0
220
0.0
230
1.0
 70
     8
 71
     3
 72
    17
 73
    13
 74
     0
 42
0.000000001
 43
0.0000000001
 40
-0.0225429585506787
 40
-0.0225429585506787
 40
-0.0225429585506787
 40
-0.0225429585506787
 40
-0.0168557535207492
 40
-0.0168557535207492
 40
-0.0168557535207492
 40
-0.0113609908484245
 40
-0.0113609908484245
 40
-0.0113609908484245
 40
-0.0054393775117273
 40
-0.0054393775117273
 40
-0.0054393775117273
 40
-0.0000000001717303
 40
-0.0000000001717303
 40
-0.0000000001717303
 40
-0.0000000001717303
 10
2655.041533459932
 20
1713.43664075392
 30
0.0
 10
2655.06052361798
 20
1713.435873745542
 30
0.0
 10
2655.07950343722
 20
1713.435600347018
 30
0.0
 10
2655.097908091074
 20
1713.435954013961
 30
0.0
 10
2655.115689972413
 20
1713.436295713602
 30
0.0
 10
2655.132995298545
 20
1713.437224744934
 30
0.0
 10
2655.149107725377
 20
1713.438887573462
 30
0.0
 10
2655.166471816842
 20
1713.440679575805
 30
0.0
 10
2655.182310864058
 20
1713.443311899841
 30
0.0
 10
2655.195594986229
 20
1713.446923877779
 30
0.0
 10
2655.207797294791
 20
1713.45024170855
 30
0.0
 10
2655.217489983335
 20
1713.454293997443
 30
0.0
 10
2655.224204305019
 20
1713.459041740519
 30
0.0
  0
SPLINE
  5
38E
330
1F
100
AcDbEntity
  8
NASCOSTA
100
AcDbSpline
210
0.0
220
0.0
230
1.0
 70
     8
 71
     3
 72
    17
 73
    13
 74
     0
 42
0.000000001
 43
0.0000000001
 40
-0.0226305583929073
 40
-0.0226305583929073
 40
-0.0226305583929073
 40
-0.0226305583929073
 40
-0.0171879323498546
 40
-0.0171879323498546
 40
-0.0171879323498546
 40
-0.0112641994371624
 40
-0.0112641994371624
 40
-0.0112641994371624
 40
-0.0057302062483909
 40
-0.0057302062483909
 40
-0.0057302062483909
 40
-0.0000009999994471
 40
-0.0000009999994471
 40
-0.0000009999994471
 40
-0.0000009999994471
 10
2657.266902345472
 20
1714.903447376841
 30
0.0
 10
2657.281637829195
 20
1714.913866936625
 30
0.0
 10
2657.294875225229
 20
1714.926010532732
 30
0.0
 10
2657.306392021627
 20
1714.939432043656
 30
0.0
 10
2657.318926857813
 20
1714.954039963688
 30
0.0
 10
2657.32903875563
 20
1714.969704356816
 30
0.0
 10
2657.336878074434
 20
1714.985673521141
 30
0.0
 10
2657.344201621512
 20
1715.000592027413
 30
0.0
 10
2657.349490537067
 20
1715.015664407312
 30
0.0
 10
2657.353006856138
 20
1715.030415835423
 30
0.0
 10
2657.356647214286
 20
1715.045687624027
 30
0.0
 10
2657.35840295081
 20
1715.060669848365
 30
0.0
 10
2657.35854733529
 20
1715.075016977288
 30
0.0
  0
ELLIPSE
  5
38F
330
1F
100
AcDbEntity
  8
NASCOSTA
100
AcDbEllipse
 10
2678.875504452745
 20
1684.101756456179
 30
0.0
 11
38.0
 21
-0.0000000000027645
 31
0.0
210
0.0
220
0.0
230
1.0
 40
0.7071067811865463
 41
2.277164881863759
 42
2.43522409852126
  0
LINE
  5
390
330
1F
100
AcDbEntity
  8
NASCOSTA
100
AcDbLine
 10
2642.808447882315
 20
1696.01742239094
 30
0.0
 11
2642.797130898993
 21
1696.032848682626
 31
0.0
  0
ELLIPSE
  5
391
330
1F
100
AcDbEntity
  8
NASCOSTA
100
AcDbEllipse
 10
2688.09085301962
 20
1690.147053597823
 30
0.0
 11
-16.98236866525764
 21
25.88763514426192
 31
0.0
210
0.0
220
0.0
230
1.0
 40
0.8658935039207589
 41
6.278247313785085
 42
6.348561749336226
  0
ELLIPSE
  5
392
330
1F
100
AcDbEntity
  8
NASCOSTA
100
AcDbEllipse
 10
2678.875504452745
 20
1684.101756456179
 30
0.0
 11
-40.0
 21
0.0000000000000022
 31
0.0
210
0.0
220
0.0
230
1.0
 40
0.7071067811865463
 41
5.422716652705421
 42
5.572857634858855
  0
SPLINE
  5
393
330
1F
100
AcDbEntity
  8
NASCOSTA
100
AcDbSpline
210
0.0
220
0.0
230
1.0
 70
     8
 71
     3
 72
    16
 73
    12
 74
     0
 42
0.000000001
 43
0.0000000001
 40
-0.0338159973662069
 40
-0.0338159973662069
 40
-0.0338159973662069
 40
-0.0338159973662069
 40
-0.0277949649994184
 40
-0.0277949649994184
 40
-0.0220997067583624
 40
-0.0220997067583624
 40
-0.0162330673429154
 40
-0.0162330673429154
 40
-0.0101093935357856
 40
-0.0101093935357856
 40
-0.0000000059045492
 40
-0.0000000059045492
 40
-0.0000000059045492
 40
-0.0000000059045492
 10
2666.559056301274
 20
1697.437272131967
 30
0.0
 10
2666.554718046182
 20
1697.434214809027
 30
0.0
 10
2666.548447465256
 20
1697.43164124399
 30
0.0
 10
2666.531983622093
 20
1697.428028870415
 30
0.0
 10
2666.522100260112
 20
1697.426933338735
 30
0.0
 10
2666.498066845728
 20
1697.426339815336
 30
0.0
 10
2666.484490629221
 20
1697.426899082916
 30
0.0
 10
2666.454083941295
 20
1697.429577040582
 30
0.0
 10
2666.438042295171
 20
1697.4316821612
 30
0.0
 10
2666.395563902537
 20
1697.438235538345
 30
0.0
 10
2666.366871653263
 20
1697.44367231327
 30
0.0
 10
2666.334643657493
 20
1697.450058561528
 30
0.0
  0
SPLINE
  5
394
330
1F
100
AcDbEntity
  8
NASCOSTA
100
AcDbSpline
210
0.0
220
0.0
230
1.0
 70
     8
 71
     3
 72
    16
 73
    12
 74
     0
 42
0.000000001
 43
0.0000000001
 40
-0.0269083325848439
 40
-0.0269083325848439
 40
-0.0269083325848439
 40
-0.0269083325848439
 40
-0.0188067078374112
 40
-0.0188067078374112
 40
-0.0139504917004581
 40
-0.0139504917004581
 40
-0.0092987563283357
 40
-0.0092987563283357
 40
-0.004783397737044
 40
-0.004783397737044
 40
0.0
 40
0.0
 40
0.0
 40
0.0
 10
2668.910566064749
 20
1699.271510766169
 30
0.0
 10
2668.92025208651
 20
1699.24957131219
 30
0.0
 10
2668.928073246095
 20
1699.229246466293
 30
0.0
 10
2668.933375916338
 20
1699.196169947773
 30
0.0
 10
2668.933839061438
 20
1699.183051769906
 30
0.0
 10
2668.929536916497
 20
1699.155833478574
 30
0.0
 10
2668.925108409917
 20
1699.142541592919
 30
0.0
 10
2668.911407003964
 20
1699.116448963788
 30
0.0
 10
2668.902635423637
 20
1699.104350910144
 30
0.0
 10
2668.881745791158
 20
1699.081533878787
 30
0.0
 10
2668.869583540775
 20
1699.071069050569
 30
0.0
 10
2668.856742032377
 20
1699.061948603043
 30
0.0
  0
SPLINE
  5
395
330
1F
100
AcDbEntity
  8
NASCOSTA
100
AcDbSpline
210
0.0
220
0.0
230
1.0
 70
     8
 71
     3
 72
    10
 73
     6
 74
     0
 42
0.000000001
 43
0.0000000001
 40
0.0
 40
0.0
 40
0.0
 40
0.0
 40
0.0062576049363778
 40
0.0062576049363778
 40
0.0107418036728396
 40
0.0107418036728396
 40
0.0107418036728396
 40
0.0107418036728396
 10
2642.819012970684
 20
1696.002996633946
 30
0.0
 10
2642.816014588847
 20
1696.007108138569
 30
0.0
 10
2642.813148703002
 20
1696.011014655856
 30
0.0
 10
2642.809743519164
 20
1696.015656295561
 30
0.0
 10
2642.808745110885
 20
1696.017017235743
 30
0.0
 10
2642.8084455433
 20
1696.017414423423
 30
0.0
  0
LINE
  5
396
330
1F
100
AcDbEntity
  8
NASCOSTA
100
AcDbLine
 10
2644.81501492201
 20
1696.015677996267
 30
0.0
 11
2642.939417157642
 21
1696.003749409296
 31
0.0
  0
SPLINE
  5
397
330
1F
100
AcDbEntity
  8
NASCOSTA
100
AcDbSpline
210
0.0
220
0.0
230
1.0
 70
     8
 71
     3
 72
    12
 73
     8
 74
     0
 42
0.000000001
 43
0.0000000001
 40
-0.0245546967876613
 40
-0.0245546967876613
 40
-0.0245546967876613
 40
-0.0245546967876613
 40
-0.0227651063230736
 40
-0.0227651063230736
 40
-0.0124521966005769
 40
-0.0124521966005769
 40
-0.0000195422788509
 40
-0.0000195422788509
 40
-0.0000195422788509
 40
-0.0000195422788509
 10
2642.939434654368
 20
1696.003749520573
 30
0.0
 10
2642.936206250154
 20
1696.003729275546
 30
0.0
 10
2642.933551662459
 20
1696.003712105419
 30
0.0
 10
2642.91231597668
 20
1696.003577048889
 30
0.0
 10
2642.891906119733
 20
1696.003447244545
 30
0.0
 10
2642.849490405079
 20
1696.003177485458
 30
0.0
 10
2642.831156985087
 20
1696.003060886997
 30
0.0
 10
2642.819012970684
 20
1696.002996633946
 30
0.0
  0
SPLINE
  5
398
330
1F
100
AcDbEntity
  8
NASCOSTA
100
AcDbSpline
210
0.0
220
0.0
230
1.0
 70
     8
 71
     3
 72
    10
 73
     6
 74
     0
 42
0.000000001
 43
0.0000000001
 40
0.0
 40
0.0
 40
0.0
 40
0.0
 40
0.0063124507586054
 40
0.0063124507586054
 40
0.0125867519687744
 40
0.0125867519687744
 40
0.0125867519687744
 40
0.0125867519687744
 10
2671.219411080734
 20
1716.106989244837
 30
0.0
 10
2671.204069423586
 20
1716.097065158391
 30
0.0
 10
2671.190247772116
 20
1716.084887451511
 30
0.0
 10
2671.164763893675
 20
1716.058638634646
 30
0.0
 10
2671.152723405326
 20
1716.044195689704
 30
0.0
 10
2671.141304845515
 20
1716.02988899311
 30
0.0
  0
LINE
  5
399
330
1F
100
AcDbEntity
  8
NASCOSTA
100
AcDbLine
 10
2669.778931841805
 20
1715.066505988505
 30
0.0
 11
2669.77898698156
 21
1715.066544978201
 31
0.0
  0
SPLINE
  5
39A
330
1F
100
AcDbEntity
  8
NASCOSTA
100
AcDbSpline
210
0.0
220
0.0
230
1.0
 70
     8
 71
     3
 72
    10
 73
     6
 74
     0
 42
0.000000001
 43
0.0000000001
 40
0.0
 40
0.0
 40
0.0
 40
0.0
 40
0.0062576049362774
 40
0.0062576049362774
 40
0.0125460388076559
 40
0.0125460388076559
 40
0.0125460388076559
 40
0.0125460388076559
 10
2669.77879323526
 20
1715.066440078327
 30
0.0
 10
2669.761572287842
 20
1715.060494710381
 30
0.0
 10
2669.744024880805
 20
1715.054019824476
 30
0.0
 10
2669.710860091616
 20
1715.03880230155
 30
0.0
 10
2669.694797655284
 20
1715.029848778877
 30
0.0
 10
2669.680332438937
 20
1715.018697021865
 30
0.0
  0
SPLINE
  5
39B
330
1F
100
AcDbEntity
  8
NASCOSTA
100
AcDbSpline
210
0.0
220
0.0
230
1.0
 70
     8
 71
     3
 72
    10
 73
     6
 74
     0
 42
0.000000001
 43
0.0000000001
 40
0.0
 40
0.0
 40
0.0
 40
0.0
 40
0.0063124507585971
 40
0.0063124507585971
 40
0.0125867519687237
 40
0.0125867519687237
 40
0.0125867519687237
 40
0.0125867519687237
 10
2669.680333661094
 20
1715.01869716405
 30
0.0
 10
2669.694799265628
 20
1715.029849995056
 30
0.0
 10
2669.710859756523
 20
1715.038802153679
 30
0.0
 10
2669.744006246129
 20
1715.054011267644
 30
0.0
 10
2669.761567686875
 20
1715.0605000475
 30
0.0
 10
2669.778806573214
 20
1715.06645722541
 30
0.0
  0
LINE
  5
39C
330
1F
100
AcDbEntity
  8
NASCOSTA
100
AcDbLine
 10
2671.141199908442
 20
1716.029774976219
 30
0.0
 11
2669.77898698156
 21
1715.066544978201
 31
0.0
  0
SPLINE
  5
39D
330
1F
100
AcDbEntity
  8
NASCOSTA
100
AcDbSpline
210
0.0
220
0.0
230
1.0
 70
     8
 71
     3
 72
    10
 73
     6
 74
     0
 42
0.000000001
 43
0.0000000001
 40
0.0
 40
0.0
 40
0.0
 40
0.0
 40
0.0062576049363569
 40
0.0062576049363569
 40
0.0125460388078696
 40
0.0125460388078696
 40
0.0125460388078696
 40
0.0125460388078696
 10
2671.141320401771
 20
1716.029892277317
 30
0.0
 10
2671.15272680359
 20
1716.044189502145
 30
0.0
 10
2671.164749560898
 20
1716.058623879969
 30
0.0
 10
2671.190247519967
 20
1716.084887184139
 30
0.0
 10
2671.204071106089
 20
1716.097066270607
 30
0.0
 10
2671.219410938402
 20
1716.106989865096
 30
0.0
  0
SPLINE
  5
39E
330
1F
100
AcDbEntity
  8
NASCOSTA
100
AcDbSpline
210
0.0
220
0.0
230
1.0
 70
     8
 71
     3
 72
    12
 73
     8
 74
     0
 42
0.000000001
 43
0.0000000001
 40
-0.0246013977192936
 40
-0.0246013977192936
 40
-0.0246013977192936
 40
-0.0246013977192936
 40
-0.0228293391720714
 40
-0.0228293391720714
 40
-0.0124521966402795
 40
-0.0124521966402795
 40
-0.0000195422788465
 40
-0.0000195422788465
 40
-0.0000195422788465
 40
-0.0000195422788465
 10
2669.914745889613
 20
1715.078175019631
 30
0.0
 10
2669.912501172094
 20
1715.078809436406
 30
0.0
 10
2669.910621234281
 20
1715.079283051094
 30
0.0
 10
2669.894833751875
 20
1715.082937184507
 30
0.0
 10
2669.878104103882
 20
1715.085486901423
 30
0.0
 10
2669.833263783443
 20
1715.083586623219
 30
0.0
 10
2669.806900119195
 20
1715.077791784644
 30
0.0
 10
2669.77879323526
 20
1715.066440078327
 30
0.0
  0
SPLINE
  5
39F
330
1F
100
AcDbEntity
  8
NASCOSTA
100
AcDbSpline
210
0.0
220
0.0
230
1.0
 70
     8
 71
     3
 72
    12
 73
     8
 74
     0
 42
0.000000001
 43
0.0000000001
 40
-0.0189032573838366
 40
-0.0189032573838366
 40
-0.0189032573838366
 40
-0.0189032573838366
 40
-0.0073371813428361
 40
-0.0073371813428361
 40
0.0
 40
0.0
 40
0.0014038224499373
 40
0.0014038224499373
 40
0.0014038224499373
 40
0.0014038224499373
 10
2671.141304845515
 20
1716.02988899311
 30
0.0
 10
2671.120478029172
 20
1716.008884549448
 30
0.0
 10
2671.092185699896
 20
1715.977830461428
 30
0.0
 10
2671.039900682187
 20
1715.905996085
 30
0.0
 10
2671.02352606617
 20
1715.880314378295
 30
0.0
 10
2671.00847368607
 20
1715.855634990279
 30
0.0
 10
2671.006644731412
 20
1715.852594138891
 30
0.0
 10
2671.00430300494
 20
1715.84860824437
 30
0.0
  0
SPLINE
  5
3A0
330
1F
100
AcDbEntity
  8
NASCOSTA
100
AcDbSpline
210
0.0
220
0.0
230
1.0
 70
     8
 71
     3
 72
    12
 73
     8
 74
     0
 42
0.000000001
 43
0.0000000001
 40
-0.0245547306192999
 40
-0.0245547306192999
 40
-0.0245547306192999
 40
-0.0245547306192999
 40
-0.0227651537712286
 40
-0.0227651537712286
 40
-0.012452196689257
 40
-0.012452196689257
 40
-0.000019542278849
 40
-0.000019542278849
 40
-0.000019542278849
 40
-0.000019542278849
 10
2671.00430300494
 20
1715.84860824437
 30
0.0
 10
2671.00661846939
 20
1715.852508075486
 30
0.0
 10
2671.008583067435
 20
1715.85575712021
 30
0.0
 10
2671.024640908867
 20
1715.881992523844
 30
0.0
 10
2671.041498450524
 20
1715.908214807011
 30
0.0
 10
2671.08659409072
 20
1715.969824982462
 30
0.0
 10
2671.113122650188
 20
1716.001430594014
 30
0.0
 10
2671.141320401771
 20
1716.029892277317
 30
0.0
  0
SPLINE
  5
3A1
330
1F
100
AcDbEntity
  8
NASCOSTA
100
AcDbSpline
210
0.0
220
0.0
230
1.0
 70
     8
 71
     3
 72
    12
 73
     8
 74
     0
 42
0.000000001
 43
0.0000000001
 40
-0.0189032089778806
 40
-0.0189032089778806
 40
-0.0189032089778806
 40
-0.0189032089778806
 40
-0.0073371717398911
 40
-0.0073371717398911
 40
0.0
 40
0.0
 40
0.0014038161567629
 40
0.0014038161567629
 40
0.0014038161567629
 40
0.0014038161567629
 10
2669.778806573214
 20
1715.06645722541
 30
0.0
 10
2669.799573656949
 20
1715.074864110564
 30
0.0
 10
2669.827724177631
 20
1715.083721144539
 30
0.0
 10
2669.879561758536
 20
1715.085512536225
 30
0.0
 10
2669.895755373894
 20
1715.082860023355
 30
0.0
 10
2669.910627573641
 20
1715.07934053266
 30
0.0
 10
2669.912433446212
 20
1715.078869908687
 30
0.0
 10
2669.914745889612
 20
1715.078175019631
 30
0.0
  0
SPLINE
  5
3A2
330
1F
100
AcDbEntity
  8
NASCOSTA
100
AcDbSpline
210
0.0
220
0.0
230
1.0
 70
     8
 71
     3
 72
    16
 73
    12
 74
     0
 42
0.000000001
 43
0.0000000001
 40
0.9315733428965822
 40
0.9315733428965822
 40
0.9315733428965822
 40
0.9315733428965822
 40
1.043380767379582
 40
1.043380767379582
 40
1.155188191862582
 40
1.155188191862582
 40
1.266995616345583
 40
1.266995616345583
 40
1.378803040828583
 40
1.378803040828583
 40
1.490610465311583
 40
1.490610465311583
 40
1.490610465311583
 40
1.490610465311583
 10
2669.562201099706
 20
1715.063607700088
 30
0.0
 10
2668.601756468227
 20
1715.40671262196
 30
0.0
 10
2667.659295493159
 20
1715.684781794919
 30
0.0
 10
2665.821712838391
 20
1716.107031502454
 30
0.0
 10
2664.926589968931
 20
1716.251212831128
 30
0.0
 10
2663.194550886414
 20
1716.403291125899
 30
0.0
 10
2662.357628530377
 20
1716.411184510723
 30
0.0
 10
2660.75245729687
 20
1716.289731676275
 30
0.0
 10
2659.984203356593
 20
1716.160370799258
 30
0.0
 10
2658.526639183817
 20
1715.765144583585
 30
0.0
 10
2657.837342278738
 20
1715.499257505242
 30
0.0
 10
2657.192527883112
 20
1715.16662363185
 30
0.0
  0
SPLINE
  5
3A3
330
1F
100
AcDbEntity
  8
NASCOSTA
100
AcDbSpline
210
0.0
220
0.0
230
1.0
 70
     8
 71
     3
 72
    16
 73
    12
 74
     0
 42
0.000000001
 43
0.0000000001
 40
5.397668017632792
 40
5.397668017632792
 40
5.397668017632792
 40
5.397668017632792
 40
5.509523226415788
 40
5.509523226415788
 40
5.621378435198785
 40
5.621378435198785
 40
5.733233643981781
 40
5.733233643981781
 40
5.845088852764778
 40
5.845088852764778
 40
5.956944061547775
 40
5.956944061547775
 40
5.956944061547775
 40
5.956944061547775
 10
2654.83671413756
 20
1713.503357727379
 30
0.0
 10
2653.739953015172
 20
1712.606720245915
 30
0.0
 10
2652.693387468072
 20
1711.648692315504
 30
0.0
 10
2650.713717146653
 20
1709.621819483161
 30
0.0
 10
2649.780617534072
 20
1708.55297986586
 30
0.0
 10
2648.039542073628
 20
1706.317841977145
 30
0.0
 10
2647.231570765495
 20
1705.151549533374
 30
0.0
 10
2645.75085106897
 20
1702.736082398639
 30
0.0
 10
2645.078106541561
 20
1701.486914005527
 30
0.0
 10
2643.87624949894
 20
1698.921307294122
 30
0.0
 10
2643.347140117699
 20
1697.604875665209
 30
0.0
 10
2642.893153704801
 20
1696.263035630917
 30
0.0
  0
LINE
  5
3A4
330
1F
100
AcDbEntity
  8
NASCOSTA
100
AcDbLine
 10
2659.316296673369
 20
1716.352588007103
 30
0.0
 11
2659.412221851133
 21
1716.738861572439
 31
0.0
  0
LINE
  5
3A5
330
1F
100
AcDbEntity
  8
NASCOSTA
100
AcDbLine
 10
2670.524839299004
 20
1700.241507390357
 30
0.0
 11
2670.560711245764
 21
1700.450584417874
 31
0.0
  0
LINE
  5
3A6
330
1F
100
AcDbEntity
  8
NASCOSTA
100
AcDbLine
 10
2670.560711245764
 20
1700.450584417874
 30
0.0
 11
2659.316296673369
 21
1716.352588007103
 31
0.0
  0
ARC
  5
3A7
330
1F
100
AcDbEntity
  8
NASCOSTA
100
AcDbCircle
 10
2678.875504452745
 20
1684.101756456179
 30
0.0
 40
38.0
100
AcDbArc
 50
90.0
 51
120.8099248542869
  0
ARC
  5
3A8
330
1F
100
AcDbEntity
  8
NASCOSTA
100
AcDbCircle
 10
2678.875504452745
 20
1684.101756456179
 30
0.0
 40
38.0
100
AcDbArc
 50
161.700986367305
 51
180.0
  0
SPLINE
  5
3A9
330
1F
100
AcDbEntity
  8
NASCOSTA
100
AcDbSpline
210
0.0
220
0.0
230
1.0
 70
     8
 71
     3
 72
     8
 73
     4
 74
     0
 42
0.000000001
 43
0.0000000001
 40
0.0
 40
0.0
 40
0.0
 40
0.0
 40
1.94582511136735
 40
1.94582511136735
 40
1.94582511136735
 40
1.94582511136735
 10
2669.974978202468
 20
1700.098802871408
 30
0.0
 10
2666.294513421427
 20
1705.438756665923
 30
0.0
 10
2662.610810401325
 20
1710.776368413652
 30
0.0
 10
2658.923298691507
 20
1716.111178191435
 30
0.0
  0
LINE
  5
3AA
330
1F
100
AcDbEntity
  8
NASCOSTA
100
AcDbLine
 10
2670.972168722524
 20
1710.384234310592
 30
0.0
 11
2671.062367754785
 21
1715.916182467322
 31
0.0
  0
SPLINE
  5
3AB
330
1F
100
AcDbEntity
  8
NASCOSTA
100
AcDbSpline
210
0.0
220
0.0
230
1.0
 70
     8
 71
     3
 72
    10
 73
     6
 74
     0
 42
0.000000001
 43
0.0000000001
 40
0.0
 40
0.0
 40
0.0
 40
0.0
 40
0.0130114420905378
 40
0.0130114420905378
 40
0.0278357248991038
 40
0.0278357248991038
 40
0.0278357248991038
 40
0.0278357248991038
 10
2642.808356086361
 20
1696.017547606334
 30
0.0
 10
2642.819795755034
 20
1696.049801704668
 30
0.0
 10
2642.832664596627
 20
1696.08659895398
 30
0.0
 10
2642.861138872047
 20
1696.168923342954
 30
0.0
 10
2642.877318001808
 20
1696.216230295651
 30
0.0
 10
2642.893153704801
 20
1696.263035630915
 30
0.0
  0
SPLINE
  5
3AC
330
1F
100
AcDbEntity
  8
NASCOSTA
100
AcDbSpline
210
0.0
220
0.0
230
1.0
 70
     8
 71
     3
 72
    22
 73
    18
 74
     0
 42
0.000000001
 43
0.0000000001
 40
0.0
 40
0.0
 40
0.0
 40
0.0
 40
0.0056531415490935
 40
0.0056531415490935
 40
0.0118516178213397
 40
0.0118516178213397
 40
0.019447551638743
 40
0.019447551638743
 40
0.0235094432781772
 40
0.0235094432781772
 40
0.0243939957316606
 40
0.0243939957316606
 40
0.0257212078953375
 40
0.0257212078953375
 40
0.0297154948380815
 40
0.0297154948380815
 40
0.0306936765432341
 40
0.0306936765432341
 40
0.0306936765432341
 40
0.0306936765432341
 10
2669.562214533919
 20
1715.063602899791
 30
0.0
 10
2669.568256748666
 20
1715.061443400167
 30
0.0
 10
2669.577303053452
 20
1715.058893884049
 30
0.0
 10
2669.600285101114
 20
1715.054558714456
 30
0.0
 10
2669.614820002289
 20
1715.052797016399
 30
0.0
 10
2669.650302595621
 20
1715.051015121388
 30
0.0
 10
2669.672418223413
 20
1715.051444366696
 30
0.0
 10
2669.707888626603
 20
1715.054776232786
 30
0.0
 10
2669.720649364279
 20
1715.056437257121
 30
0.0
 10
2669.736363564443
 20
1715.059081667616
 30
0.0
 10
2669.739181401541
 20
1715.059578449213
 30
0.0
 10
2669.746243287943
 20
1715.06088505544
 30
0.0
 10
2669.750500326793
 20
1715.06172721514
 30
0.0
 10
2669.76759830234
 20
1715.065325704263
 30
0.0
 10
2669.780559643215
 20
1715.068543551615
 30
0.0
 10
2669.796495832468
 20
1715.073092047228
 30
0.0
 10
2669.799624851604
 20
1715.074013824942
 30
0.0
 10
2669.802744016871
 20
1715.074961353074
 30
0.0
  0
SPLINE
  5
3AD
330
1F
100
AcDbEntity
  8
NASCOSTA
100
AcDbSpline
210
0.0
220
0.0
230
1.0
 70
     8
 71
     3
 72
    14
 73
    10
 74
     0
 42
0.000000001
 43
0.0000000001
 40
0.0
 40
0.0
 40
0.0
 40
0.0
 40
0.0028316319014788
 40
0.0028316319014788
 40
0.005560616430418
 40
0.005560616430418
 40
0.0111760631876298
 40
0.0111760631876298
 40
0.0140565945120487
 40
0.0140565945120487
 40
0.0140565945120487
 40
0.0140565945120487
 10
2671.067120768344
 20
1715.94315255124
 30
0.0
 10
2671.068048785127
 20
1715.944396194057
 30
0.0
 10
2671.068449169307
 20
1715.945073119847
 30
0.0
 10
2671.068449169295
 20
1715.945073119829
 30
0.0
 10
2671.068080071474
 20
1715.944441372243
 30
0.0
 10
2671.066386191319
 20
1715.940596873583
 30
0.0
 10
2671.06448469737
 20
1715.935208244957
 30
0.0
 10
2671.062808291648
 20
1715.924528901717
 30
0.0
 10
2671.062436122805
 20
1715.920478114708
 30
0.0
 10
2671.062367756111
 20
1715.91622773973
 30
0.0
  0
SPLINE
  5
3AE
330
1F
100
AcDbEntity
  8
NASCOSTA
100
AcDbSpline
210
0.0
220
0.0
230
1.0
 70
     8
 71
     3
 72
    14
 73
    10
 74
     0
 42
0.000000001
 43
0.0000000001
 40
0.0
 40
0.0
 40
0.0
 40
0.0
 40
0.0029254102769549
 40
0.0029254102769549
 40
0.0056025946057631
 40
0.0056025946057631
 40
0.0112069570516898
 40
0.0112069570516898
 40
0.0140821174007275
 40
0.0140821174007275
 40
0.0140821174007275
 40
0.0140821174007275
 10
2671.0670152326
 20
1715.943129818151
 30
0.0
 10
2671.068002160182
 20
1715.944451486545
 30
0.0
 10
2671.068428961304
 20
1715.945176723211
 30
0.0
 10
2671.068428961302
 20
1715.945176723211
 30
0.0
 10
2671.068074705955
 20
1715.944567072767
 30
0.0
 10
2671.06641371398
 20
1715.940794780777
 30
0.0
 10
2671.064505740472
 20
1715.935408726029
 30
0.0
 10
2671.062814246727
 20
1715.924647493858
 30
0.0
 10
2671.062436757428
 20
1715.920554191465
 30
0.0
 10
2671.06236774232
 20
1715.916247215017
 30
0.0
  0
SPLINE
  5
3AF
330
1F
100
AcDbEntity
  8
NASCOSTA
100
AcDbSpline
210
0.0
220
0.0
230
1.0
 70
     8
 71
     3
 72
    26
 73
    22
 74
     0
 42
0.000000001
 43
0.0000000001
 40
0.0
 40
0.0
 40
0.0
 40
0.0
 40
0.0056388284671495
 40
0.0056388284671495
 40
0.011835081384344
 40
0.011835081384344
 40
0.0194366574272719
 40
0.0194366574272719
 40
0.0234940867193378
 40
0.0234940867193378
 40
0.0237154333998078
 40
0.0237154333998078
 40
0.0240474565147595
 40
0.0240474565147595
 40
0.0242964727335643
 40
0.0242964727335643
 40
0.0250436096263863
 40
0.0250436096263863
 40
0.027287305229582
 40
0.027287305229582
 40
0.0306861464377444
 40
0.0306861464377444
 40
0.0306861464377444
 40
0.0306861464377444
 10
2669.562211389284
 20
1715.063604023629
 30
0.0
 10
2669.568239435221
 20
1715.061449822908
 30
0.0
 10
2669.577261668396
 20
1715.058905828764
 30
0.0
 10
2669.600193015715
 20
1715.05457071773
 30
0.0
 10
2669.614709881675
 20
1715.052804884163
 30
0.0
 10
2669.650176770868
 20
1715.051010267536
 30
0.0
 10
2669.67230213952
 20
1715.051434132648
 30
0.0
 10
2669.707772007046
 20
1715.054761395289
 30
0.0
 10
2669.720517620319
 20
1715.056418506205
 30
0.0
 10
2669.734109821006
 20
1715.058702202966
 30
0.0
 10
2669.734813521413
 20
1715.058821864689
 30
0.0
 10
2669.736574066049
 20
1715.059124824495
 30
0.0
 10
2669.737631720944
 20
1715.059310015031
 30
0.0
 10
2669.739483151586
 20
1715.059640039802
 30
0.0
 10
2669.740277308982
 20
1715.059783492294
 30
0.0
 10
2669.743456656336
 20
1715.060365349033
 30
0.0
 10
2669.745847156577
 20
1715.060819832673
 30
0.0
 10
2669.755431730497
 20
1715.062709860014
 30
0.0
 10
2669.762667610497
 20
1715.064289572834
 30
0.0
 10
2669.780845713701
 20
1715.06863852063
 30
0.0
 10
2669.791825889079
 20
1715.071613679296
 30
0.0
 10
2669.80266708592
 20
1715.074896649487
 30
0.0
  0
SPLINE
  5
3B0
330
1F
100
AcDbEntity
  8
NASCOSTA
100
AcDbSpline
210
0.0
220
0.0
230
1.0
 70
     8
 71
     3
 72
    12
 73
     8
 74
     0
 42
0.000000001
 43
0.0000000001
 40
0.0
 40
0.0
 40
0.0
 40
0.0
 40
0.0127663487932772
 40
0.0127663487932772
 40
0.0196062616885088
 40
0.0196062616885088
 40
0.0271730282299118
 40
0.0271730282299118
 40
0.0271730282299118
 40
0.0271730282299118
 10
2669.953817262389
 20
1699.837733836059
 30
0.0
 10
2669.958866525742
 20
1699.841304204416
 30
0.0
 10
2669.961773855362
 20
1699.844110424029
 30
0.0
 10
2669.967665613001
 20
1699.859820330459
 30
0.0
 10
2669.969674718134
 20
1699.867580756328
 30
0.0
 10
2669.97130683206
 20
1699.890595699798
 30
0.0
 10
2669.970503037708
 20
1699.907241941291
 30
0.0
 10
2669.966833106199
 20
1699.92594919686
 30
0.0
  0
SPLINE
  5
3B1
330
1F
100
AcDbEntity
  8
NASCOSTA
100
AcDbSpline
210
0.0
220
0.0
230
1.0
 70
     8
 71
     3
 72
    12
 73
     8
 74
     0
 42
0.000000001
 43
0.0000000001
 40
0.0
 40
0.0
 40
0.0
 40
0.0
 40
0.0127734969033842
 40
0.0127734969033842
 40
0.019615653646079
 40
0.019615653646079
 40
0.027177195729454
 40
0.027177195729454
 40
0.027177195729454
 40
0.027177195729454
 10
2669.953817262389
 20
1699.837733836059
 30
0.0
 10
2669.958978587474
 20
1699.841383444027
 30
0.0
 10
2669.961779591993
 20
1699.844078589088
 30
0.0
 10
2669.96766148366
 20
1699.859790041609
 30
0.0
 10
2669.969684649699
 20
1699.867660963341
 30
0.0
 10
2669.971335215735
 20
1699.890786379195
 30
0.0
 10
2669.97054839294
 20
1699.907305285163
 30
0.0
 10
2669.966878260547
 20
1699.925966772015
 30
0.0
  0
LINE
  5
3B2
330
1F
100
AcDbEntity
  8
VISIBILE
100
AcDbLine
 10
2672.542457718633
 20
1689.420730342807
 30
0.0
 11
2675.971743358529
 21
1691.845601473404
 31
0.0
  0
LINE
  5
3B3
330
1F
100
AcDbEntity
  8
VISIBILE
100
AcDbLine
 10
2676.067401883225
 20
1692.403140213451
 30
0.0
 11
2671.984918978586
 21
1689.516388867502
 31
0.0
  0
LINE
  5
3B4
330
1F
100
AcDbEntity
  8
VISIBILE
100
AcDbLine
 10
2666.559044983181
 20
1697.437267336847
 30
0.0
 11
2668.856702250779
 21
1699.061956371608
 31
0.0
  0
LINE
  5
3B5
330
1F
100
AcDbEntity
  8
VISIBILE
100
AcDbLine
 10
2654.210634324347
 20
1704.542453381054
 30
0.0
 11
2652.792215243963
 21
1705.545427131358
 31
0.0
  0
ELLIPSE
  5
3B6
330
1F
100
AcDbEntity
  8
VISIBILE
100
AcDbEllipse
 10
2678.875504452745
 20
1684.101756456179
 30
0.0
 11
38.0
 21
-0.0000000000027822
 31
0.0
210
0.0
220
0.0
230
1.0
 40
0.7071067811865461
 41
1.570796326794962
 42
2.27716488186374
  0
LINE
  5
3B7
330
1F
100
AcDbEntity
  8
VISIBILE
100
AcDbLine
 10
2678.875504452745
 20
1710.971814141268
 30
0.0
 11
2678.875504452745
 21
1711.409138509576
 31
0.0
  0
LINE
  5
3B8
330
1F
100
AcDbEntity
  8
VISIBILE
100
AcDbLine
 10
2678.060941415933
 20
1711.816420027982
 30
0.0
 11
2678.875504452745
 21
1711.409138509576
 31
0.0
  0
ELLIPSE
  5
3B9
330
1F
100
AcDbEntity
  8
VISIBILE
100
AcDbEllipse
 10
2675.560941415927
 20
1710.566420027981
 30
0.0
 11
-3.535533905937939
 21
-0.0000000000032478
 31
0.0
210
0.0
220
0.0
230
1.0
 40
0.4999999999996923
 41
3.926990816983005
 42
4.569320527102068
  0
ELLIPSE
  5
3BA
330
1F
100
AcDbEntity
  8
VISIBILE
100
AcDbEllipse
 10
2678.875504452745
 20
1684.101756456179
 30
0.0
 11
-40.0
 21
0.0000000000000111
 31
0.0
210
0.0
220
0.0
230
1.0
 40
0.7071067811865462
 41
4.782708506277677
 42
5.422716652705421
  0
LINE
  5
3BB
330
1F
100
AcDbEntity
  8
VISIBILE
100
AcDbLine
 10
2668.790272254508
 20
1699.198695001479
 30
0.0
 11
2666.357736434101
 21
1697.478632427391
 31
0.0
  0
SPLINE
  5
3BC
330
1F
100
AcDbEntity
  8
VISIBILE
100
AcDbSpline
210
0.0
220
0.0
230
1.0
 70
     8
 71
     3
 72
    16
 73
    12
 74
     0
 42
0.000000001
 43
0.0000000001
 40
-0.0338159973679565
 40
-0.0338159973679565
 40
-0.0338159973679565
 40
-0.0338159973679565
 40
-0.0277949650008337
 40
-0.0277949650008337
 40
-0.022099706759425
 40
-0.022099706759425
 40
-0.0162330673436192
 40
-0.0162330673436192
 40
-0.0101093935361177
 40
-0.0101093935361177
 40
-0.0000000059045568
 40
-0.0000000059045568
 40
-0.0000000059045568
 40
-0.0000000059045568
 10
2668.856698676256
 20
1699.061950636058
 30
0.0
 10
2668.869484696925
 20
1699.071002004631
 30
0.0
 10
2668.881629308818
 20
1699.081449947314
 30
0.0
 10
2668.902516014436
 20
1699.104248400063
 30
0.0
 10
2668.911297964139
 20
1699.116351236849
 30
0.0
 10
2668.925018133761
 20
1699.142453528714
 30
0.0
 10
2668.929455179308
 20
1699.155750096043
 30
0.0
 10
2668.933772992852
 20
1699.182981984172
 30
0.0
 10
2668.933316720982
 20
1699.196107628613
 30
0.0
 10
2668.928072628637
 20
1699.228989631985
 30
0.0
 10
2668.920379126602
 20
1699.249274763478
 30
0.0
 10
2668.910565964785
 20
1699.271510692824
 30
0.0
  0
ELLIPSE
  5
3BD
330
1F
100
AcDbEntity
  8
VISIBILE
100
AcDbEllipse
 10
2669.079457678239
 20
1699.470360226682
 30
0.0
 11
0.1019811266552524
 21
0.2678817440488991
 31
0.0
210
0.0
220
0.0
230
1.0
 40
0.5914932827905801
 41
2.331878826641158
 42
2.602111732351467
  0
SPLINE
  5
3BE
330
1F
100
AcDbEntity
  8
VISIBILE
100
AcDbSpline
210
0.0
220
0.0
230
1.0
 70
     8
 71
     3
 72
     8
 73
     4
 74
     0
 42
0.000000001
 43
0.0000000001
 40
0.0003532757177781
 40
0.0003532757177781
 40
0.0003532757177781
 40
0.0003532757177781
 40
0.0004869232556488
 40
0.0004869232556488
 40
0.0004869232556488
 40
0.0004869232556488
 10
2668.894388500334
 20
1699.329278599449
 30
0.0
 10
2668.889235925249
 20
1699.363517485983
 30
0.0
 10
2668.884063092613
 20
1699.397767305914
 30
0.0
 10
2668.878872049003
 20
1699.432026859765
 30
0.0
  0
SPLINE
  5
3BF
330
1F
100
AcDbEntity
  8
VISIBILE
100
AcDbSpline
210
0.0
220
0.0
230
1.0
 70
     8
 71
     3
 72
    20
 73
    16
 74
     0
 42
0.000000001
 43
0.0000000001
 40
0.0
 40
0.0
 40
0.0
 40
0.0
 40
0.0072800196794773
 40
0.0072800196794773
 40
0.0072800196794773
 40
0.0143751611321166
 40
0.0143751611321166
 40
0.0143751611321166
 40
0.0220537624358645
 40
0.0220537624358645
 40
0.0220537624358645
 40
0.025608263811906
 40
0.025608263811906
 40
0.025608263811906
 40
0.0289409390943883
 40
0.0289409390943883
 40
0.0289409390943883
 40
0.0289409390943883
 10
2668.878872049504
 20
1699.432026856457
 30
0.0
 10
2668.881699700176
 20
1699.413365090154
 30
0.0
 10
2668.882591989027
 20
1699.393584016188
 30
0.0
 10
2668.881133586005
 20
1699.373221551358
 30
0.0
 10
2668.879712219554
 20
1699.353376197272
 30
0.0
 10
2668.876035932924
 20
1699.332714373609
 30
0.0
 10
2668.869536395719
 20
1699.312105803526
 30
0.0
 10
2668.862502377414
 20
1699.289802514132
 30
0.0
 10
2668.852107883434
 20
1699.2674196515
 30
0.0
 10
2668.837671462204
 20
1699.246822789477
 30
0.0
 10
2668.830988698364
 20
1699.237288295954
 30
0.0
 10
2668.823508795538
 20
1699.228242883773
 30
0.0
 10
2668.815229390237
 20
1699.219888105483
 30
0.0
 10
2668.807466678543
 20
1699.212054724609
 30
0.0
 10
2668.799127426514
 20
1699.204956552054
 30
0.0
 10
2668.790272255006
 20
1699.198695000402
 30
0.0
  0
SPLINE
  5
3C0
330
1F
100
AcDbEntity
  8
VISIBILE
100
AcDbSpline
210
0.0
220
0.0
230
1.0
 70
     8
 71
     3
 72
    20
 73
    16
 74
     0
 42
0.000000001
 43
0.0000000001
 40
0.0000000000395505
 40
0.0000000000395505
 40
0.0000000000395505
 40
0.0000000000395505
 40
0.0033092055358744
 40
0.0033092055358744
 40
0.0033092055358744
 40
0.0068387133623928
 40
0.0068387133623928
 40
0.0068387133623928
 40
0.0144625102117707
 40
0.0144625102117707
 40
0.0144625102117707
 40
0.0215059473382094
 40
0.0215059473382094
 40
0.0215059473382094
 40
0.0287328438353311
 40
0.0287328438353311
 40
0.0287328438353311
 40
0.0287328438353311
 10
2666.357736435681
 20
1697.478632427072
 30
0.0
 10
2666.354725893221
 20
1697.476503651912
 30
0.0
 10
2666.350475935749
 20
1697.474700268066
 30
0.0
 10
2666.345073652137
 20
1697.473225273928
 30
0.0
 10
2666.339311724593
 20
1697.471652085633
 30
0.0
 10
2666.332339654535
 20
1697.47047953662
 30
0.0
 10
2666.324389603059
 20
1697.469668449542
 30
0.0
 10
2666.307217356848
 20
1697.46791648768
 30
0.0
 10
2666.28590580153
 20
1697.467881798653
 30
0.0
 10
2666.262927194097
 20
1697.468964794073
 30
0.0
 10
2666.241697827692
 20
1697.469965346725
 30
0.0
 10
2666.218924302006
 20
1697.471922920743
 30
0.0
 10
2666.195892079486
 20
1697.47447534813
 30
0.0
 10
2666.172259940056
 20
1697.477094258217
 30
0.0
 10
2666.148035348793
 20
1697.480374715355
 30
0.0
 10
2666.124057424673
 20
1697.48407875432
 30
0.0
  0
SPLINE
  5
3C1
330
1F
100
AcDbEntity
  8
VISIBILE
100
AcDbSpline
210
0.0
220
0.0
230
1.0
 70
     8
 71
     3
 72
     8
 73
     4
 74
     0
 42
0.000000001
 43
0.0000000001
 40
-0.0001103146909153
 40
-0.0001103146909153
 40
-0.0001103146909153
 40
-0.0001103146909153
 40
0.0000233328994781
 40
0.0000233328994781
 40
0.0000233328994781
 40
0.0000233328994781
 10
2666.124057420415
 20
1697.484078754978
 30
0.0
 10
2666.168081222484
 20
1697.477278088026
 30
0.0
 10
2666.212108961739
 20
1697.470502861087
 30
0.0
 10
2666.256141022307
 20
1697.463755917288
 30
0.0
  0
SPLINE
  5
3C2
330
1F
100
AcDbEntity
  8
VISIBILE
100
AcDbSpline
210
0.0
220
0.0
230
1.0
 70
     8
 71
     3
 72
    10
 73
     6
 74
     0
 42
0.000000001
 43
0.0000000001
 40
-0.0765978994777748
 40
-0.0765978994777748
 40
-0.0765978994777748
 40
-0.0765978994777748
 40
-0.0696349222050815
 40
-0.0696349222050815
 40
-0.0688311621886714
 40
-0.0688311621886714
 40
-0.0688311621886714
 40
-0.0688311621886714
 10
2666.256141022307
 20
1697.463755917288
 30
0.0
 10
2666.280606538318
 20
1697.459993529236
 30
0.0
 10
2666.304544655976
 20
1697.455886585412
 30
0.0
 10
2666.329454533999
 20
1697.451079889757
 30
0.0
 10
2666.332044525465
 20
1697.450573200197
 30
0.0
 10
2666.334643661028
 20
1697.45005856375
 30
0.0
  0
SPLINE
  5
3C3
330
1F
100
AcDbEntity
  8
VISIBILE
100
AcDbSpline
210
0.0
220
0.0
230
1.0
 70
     8
 71
     3
 72
    16
 73
    12
 74
     0
 42
0.000000001
 43
0.0000000001
 40
-0.0269083325849227
 40
-0.0269083325849227
 40
-0.0269083325849227
 40
-0.0269083325849227
 40
-0.0188067078374023
 40
-0.0188067078374023
 40
-0.0139504917004565
 40
-0.0139504917004565
 40
-0.0092987563283316
 40
-0.0092987563283316
 40
-0.0047833977370368
 40
-0.0047833977370368
 40
0.0
 40
0.0
 40
0.0
 40
0.0
 10
2666.334643625297
 20
1697.450058541422
 30
0.0
 10
2666.366443992175
 20
1697.443756290837
 30
0.0
 10
2666.395255444387
 20
1697.438273823195
 30
0.0
 10
2666.438000358479
 20
1697.431672969203
 30
0.0
 10
2666.454036743433
 20
1697.429566734842
 30
0.0
 10
2666.484435299209
 20
1697.4268855443
 30
0.0
 10
2666.498010261493
 20
1697.426324033564
 30
0.0
 10
2666.522041335532
 20
1697.426912296906
 30
0.0
 10
2666.531923937392
 20
1697.428004741984
 30
0.0
 10
2666.54840732405
 20
1697.431614425892
 30
0.0
 10
2666.554688449321
 20
1697.434191033667
 30
0.0
 10
2666.559068038185
 20
1697.437247740794
 30
0.0
  0
ELLIPSE
  5
3C4
330
1F
100
AcDbEntity
  8
VISIBILE
100
AcDbEllipse
 10
2679.936164624525
 20
1685.912416627959
 30
0.0
 11
32.73740592344953
 21
-19.17712839304404
 31
0.0
210
0.0
220
0.0
230
1.0
 40
0.1464466094067247
 41
2.555749285030895
 42
2.59305164905928
  0
ELLIPSE
  5
3C5
330
1F
100
AcDbEntity
  8
VISIBILE
100
AcDbEllipse
 10
2678.875504452745
 20
1684.808863237365
 30
0.0
 11
-37.9868398264452
 21
0.0000000000000266
 31
0.0
210
0.0
220
0.0
230
1.0
 40
0.707106781186546
 41
5.445112976502858
 42
5.550461311061416
  0
ELLIPSE
  5
3C6
330
1F
100
AcDbEntity
  8
VISIBILE
100
AcDbEllipse
 10
2677.814844280965
 20
1684.412416627958
 30
0.0
 11
10.66456007712357
 21
36.41108565205693
 31
0.0
210
0.0
220
0.0
230
1.0
 40
0.8535533905932735
 41
1.304510414961337
 42
1.341812778989558
  0
ELLIPSE
  5
3C7
330
1F
100
AcDbEntity
  8
VISIBILE
100
AcDbEllipse
 10
2678.875504452745
 20
1684.101756456179
 30
0.0
 11
-38.0
 21
0.0000000000000016
 31
0.0
210
0.0
220
0.0
230
1.0
 40
0.7071067811865461
 41
5.576816752110874
 42
6.283185307179586
  0
ELLIPSE
  5
3C8
330
1F
100
AcDbEntity
  8
VISIBILE
100
AcDbEllipse
 10
2679.936164624525
 20
1685.912416627959
 30
0.0
 11
-34.46567854194624
 21
20.18952705348067
 31
0.0
210
0.0
220
0.0
230
0.9999999999999998
 40
0.1464466094067246
 41
5.700149777285856
 42
5.735579011377268
  0
SPLINE
  5
3C9
330
1F
100
AcDbEntity
  8
VISIBILE
100
AcDbSpline
210
0.0
220
0.0
230
1.0
 70
     8
 71
     3
 72
     8
 73
     4
 74
     0
 42
0.000000001
 43
0.0000000001
 40
-0.000040000005
 40
-0.000040000005
 40
-0.000040000005
 40
-0.000040000005
 40
0.0020110259001238
 40
0.0020110259001238
 40
0.0020110259001238
 40
0.0020110259001238
 10
2677.107737499778
 20
1713.580730932769
 30
0.0
 10
2676.76027826978
 20
1713.172009383639
 30
0.0
 10
2676.412777202396
 20
1712.749360150904
 30
0.0
 10
2676.065040967313
 20
1712.316125977728
 30
0.0
  0
SPLINE
  5
3CA
330
1F
100
AcDbEntity
  8
VISIBILE
100
AcDbSpline
210
0.0
220
0.0
230
1.0
 70
     8
 71
     3
 72
     8
 73
     4
 74
     0
 42
0.000000001
 43
0.0000000001
 40
0.0029989648501459
 40
0.0029989648501459
 40
0.0029989648501459
 40
0.0029989648501459
 40
0.0050499907552709
 40
0.0050499907552709
 40
0.0050499907552709
 40
0.0050499907552709
 10
2678.875504452745
 20
1714.303423766555
 30
0.0
 10
2678.287311841198
 20
1714.074856305569
 30
0.0
 10
2677.69643946568
 20
1713.833975313563
 30
0.0
 10
2677.107737499778
 20
1713.580730932769
 30
0.0
  0
LINE
  5
3CB
330
1F
100
AcDbEntity
  8
VISIBILE
100
AcDbLine
 10
2678.875504452745
 20
1714.303423766555
 30
0.0
 11
2678.875504452745
 21
1724.101756456179
 31
0.0
  0
SPLINE
  5
3CC
330
1F
100
AcDbEntity
  8
VISIBILE
100
AcDbSpline
210
0.0
220
0.0
230
1.0
 70
     8
 71
     3
 72
    14
 73
    10
 74
     0
 42
0.000000001
 43
0.0000000001
 40
0.0130964153848882
 40
0.0130964153848882
 40
0.0130964153848882
 40
0.0130964153848882
 40
0.0141111382033047
 40
0.0141111382033047
 40
0.0141111382033047
 40
0.014618499612513
 40
0.014618499612513
 40
0.014618499612513
 40
0.0151258610217212
 40
0.0151258610217212
 40
0.0151258610217212
 40
0.0151258610217212
 10
2638.974360421564
 20
1686.089054245003
 30
0.0
 10
2638.962111314889
 20
1686.174086396968
 30
0.0
 10
2638.954272997526
 20
1686.259551766531
 30
0.0
 10
2638.950834209301
 20
1686.345129898444
 30
0.0
 10
2638.949114815188
 20
1686.3879189644
 30
0.0
 10
2638.948495445022
 20
1686.430736223354
 30
0.0
 10
2638.948975509567
 20
1686.473542037662
 30
0.0
 10
2638.949455574112
 20
1686.516347851969
 30
0.0
 10
2638.951063393351
 20
1686.559559071744
 30
0.0
 10
2638.953705896066
 20
1686.601756456179
 30
0.0
  0
ELLIPSE
  5
3CD
330
1F
100
AcDbEntity
  8
VISIBILE
100
AcDbEllipse
 10
2678.875504452745
 20
1684.101756456179
 30
0.0
 11
-40.0
 21
0.0000000000000067
 31
0.0
210
0.0
220
0.0
230
1.0
 40
0.707106781186546
 41
5.572857634858855
 42
6.212865781286662
  0
ELLIPSE
  5
3CE
330
1F
100
AcDbEntity
  8
VISIBILE
100
AcDbEllipse
 10
2677.814844280965
 20
1684.412416627958
 30
0.0
 11
-11.22756336494365
 21
-38.33329911299281
 31
0.0
210
0.0
220
0.0
230
1.0
 40
0.8535533905932735
 41
4.445168359816024
 42
4.480597593907434
  0
ELLIPSE
  5
3CF
330
1F
100
AcDbEntity
  8
VISIBILE
100
AcDbEllipse
 10
2678.875504452745
 20
1684.808863237365
 30
0.0
 11
39.98749804626439
 21
-0.0000000000029377
 31
0.0
210
0.0
220
0.0
230
1.0
 40
0.7071067811865462
 41
2.306157981475436
 42
2.406230998909579
  0
LINE
  5
3D0
330
1F
100
AcDbEntity
  8
VISIBILE
100
AcDbLine
 10
2640.257034399926
 20
1684.101756456179
 30
0.0
 11
2640.875504452744
 21
1684.101756456179
 31
0.0
  0
LINE
  5
3D1
330
1F
100
AcDbEntity
  8
VISIBILE
100
AcDbLine
 10
2678.875504452745
 20
1714.303423766554
 30
0.0
 11
2678.875504452745
 21
1712.392403075016
 31
0.0
  0
LINE
  5
3D2
330
1F
100
AcDbEntity
  8
VISIBILE
100
AcDbLine
 10
2678.875504452745
 20
1711.409138509576
 30
0.0
 11
2678.875504452745
 21
1712.392403075016
 31
0.0
  0
LINE
  5
3D3
330
1F
100
AcDbEntity
  8
VISIBILE
100
AcDbLine
 10
2648.549574556844
 20
1702.545427131358
 30
0.0
 11
2649.967993637227
 21
1701.542453381054
 31
0.0
  0
ARC
  5
3D4
330
1F
100
AcDbEntity
  8
VISIBILE
100
AcDbCircle
 10
2641.448818305873
 20
1686.44550645619
 30
0.0
 40
2.50000000001525
100
AcDbArc
 50
188.1972185544269
 51
224.9999999997789
  0
LINE
  5
3D5
330
1F
100
AcDbEntity
  8
VISIBILE
100
AcDbLine
 10
2640.257034399926
 20
1684.101756456179
 30
0.0
 11
2639.681051352892
 21
1684.677739503212
 31
0.0
  0
LINE
  5
3D6
330
1F
100
AcDbEntity
  8
VISIBILE
100
AcDbLine
 10
2666.325870427617
 20
1697.272388027408
 30
0.0
 11
2664.779045021607
 21
1696.178617293506
 31
0.0
  0
LINE
  5
3D7
330
1F
100
AcDbEntity
  8
VISIBILE
100
AcDbLine
 10
2664.664846919139
 20
1696.141920654383
 30
0.0
 11
2644.81501492201
 21
1696.015677996267
 31
0.0
  0
LINE
  5
3D8
330
1F
100
AcDbEntity
  8
VISIBILE
100
AcDbLine
 10
2669.944518553055
 20
1699.831158655633
 30
0.0
 11
2669.17110585005
 21
1699.284273288682
 31
0.0
  0
LINE
  5
3D9
330
1F
100
AcDbEntity
  8
VISIBILE
100
AcDbLine
 10
2670.727229965394
 20
1700.384619203009
 30
0.0
 11
2669.944518553055
 21
1699.831158655633
 31
0.0
  0
ARC
  5
3DA
330
1F
100
AcDbEntity
  8
VISIBILE
100
AcDbCircle
 10
2664.663574967768
 20
1696.341916609691
 30
0.0
 40
0.2000000000000001
100
AcDbArc
 50
270.3643896827534
 51
305.2643896827545
  0
LINE
  5
3DB
330
1F
100
AcDbEntity
  8
VISIBILE
100
AcDbLine
 10
2653.466220853114
 20
1704.775939975756
 30
0.0
 11
2652.049675522232
 21
1705.777588785081
 31
0.0
  0
LINE
  5
3DC
330
1F
100
AcDbEntity
  8
VISIBILE
100
AcDbLine
 10
2649.221248397485
 20
1703.777588785081
 30
0.0
 11
2650.637793728368
 21
1702.775939975756
 31
0.0
  0
ARC
  5
3DD
330
1F
100
AcDbEntity
  8
VISIBILE
100
AcDbCircle
 10
2670.611759911555
 20
1700.547918519195
 30
0.0
 40
0.2000000000000001
100
AcDbArc
 50
305.264389682747
 51
359.0658686945567
  0
ARC
  5
3DE
330
1F
100
AcDbEntity
  8
VISIBILE
100
AcDbCircle
 10
2666.394527132018
 20
1697.075986674385
 30
0.0
 40
0.2
100
AcDbArc
 50
35.26438968275762
 51
125.264389682747
  0
LINE
  5
3DF
330
1F
100
AcDbEntity
  8
VISIBILE
100
AcDbLine
 10
2672.542457718633
 20
1689.420730342807
 30
0.0
 11
2671.984918978586
 21
1689.516388867502
 31
0.0
  0
LINE
  5
3E0
330
1F
100
AcDbEntity
  8
VISIBILE
100
AcDbLine
 10
2675.971743358529
 20
1691.845601473404
 30
0.0
 11
2676.067401883225
 21
1692.403140213451
 31
0.0
  0
LINE
  5
3E1
330
1F
100
AcDbEntity
  8
VISIBILE
100
AcDbLine
 10
2670.524839299004
 20
1700.241507390357
 30
0.0
 11
2676.067401883225
 21
1692.403140213451
 31
0.0
  0
LINE
  5
3E2
330
1F
100
AcDbEntity
  8
VISIBILE
100
AcDbLine
 10
2666.557826448203
 20
1697.191456728223
 30
0.0
 11
2671.984918978586
 21
1689.516388867502
 31
0.0
  0
ARC
  5
3E3
330
1F
100
AcDbEntity
  8
VISIBILE
100
AcDbCircle
 10
2678.875504452745
 20
1684.101756456179
 30
0.0
 40
40.0
100
AcDbArc
 50
90.0
 51
176.4166783015281
  0
LINE
  5
3E4
330
1F
100
AcDbEntity
  8
VISIBILE
100
AcDbLine
 10
2670.811733331189
 20
1700.544657930264
 30
0.0
 11
2670.972168722524
 21
1710.384234310592
 31
0.0
  0
SPLINE
  5
3E5
330
1F
100
AcDbEntity
  8
NASCOSTA
100
AcDbSpline
210
0.0
220
0.0
230
1.0
 70
     8
 71
     3
 72
    21
 73
    17
 74
     0
 42
0.000000001
 43
0.0000000001
 40
-0.0327113183279696
 40
-0.0327113183279696
 40
-0.0327113183279696
 40
-0.0327113183279696
 40
-0.0322258982925894
 40
-0.0322258982925894
 40
-0.0227029730016556
 40
-0.0227029730016556
 40
-0.0158412509861515
 40
-0.0158412509861515
 40
-0.010605735378456
 40
-0.010605735378456
 40
-0.0056460560621588
 40
-0.0056460560621588
 40
0.0
 40
0.0
 40
0.0
 40
0.0003733004663487
 40
0.0003733004663487
 40
0.0003733004663487
 40
0.0003733004663487
 10
2761.91442396291
 20
1713.436640753954
 30
0.0
 10
2761.914296016898
 20
1713.43678310011
 30
0.0
 10
2761.914153946945
 20
1713.436929122406
 30
0.0
 10
2761.910933822449
 20
1713.44001160583
 30
0.0
 10
2761.902516070669
 20
1713.444214593028
 30
0.0
 10
2761.880207626268
 20
1713.453021021962
 30
0.0
 10
2761.867892978591
 20
1713.457425960682
 30
0.0
 10
2761.84032364852
 20
1713.466504467777
 30
0.0
 10
2761.826595027891
 20
1713.470822319036
 30
0.0
 10
2761.796588722535
 20
1713.479929380237
 30
0.0
 10
2761.78110377047
 20
1713.484495756857
 30
0.0
 10
2761.746896781362
 20
1713.494418386471
 30
0.0
 10
2761.729007071751
 20
1713.499515090328
 30
0.0
 10
2761.711972448408
 20
1713.504346158532
 30
0.0
 10
2761.71084616968
 20
1713.50466557442
 30
0.0
 10
2761.709724555858
 20
1713.504983561387
 30
0.0
 10
2761.708607703733
 20
1713.505300074756
 30
0.0
  0
ELLIPSE
  5
3E6
330
1F
100
AcDbEntity
  8
NASCOSTA
100
AcDbEllipse
 10
2761.715825207675
 20
1713.410382527396
 30
0.0
 11
-0.0021108345724047
 21
0.2909979363334813
 31
0.0
210
0.0
220
0.0
230
1.0
 40
0.6855909882539751
 41
4.720511809313368
 42
4.797772776781069
  0
ELLIPSE
  5
3E7
330
1F
100
AcDbEntity
  8
NASCOSTA
100
AcDbEllipse
 10
2760.163282950637
 20
1714.962924709031
 30
0.0
 11
0.1988805797907931
 21
0.1529936947606715
 31
0.0
210
0.0
220
0.0
230
1.0
 40
0.1029403483066139
 41
0.8910622752070471
 42
0.9683232291582932
  0
SPLINE
  5
3E8
330
1F
100
AcDbEntity
  8
NASCOSTA
100
AcDbSpline
210
0.0
220
0.0
230
1.0
 70
     8
 71
     3
 72
    20
 73
    16
 74
     0
 42
0.000000001
 43
0.0000000001
 40
0.114862406588454
 40
0.114862406588454
 40
0.114862406588454
 40
0.114862406588454
 40
0.122353229293774
 40
0.122353229293774
 40
0.130569849420465
 40
0.130569849420465
 40
0.136643403200421
 40
0.136643403200421
 40
0.141799530376476
 40
0.141799530376476
 40
0.144607468680877
 40
0.144607468680877
 40
0.14753481196153
 40
0.14753481196153
 40
0.147908039354936
 40
0.147908039354936
 40
0.147908039354936
 40
0.147908039354936
 10
2760.276047739619
 20
1715.075016977246
 30
0.0
 10
2760.253700807818
 20
1715.097594309159
 30
0.0
 10
2760.231303807836
 20
1715.117530584014
 30
0.0
 10
2760.186043978604
 20
1715.15209303873
 30
0.0
 10
2760.16371466408
 20
1715.165738305456
 30
0.0
 10
2760.129202395397
 20
1715.180565105148
 30
0.0
 10
2760.115262529899
 20
1715.184338196032
 30
0.0
 10
2760.092828226706
 20
1715.184631538336
 30
0.0
 10
2760.084275907629
 20
1715.182147988688
 30
0.0
 10
2760.074291396557
 20
1715.174189336612
 30
0.0
 10
2760.071463295392
 20
1715.170649397816
 30
0.0
 10
2760.067052910017
 20
1715.162095402454
 30
0.0
 10
2760.065559629043
 20
1715.157086225581
 30
0.0
 10
2760.064629160475
 20
1715.150882741568
 30
0.0
 10
2760.064534829642
 20
1715.150173440258
 30
0.0
 10
2760.064451172624
 20
1715.149456605867
 30
0.0
  0
SPLINE
  5
3E9
330
1F
100
AcDbEntity
  8
NASCOSTA
100
AcDbSpline
210
0.0
220
0.0
230
1.0
 70
     8
 71
     3
 72
    21
 73
    17
 74
     0
 42
0.000000001
 43
0.0000000001
 40
-0.0327113183277618
 40
-0.0327113183277618
 40
-0.0327113183277618
 40
-0.0327113183277618
 40
-0.0322258982923921
 40
-0.0322258982923921
 40
-0.0227029730015488
 40
-0.0227029730015488
 40
-0.0158412509861057
 40
-0.0158412509861057
 40
-0.0106057353784625
 40
-0.0106057353784625
 40
-0.0056460560621722
 40
-0.0056460560621722
 40
0.0
 40
0.0
 40
0.0
 40
0.0003733004663495
 40
0.0003733004663495
 40
0.0003733004663495
 40
0.0003733004663495
 10
2761.37073601851
 20
1716.169705256136
 30
0.0
 10
2761.369462578753
 20
1716.171248988061
 30
0.0
 10
2761.368202317684
 20
1716.172797341379
 30
0.0
 10
2761.342492065478
 20
1716.204810201504
 30
0.0
 10
2761.323780014406
 20
1716.236142991553
 30
0.0
 10
2761.30270943682
 20
1716.288328442475
 30
0.0
 10
2761.296676142412
 20
1716.311081323279
 30
0.0
 10
2761.293949401905
 20
1716.350455900952
 30
0.0
 10
2761.29540492062
 20
1716.367046854126
 30
0.0
 10
2761.304566107595
 20
1716.396999033708
 30
0.0
 10
2761.311751375981
 20
1716.409865094006
 30
0.0
 10
2761.332608170532
 20
1716.433137918178
 30
0.0
 10
2761.346431235275
 20
1716.442301266903
 30
0.0
 10
2761.361874170932
 20
1716.448724022793
 30
0.0
 10
2761.362895211995
 20
1716.449148676346
 30
0.0
 10
2761.363922489489
 20
1716.449560999641
 30
0.0
 10
2761.36495571069
 20
1716.449961143933
 30
0.0
  0
ELLIPSE
  5
3EA
330
1F
100
AcDbEntity
  8
NASCOSTA
100
AcDbEllipse
 10
2761.456570022379
 20
1716.256211780375
 30
0.0
 11
0.2023921404406756
 21
0.1513351352620981
 31
0.0
210
0.0
220
0.0
230
1.0
 40
0.0804998344902712
 41
4.137888995664657
 42
4.215149963261499
  0
ELLIPSE
  5
3EB
330
1F
100
AcDbEntity
  8
NASCOSTA
100
AcDbEllipse
 10
2764.561654394117
 20
1716.256211845996
 30
0.0
 11
-0.2023922275664521
 21
0.1513352084632697
 31
0.0
210
0.0
220
0.0
230
1.0
 40
0.0804998478744008
 41
2.068035520853198
 42
2.145296461100895
  0
SPLINE
  5
3EC
330
1F
100
AcDbEntity
  8
NASCOSTA
100
AcDbSpline
210
0.0
220
0.0
230
1.0
 70
     8
 71
     3
 72
    20
 73
    16
 74
     0
 42
0.000000001
 43
0.0000000001
 40
0.114862406606401
 40
0.114862406606401
 40
0.114862406606401
 40
0.114862406606401
 40
0.122353229314164
 40
0.122353229314164
 40
0.130569849442461
 40
0.130569849442461
 40
0.136643403223001
 40
0.136643403223001
 40
0.141799530399626
 40
0.141799530399626
 40
0.144607468704364
 40
0.144607468704364
 40
0.147534811985262
 40
0.147534811985262
 40
0.147908039378677
 40
0.147908039378677
 40
0.147908039378677
 40
0.147908039378677
 10
2764.647488465091
 20
1716.169705256134
 30
0.0
 10
2764.667795000828
 20
1716.194322984113
 30
0.0
 10
2764.68458004366
 20
1716.219871216119
 30
0.0
 10
2764.71101138837
 20
1716.273262155353
 30
0.0
 10
2764.719596845111
 20
1716.300651279862
 30
0.0
 10
2764.724541571609
 20
1716.345045621744
 30
0.0
 10
2764.723594187272
 20
1716.363705962462
 30
0.0
 10
2764.714213330398
 20
1716.395814464832
 30
0.0
 10
2764.707104980511
 20
1716.40899158415
 30
0.0
 10
2764.691809190079
 20
1716.426313233577
 30
0.0
 10
2764.685698151305
 20
1716.431712434721
 30
0.0
 10
2764.671950085094
 20
1716.441316890945
 30
0.0
 10
2764.664357100672
 20
1716.445393979469
 30
0.0
 10
2764.655329471474
 20
1716.449148593221
 30
0.0
 10
2764.654302195989
 20
1716.449560898228
 30
0.0
 10
2764.653268772911
 20
1716.449961143933
 30
0.0
  0
SPLINE
  5
3ED
330
1F
100
AcDbEntity
  8
NASCOSTA
100
AcDbSpline
210
0.0
220
0.0
230
1.0
 70
     8
 71
     3
 72
    21
 73
    17
 74
     0
 42
0.000000001
 43
0.0000000001
 40
-0.0327113183273528
 40
-0.0327113183273528
 40
-0.0327113183273528
 40
-0.0327113183273528
 40
-0.0322258982919843
 40
-0.0322258982919843
 40
-0.0227029730012657
 40
-0.0227029730012657
 40
-0.0158412509858798
 40
-0.0158412509858798
 40
-0.0106057353782844
 40
-0.0106057353782844
 40
-0.0056460560620839
 40
-0.0056460560620839
 40
0.0
 40
0.0
 40
0.0
 40
0.0003733004663478
 40
0.0003733004663478
 40
0.0003733004663478
 40
0.0003733004663478
 10
2765.742176743982
 20
1715.075016977246
 30
0.0
 10
2765.743578129751
 20
1715.076432763159
 30
0.0
 10
2765.744980460773
 20
1715.077839046523
 30
0.0
 10
2765.773910837475
 20
1715.106631782153
 30
0.0
 10
2765.801040640326
 20
1715.129546820423
 30
0.0
 10
2765.844419662313
 20
1715.159423826943
 30
0.0
 10
2765.862767604398
 20
1715.169862060071
 30
0.0
 10
2765.893063674977
 20
1715.181667307672
 30
0.0
 10
2765.905336776891
 20
1715.184529640217
 30
0.0
 10
2765.926181895272
 20
1715.184475514443
 30
0.0
 10
2765.93448157895
 20
1715.181856622677
 30
0.0
 10
2765.947831773507
 20
1715.17092245774
 30
0.0
 10
2765.951898418375
 20
1715.162196096855
 30
0.0
 10
2765.953490106061
 20
1715.151584229401
 30
0.0
 10
2765.953595343726
 20
1715.150882604226
 30
0.0
 10
2765.953689680055
 20
1715.150173313699
 30
0.0
 10
2765.953773310978
 20
1715.149456605867
 30
0.0
  0
ELLIPSE
  5
3EE
330
1F
100
AcDbEntity
  8
NASCOSTA
100
AcDbEllipse
 10
2765.854941557487
 20
1714.962924682959
 30
0.0
 11
-0.1988806094130753
 21
0.152993721914379
 31
0.0
210
0.0
220
0.0
230
1.0
 40
0.1029403544493084
 41
5.314862140607084
 42
5.392123085488428
  0
ELLIPSE
  5
3EF
330
1F
100
AcDbEntity
  8
NASCOSTA
100
AcDbEllipse
 10
2764.302399282691
 20
1713.410382526373
 30
0.0
 11
0.002110833353056
 21
0.2909979413441152
 31
0.0
210
0.0
220
0.0
230
1.0
 40
0.6855909997470525
 41
1.4854125255532
 42
1.562673491703857
  0
SPLINE
  5
3F0
330
1F
100
AcDbEntity
  8
NASCOSTA
100
AcDbSpline
210
0.0
220
0.0
230
1.0
 70
     8
 71
     3
 72
    20
 73
    16
 74
     0
 42
0.000000001
 43
0.0000000001
 40
0.114862406600323
 40
0.114862406600323
 40
0.114862406600323
 40
0.114862406600323
 40
0.122353229306649
 40
0.122353229306649
 40
0.130569849434418
 40
0.130569849434418
 40
0.13664340321515
 40
0.13664340321515
 40
0.141799530391843
 40
0.141799530391843
 40
0.1446074686966
 40
0.1446074686966
 40
0.147534811977528
 40
0.147534811977528
 40
0.147908039370938
 40
0.147908039370938
 40
0.147908039370938
 40
0.147908039370938
 10
2764.10380052069
 20
1713.436640753954
 30
0.0
 10
2764.105840916755
 20
1713.438911550132
 30
0.0
 10
2764.111452873905
 20
1713.442062782155
 30
0.0
 10
2764.130281358426
 20
1713.45019389216
 30
0.0
 10
2764.144025216209
 20
1713.455253702145
 30
0.0
 10
2764.173592758395
 20
1713.46513577534
 30
0.0
 10
2764.18848000823
 20
1713.469856250561
 30
0.0
 10
2764.220295168296
 20
1713.479530449738
 30
0.0
 10
2764.235955837262
 20
1713.484155249978
 30
0.0
 10
2764.261236138765
 20
1713.491492388334
 30
0.0
 10
2764.270175278705
 20
1713.494063488312
 30
0.0
 10
2764.28833373029
 20
1713.499257559162
 30
0.0
 10
2764.297419995687
 20
1713.501841366711
 30
0.0
 10
2764.307378093452
 20
1713.504665511895
 30
0.0
 10
2764.30849969977
 20
1713.50498348607
 30
0.0
 10
2764.309616779867
 20
1713.505300074756
 30
0.0
  0
SPLINE
  5
3F1
330
1F
100
AcDbEntity
  8
NASCOSTA
100
AcDbSpline
210
0.0
220
0.0
230
1.0
 70
     8
 71
     3
 72
    10
 73
     6
 74
     0
 42
0.000000001
 43
0.0000000001
 40
0.0716701476905239
 40
0.0716701476905239
 40
0.0716701476905239
 40
0.0716701476905239
 40
0.0786331249632526
 40
0.0786331249632526
 40
0.0794368849796468
 40
0.0794368849796468
 40
0.0794368849796468
 40
0.0794368849796468
 10
2764.874634923966
 20
1700.082708685857
 30
0.0
 10
2764.859390615598
 20
1700.063353529671
 30
0.0
 10
2764.845766596886
 20
1700.043123937733
 30
0.0
 10
2764.833136718515
 20
1700.020525928767
 30
0.0
 10
2764.831843513587
 20
1700.018156332638
 30
0.0
 10
2764.830564362796
 20
1700.015759750666
 30
0.0
  0
ELLIPSE
  5
3F2
330
1F
100
AcDbEntity
  8
NASCOSTA
100
AcDbEllipse
 10
2760.966360305212
 20
1699.998210598886
 30
0.0
 11
0.224229654374791
 21
-0.2141253516916959
 31
0.0
210
0.0
220
0.0
230
1.0
 40
0.6074791124419016
 41
1.073428887760127
 42
1.343661793454445
  0
LINE
  5
3F3
330
1F
100
AcDbEntity
  8
NASCOSTA
100
AcDbLine
 10
2782.863496080961
 20
1715.005584286837
 30
0.0
 11
2782.863489368753
 21
1715.005577726171
 31
0.0
  0
LINE
  5
3F4
330
1F
100
AcDbEntity
  8
NASCOSTA
100
AcDbLine
 10
2743.154733489298
 20
1715.005579302508
 30
0.0
 11
2743.154729693832
 21
1715.005583011933
 31
0.0
  0
ELLIPSE
  5
3F5
330
1F
100
AcDbEntity
  8
NASCOSTA
100
AcDbEllipse
 10
2763.009112241801
 20
1715.034905941519
 30
0.0
 11
-2.95133772659715
 21
-0.0000000000007942
 31
0.0
210
0.0
220
0.0
230
1.0
 40
0.5773502691896276
 41
4.12151314593879
 42
5.303264814829564
  0
SPLINE
  5
3F6
330
1F
100
AcDbEntity
  8
NASCOSTA
100
AcDbSpline
210
0.0
220
0.0
230
1.0
 70
     8
 71
     3
 72
    17
 73
    13
 74
     0
 42
0.000000001
 43
0.0000000001
 40
-0.0225429039069979
 40
-0.0225429039069979
 40
-0.0225429039069979
 40
-0.0225429039069979
 40
-0.0168514905637764
 40
-0.0168514905637764
 40
-0.0168514905637764
 40
-0.0113529436856899
 40
-0.0113529436856899
 40
-0.0113529436856899
 40
-0.0054356670669585
 40
-0.0054356670669585
 40
-0.0054356670669585
 40
-0.0000000001717114
 40
-0.0000000001717114
 40
-0.0000000001717114
 40
-0.0000000001717114
 10
2764.647488465167
 20
1716.16970525605
 30
0.0
 10
2764.633948645178
 20
1716.156369061065
 30
0.0
 10
2764.619283021142
 20
1716.14417325758
 30
0.0
 10
2764.603700322104
 20
1716.133709764773
 30
0.0
 10
2764.588645678207
 20
1716.123600851181
 30
0.0
 10
2764.572682382171
 20
1716.115076134755
 30
0.0
 10
2764.556134159063
 20
1716.108827325085
 30
0.0
 10
2764.538325742429
 20
1716.102102651062
 30
0.0
 10
2764.519979973699
 20
1716.098071205137
 30
0.0
 10
2764.501715479438
 20
1716.097567625217
 30
0.0
 10
2764.484937540326
 20
1716.097105031887
 30
0.0
 10
2764.468708716278
 20
1716.099638425861
 30
0.0
 10
2764.453517878123
 20
1716.105340256528
 30
0.0
  0
ELLIPSE
  5
3F7
330
1F
100
AcDbEntity
  8
NASCOSTA
100
AcDbEllipse
 10
2763.009112241801
 20
1714.82260979375
 30
0.0
 11
2.65
 21
0.0000000000003969
 31
0.0
210
0.0
220
0.0
230
1.0
 40
0.5773502691896261
 41
0.9943371617052996
 42
2.147255491884003
  0
SPLINE
  5
3F8
330
1F
100
AcDbEntity
  8
NASCOSTA
100
AcDbSpline
210
0.0
220
0.0
230
1.0
 70
     8
 71
     3
 72
    17
 73
    13
 74
     0
 42
0.000000001
 43
0.0000000001
 40
-0.0226305360923164
 40
-0.0226305360923164
 40
-0.0226305360923164
 40
-0.0226305360923164
 40
-0.0171897820021651
 40
-0.0171897820021651
 40
-0.0171897820021651
 40
-0.0112682172708043
 40
-0.0112682172708043
 40
-0.0112682172708043
 40
-0.0057328046416302
 40
-0.0057328046416302
 40
-0.0057328046416302
 40
-0.0000009999994438
 40
-0.0000009999994438
 40
-0.0000009999994438
 40
-0.0000009999994438
 10
2761.56470660548
 20
1716.105340256528
 30
0.0
 10
2761.549559244731
 20
1716.099654744961
 30
0.0
 10
2761.533379062433
 20
1716.097119292218
 30
0.0
 10
2761.516650642313
 20
1716.097563790852
 30
0.0
 10
2761.498443897265
 20
1716.098047570746
 30
0.0
 10
2761.480153217577
 20
1716.102039502892
 30
0.0
 10
2761.462392409997
 20
1716.108713531763
 30
0.0
 10
2761.445789805272
 20
1716.114952339472
 30
0.0
 10
2761.429773031789
 20
1716.123484655899
 30
0.0
 10
2761.41466935962
 20
1716.133612334982
 30
0.0
 10
2761.399029821243
 20
1716.144099336019
 30
0.0
 10
2761.384320182728
 20
1716.156325383655
 30
0.0
 10
2761.370736018433
 20
1716.169705256051
 30
0.0
  0
ELLIPSE
  5
3F9
330
1F
100
AcDbEntity
  8
NASCOSTA
100
AcDbEllipse
 10
2763.009112241804
 20
1698.920606204522
 30
0.0
 11
-2.65
 21
-0.0000000000007133
 31
0.0
210
0.0
220
0.0
230
1.0
 40
0.5773502691896172
 41
4.006014264138823
 42
5.418763696629418
  0
SPLINE
  5
3FA
330
1F
100
AcDbEntity
  8
NASCOSTA
100
AcDbSpline
210
0.0
220
0.0
230
1.0
 70
     8
 71
     3
 72
    20
 73
    16
 74
     0
 42
0.000000001
 43
0.0000000001
 40
0.0000000000394436
 40
0.0000000000394436
 40
0.0000000000394436
 40
0.0000000000394436
 40
0.0033055603547566
 40
0.0033055603547566
 40
0.0033055603547566
 40
0.0068308974228598
 40
0.0068308974228598
 40
0.0068308974228598
 40
0.0144516738489122
 40
0.0144516738489122
 40
0.0144516738489122
 40
0.0215001663535888
 40
0.0215001663535888
 40
0.0215001663535888
 40
0.0287327785063278
 40
0.0287327785063278
 40
0.0287327785063278
 40
0.0287327785063278
 10
2764.72917481513
 20
1700.084491183225
 30
0.0
 10
2764.737556834195
 20
1700.08036202433
 30
0.0
 10
2764.746449281667
 20
1700.077471418215
 30
0.0
 10
2764.755748062298
 20
1700.075800798831
 30
0.0
 10
2764.765665090855
 20
1700.074019104994
 30
0.0
 10
2764.77587197583
 20
1700.073655380204
 30
0.0
 10
2764.786206819046
 20
1700.074544529369
 30
0.0
 10
2764.808547811702
 20
1700.076466617062
 30
0.0
 10
2764.830959247162
 20
1700.084171745053
 30
0.0
 10
2764.852175569828
 20
1700.09543224247
 30
0.0
 10
2764.871798647969
 20
1700.105847130298
 30
0.0
 10
2764.890517225776
 20
1700.119356400522
 30
0.0
 10
2764.907822580653
 20
1700.1346458944
 30
0.0
 10
2764.925579983377
 20
1700.15033477811
 30
0.0
 10
2764.942092746178
 20
1700.168108435764
 30
0.0
 10
2764.957060343935
 20
1700.187077681029
 30
0.0
  0
SPLINE
  5
3FB
330
1F
100
AcDbEntity
  8
NASCOSTA
100
AcDbSpline
210
0.0
220
0.0
230
1.0
 70
     8
 71
     3
 72
     8
 73
     4
 74
     0
 42
0.000000001
 43
0.0000000001
 40
0.0003373548629883
 40
0.0003373548629883
 40
0.0003373548629883
 40
0.0003373548629883
 40
0.0004710026131028
 40
0.0004710026131028
 40
0.0004710026131028
 40
0.0004710026131028
 10
2764.957060346591
 20
1700.187077684395
 30
0.0
 10
2764.929601436623
 20
1700.152277524938
 30
0.0
 10
2764.902126877017
 20
1700.117487482969
 30
0.0
 10
2764.874634923966
 20
1700.082708685857
 30
0.0
  0
SPLINE
  5
3FC
330
1F
100
AcDbEntity
  8
NASCOSTA
100
AcDbSpline
210
0.0
220
0.0
230
1.0
 70
     8
 71
     3
 72
    16
 73
    12
 74
     0
 42
0.000000001
 43
0.0000000001
 40
-0.0269083325850809
 40
-0.0269083325850809
 40
-0.0269083325850809
 40
-0.0269083325850809
 40
-0.0188067078373773
 40
-0.0188067078373773
 40
-0.0139504917004279
 40
-0.0139504917004279
 40
-0.0092987563283018
 40
-0.0092987563283018
 40
-0.0047833977370057
 40
-0.0047833977370057
 40
0.0
 40
0.0
 40
0.0
 40
0.0
 10
2764.830564466552
 20
1700.015759697442
 30
0.0
 10
2764.814927263158
 20
1699.986424390708
 30
0.0
 10
2764.800084884903
 20
1699.960521222494
 30
0.0
 10
2764.773609220374
 20
1699.926546449791
 30
0.0
 10
2764.762597276868
 20
1699.914879520203
 30
0.0
 10
2764.738060176079
 20
1699.896426571137
 30
0.0
 10
2764.72532980116
 20
1699.889959050285
 30
0.0
 10
2764.698648908687
 20
1699.882654871934
 30
0.0
 10
2764.685458409965
 20
1699.881869261074
 30
0.0
 10
2764.6590316947
 20
1699.884984947374
 30
0.0
 10
2764.645990258707
 20
1699.889143530821
 30
0.0
 10
2764.633813104054
 20
1699.895127011506
 30
0.0
  0
ELLIPSE
  5
3FD
330
1F
100
AcDbEntity
  8
NASCOSTA
100
AcDbEllipse
 10
2763.009112241804
 20
1698.798131717383
 30
0.0
 11
2.5
 21
0.0000000000003744
 31
0.0
210
0.0
220
0.0
230
1.0
 40
0.5773502691896249
 41
0.8633593023892647
 42
2.278211954292077
  0
SPLINE
  5
3FE
330
1F
100
AcDbEntity
  8
NASCOSTA
100
AcDbSpline
210
0.0
220
0.0
230
1.0
 70
     8
 71
     3
 72
    16
 73
    12
 74
     0
 42
0.000000001
 43
0.0000000001
 40
-0.0338159973689305
 40
-0.0338159973689305
 40
-0.0338159973689305
 40
-0.0338159973689305
 40
-0.0277949650016346
 40
-0.0277949650016346
 40
-0.0220997067600221
 40
-0.0220997067600221
 40
-0.0162330673440065
 40
-0.0162330673440065
 40
-0.0101093935362904
 40
-0.0101093935362904
 40
-0.0000000059045568
 40
-0.0000000059045568
 40
-0.0000000059045568
 40
-0.0000000059045568
 10
2761.384432974724
 20
1699.895160626014
 30
0.0
 10
2761.3723250462
 20
1699.889192495837
 30
0.0
 10
2761.35930353848
 20
1699.885038928707
 30
0.0
 10
2761.332892712157
 20
1699.881911492673
 30
0.0
 10
2761.319694343691
 20
1699.882690308763
 30
0.0
 10
2761.292998528427
 20
1699.88998287407
 30
0.0
 10
2761.280261228677
 20
1699.896445243831
 30
0.0
 10
2761.255707298214
 20
1699.914892863821
 30
0.0
 10
2761.244686774392
 20
1699.92655865351
 30
0.0
 10
2761.218358148165
 20
1699.960303546253
 30
0.0
 10
2761.203509791596
 20
1699.986032157741
 30
0.0
 10
2761.187660110508
 20
1700.015759745361
 30
0.0
  0
SPLINE
  5
3FF
330
1F
100
AcDbEntity
  8
NASCOSTA
100
AcDbSpline
210
0.0
220
0.0
230
1.0
 70
     8
 71
     3
 72
     8
 73
     4
 74
     0
 42
0.000000001
 43
0.0000000001
 40
0.0003521929099795
 40
0.0003521929099795
 40
0.0003521929099795
 40
0.0003521929099795
 40
0.0004858406601138
 40
0.0004858406601138
 40
0.0004858406601138
 40
0.0004858406601138
 10
2761.143589559643
 20
1700.082708685857
 30
0.0
 10
2761.116097606588
 20
1700.117487482973
 30
0.0
 10
2761.088623046978
 20
1700.152277524949
 30
0.0
 10
2761.061164137006
 20
1700.187077684411
 30
0.0
  0
SPLINE
  5
400
330
1F
100
AcDbEntity
  8
NASCOSTA
100
AcDbSpline
210
0.0
220
0.0
230
1.0
 70
     8
 71
     3
 72
    20
 73
    16
 74
     0
 42
0.000000001
 43
0.0000000001
 40
0.0
 40
0.0
 40
0.0
 40
0.0
 40
0.0072747958924587
 40
0.0072747958924587
 40
0.0072747958924587
 40
0.0143653140149259
 40
0.0143653140149259
 40
0.0143653140149259
 40
0.0220466404166154
 40
0.0220466404166154
 40
0.0220466404166154
 40
0.0256049259069348
 40
0.0256049259069348
 40
0.0256049259069348
 40
0.0289409073210106
 40
0.0289409073210106
 40
0.0289409073210106
 40
0.0289409073210106
 10
2761.061164139668
 20
1700.187077681036
 30
0.0
 10
2761.076110735326
 20
1700.168135052865
 30
0.0
 10
2761.092598023948
 20
1700.150384843029
 30
0.0
 10
2761.110326822159
 20
1700.134712248229
 30
0.0
 10
2761.127606532389
 20
1700.119436655746
 30
0.0
 10
2761.146295871517
 20
1700.105935665225
 30
0.0
 10
2761.165888767651
 20
1700.095517319133
 30
0.0
 10
2761.18711421659
 20
1700.084230877788
 30
0.0
 10
2761.209539147087
 20
1700.076499420594
 30
0.0
 10
2761.231896926903
 20
1700.074554973409
 30
0.0
 10
2761.242253909454
 20
1700.073654230771
 30
0.0
 10
2761.252483416691
 20
1700.074010808496
 30
0.0
 10
2761.262422521028
 20
1700.075791129582
 30
0.0
 10
2761.271740679291
 20
1700.077460225012
 30
0.0
 10
2761.28065131005
 20
1700.080353975215
 30
0.0
 10
2761.289049668478
 20
1700.084491183225
 30
0.0
  0
ELLIPSE
  5
401
330
1F
100
AcDbEntity
  8
NASCOSTA
100
AcDbEllipse
 10
2762.455651694426
 20
1697.109088711222
 30
0.0
 11
0.0240083310604479
 21
0.1985537711545453
 31
0.0
210
0.0
220
0.0
230
1.0
 40
0.1673698683749554
 41
6.283100988470623
 42
6.283185307179744
  0
ELLIPSE
  5
402
330
1F
100
AcDbEntity
  8
NASCOSTA
100
AcDbEllipse
 10
2763.56257278918
 20
1697.109088711222
 30
0.0
 11
-0.0240083310604457
 21
0.1985537711545456
 31
0.0
210
0.0
220
0.0
230
1.0
 40
0.1673698683743745
 41
0.0
 42
0.0000845191530656
  0
ELLIPSE
  5
403
330
1F
100
AcDbEntity
  8
NASCOSTA
100
AcDbEllipse
 10
2763.009112241805
 20
1690.633165908106
 30
0.0
 11
2.09999999999999
 21
-0.0000000000000003
 31
0.0
210
0.0
220
0.0
230
1.0
 40
0.5773502691896254
 41
0.0
 42
6.283185307179586
  0
ELLIPSE
  5
404
330
1F
100
AcDbEntity
  8
NASCOSTA
100
AcDbEllipse
 10
2763.009112241805
 20
1690.959764540476
 30
0.0
 11
-2.5
 21
0.0000000000000004
 31
0.0
210
0.0
220
0.0
230
1.0
 40
0.577350269189625
 41
0.0
 42
6.283185307179586
  0
ELLIPSE
  5
405
330
1F
100
AcDbEntity
  8
NASCOSTA
100
AcDbEllipse
 10
2763.009112241804
 20
1698.798131717383
 30
0.0
 11
2.499999999999999
 21
0.0000000000005245
 31
0.0
210
0.0
220
0.0
230
1.0
 40
0.5773502691896251
 41
5.052149507175451
 42
6.467001789115576
  0
ELLIPSE
  5
406
330
1F
100
AcDbEntity
  8
NASCOSTA
100
AcDbEllipse
 10
2763.009112241804
 20
1698.798131717383
 30
0.0
 11
-2.5
 21
-0.0000000000005246
 31
0.0
210
0.0
220
0.0
230
1.0
 40
0.5773502691896252
 41
6.099347058372156
 42
7.514199340312192
  0
ELLIPSE
  5
407
330
1F
100
AcDbEntity
  8
NASCOSTA
100
AcDbEllipse
 10
2763.009112241804
 20
1698.920606204522
 30
0.0
 11
2.65
 21
0.0000000000005555
 31
0.0
210
0.0
220
0.0
230
1.0
 40
0.5773502691896172
 41
5.053211815335609
 42
6.465961247826236
  0
ELLIPSE
  5
408
330
1F
100
AcDbEntity
  8
NASCOSTA
100
AcDbEllipse
 10
2763.009112241801
 20
1714.82260979375
 30
0.0
 11
2.649999999999999
 21
0.0000000000005537
 31
0.0
210
0.0
220
0.0
230
1.0
 40
0.5773502691896261
 41
5.183127366491563
 42
6.336045696670276
  0
SPLINE
  5
409
330
1F
100
AcDbEntity
  8
NASCOSTA
100
AcDbSpline
210
0.0
220
0.0
230
1.0
 70
     8
 71
     3
 72
    16
 73
    12
 74
     0
 42
0.000000001
 43
0.0000000001
 40
-0.0338159973679565
 40
-0.0338159973679565
 40
-0.0338159973679565
 40
-0.0338159973679565
 40
-0.0277949650008337
 40
-0.0277949650008337
 40
-0.022099706759425
 40
-0.022099706759425
 40
-0.0162330673436192
 40
-0.0162330673436192
 40
-0.0101093935361177
 40
-0.0101093935361177
 40
-0.0000000059045568
 40
-0.0000000059045568
 40
-0.0000000059045568
 40
-0.0000000059045568
 10
2765.467006078
 20
1699.061950636058
 30
0.0
 10
2765.464089928614
 20
1699.071002004631
 30
0.0
 10
2765.462509926521
 20
1699.081449947314
 30
0.0
 10
2765.462994864061
 20
1699.104248400063
 30
0.0
 10
2765.464869211832
 20
1699.116351236849
 30
0.0
 10
2765.472755300538
 20
1699.142453528714
 30
0.0
 10
2765.478658402719
 20
1699.155750096043
 30
0.0
 10
2765.494428065043
 20
1699.182981984172
 30
0.0
 10
2765.503988734113
 20
1699.196107628613
 30
0.0
 10
2765.531180249712
 20
1699.228989631985
 30
0.0
 10
2765.551472086276
 20
1699.249274763478
 30
0.0
 10
2765.574813425637
 20
1699.271510692824
 30
0.0
  0
ELLIPSE
  5
40A
330
1F
100
AcDbEntity
  8
NASCOSTA
100
AcDbEllipse
 10
2765.579714550606
 20
1699.470360226682
 30
0.0
 11
0.1701953059963395
 21
0.2666210454497518
 31
0.0
210
0.0
220
0.0
230
1.0
 40
0.385848115068499
 41
4.144053732542758
 42
4.414286638253258
  0
SPLINE
  5
40B
330
1F
100
AcDbEntity
  8
NASCOSTA
100
AcDbSpline
210
0.0
220
0.0
230
1.0
 70
     8
 71
     3
 72
     8
 73
     4
 74
     0
 42
0.000000001
 43
0.0000000001
 40
0.0003532757177781
 40
0.0003532757177781
 40
0.0003532757177781
 40
0.0003532757177781
 40
0.0004869232556488
 40
0.0004869232556488
 40
0.0004869232556488
 40
0.0004869232556488
 10
2765.628065010373
 20
1699.329278599449
 30
0.0
 10
2765.656096852691
 20
1699.363517485983
 30
0.0
 10
2765.684111699848
 20
1699.397767305914
 30
0.0
 10
2765.712111171222
 20
1699.432026859765
 30
0.0
  0
SPLINE
  5
40C
330
1F
100
AcDbEntity
  8
NASCOSTA
100
AcDbSpline
210
0.0
220
0.0
230
1.0
 70
     8
 71
     3
 72
    20
 73
    16
 74
     0
 42
0.000000001
 43
0.0000000001
 40
0.0
 40
0.0
 40
0.0
 40
0.0
 40
0.0072800196794773
 40
0.0072800196794773
 40
0.0072800196794773
 40
0.0143751611321166
 40
0.0143751611321166
 40
0.0143751611321166
 40
0.0220537624358645
 40
0.0220537624358645
 40
0.0220537624358645
 40
0.025608263811906
 40
0.025608263811906
 40
0.025608263811906
 40
0.0289409390943883
 40
0.0289409390943883
 40
0.0289409390943883
 40
0.0289409390943883
 10
2765.712111168519
 20
1699.432026856457
 30
0.0
 10
2765.696859376276
 20
1699.413365090154
 30
0.0
 10
2765.682377951793
 20
1699.393584016188
 30
0.0
 10
2765.669316080599
 20
1699.373221551358
 30
0.0
 10
2765.656585919439
 20
1699.353376197272
 30
0.0
 10
2765.645038235966
 20
1699.332714373609
 30
0.0
 10
2765.635621897925
 20
1699.312105803526
 30
0.0
 10
2765.625431219411
 20
1699.289802514132
 30
0.0
 10
2765.617678046541
 20
1699.2674196515
 30
0.0
 10
2765.613992688175
 20
1699.246822789477
 30
0.0
 10
2765.612286698913
 20
1699.237288295954
 30
0.0
 10
2765.611474398844
 20
1699.228242883773
 30
0.0
 10
2765.611682379932
 20
1699.219888105483
 30
0.0
 10
2765.611877381525
 20
1699.212054724609
 30
0.0
 10
2765.612966360317
 20
1699.204956552054
 30
0.0
 10
2765.614970997961
 20
1699.198695000402
 30
0.0
  0
SPLINE
  5
40D
330
1F
100
AcDbEntity
  8
NASCOSTA
100
AcDbSpline
210
0.0
220
0.0
230
1.0
 70
     8
 71
     3
 72
    20
 73
    16
 74
     0
 42
0.000000001
 43
0.0000000001
 40
0.0000000000395505
 40
0.0000000000395505
 40
0.0000000000395505
 40
0.0000000000395505
 40
0.0033092055358744
 40
0.0033092055358744
 40
0.0033092055358744
 40
0.0068387133623928
 40
0.0068387133623928
 40
0.0068387133623928
 40
0.0144625102117707
 40
0.0144625102117707
 40
0.0144625102117707
 40
0.0215059473382094
 40
0.0215059473382094
 40
0.0215059473382094
 40
0.0287328438353311
 40
0.0287328438353311
 40
0.0287328438353311
 40
0.0287328438353311
 10
2763.89490842463
 20
1697.478632427072
 30
0.0
 10
2763.884512225226
 20
1697.476503651912
 30
0.0
 10
2763.874520489674
 20
1697.474700268066
 30
0.0
 10
2763.86501598207
 20
1697.473225273928
 30
0.0
 10
2763.854878734923
 20
1697.471652085633
 30
0.0
 10
2763.84547191681
 20
1697.47047953662
 30
0.0
 10
2763.836831339697
 20
1697.469668449542
 30
0.0
 10
2763.818167546382
 20
1697.46791648768
 30
0.0
 10
2763.803503185646
 20
1697.467881798653
 30
0.0
 10
2763.792473876319
 20
1697.468964794073
 30
0.0
 10
2763.782284170543
 20
1697.469965346725
 30
0.0
 10
2763.775129149872
 20
1697.471922920743
 30
0.0
 10
2763.770567507587
 20
1697.47447534813
 30
0.0
 10
2763.765887048876
 20
1697.477094258217
 30
0.0
 10
2763.763868634165
 20
1697.480374715355
 30
0.0
 10
2763.764163066382
 20
1697.48407875432
 30
0.0
  0
SPLINE
  5
40E
330
1F
100
AcDbEntity
  8
NASCOSTA
100
AcDbSpline
210
0.0
220
0.0
230
1.0
 70
     8
 71
     3
 72
     8
 73
     4
 74
     0
 42
0.000000001
 43
0.0000000001
 40
-0.0001103146909153
 40
-0.0001103146909153
 40
-0.0001103146909153
 40
-0.0001103146909153
 40
0.0000233328994781
 40
0.0000233328994781
 40
0.0000233328994781
 40
0.0000233328994781
 10
2763.764163066434
 20
1697.484078754978
 30
0.0
 10
2763.76362248525
 20
1697.477278088026
 30
0.0
 10
2763.763082226959
 20
1697.470502861087
 30
0.0
 10
2763.762542328211
 20
1697.463755917288
 30
0.0
  0
SPLINE
  5
40F
330
1F
100
AcDbEntity
  8
NASCOSTA
100
AcDbSpline
210
0.0
220
0.0
230
1.0
 70
     8
 71
     3
 72
    10
 73
     6
 74
     0
 42
0.000000001
 43
0.0000000001
 40
-0.0765978994777748
 40
-0.0765978994777748
 40
-0.0765978994777748
 40
-0.0765978994777748
 40
-0.0696349222050815
 40
-0.0696349222050815
 40
-0.0688311621886714
 40
-0.0688311621886714
 40
-0.0688311621886714
 40
-0.0688311621886714
 10
2763.762542328211
 20
1697.463755917288
 30
0.0
 10
2763.762193868445
 20
1697.459993529236
 30
0.0
 10
2763.759695239043
 20
1697.455886585412
 30
0.0
 10
2763.754533804103
 20
1697.451079889757
 30
0.0
 10
2763.753964102462
 20
1697.450573200197
 30
0.0
 10
2763.753361307727
 20
1697.45005856375
 30
0.0
  0
SPLINE
  5
410
330
1F
100
AcDbEntity
  8
NASCOSTA
100
AcDbSpline
210
0.0
220
0.0
230
1.0
 70
     8
 71
     3
 72
    16
 73
    12
 74
     0
 42
0.000000001
 43
0.0000000001
 40
-0.0269083325849227
 40
-0.0269083325849227
 40
-0.0269083325849227
 40
-0.0269083325849227
 40
-0.0188067078374023
 40
-0.0188067078374023
 40
-0.0139504917004565
 40
-0.0139504917004565
 40
-0.0092987563283316
 40
-0.0092987563283316
 40
-0.0047833977370368
 40
-0.0047833977370368
 40
0.0
 40
0.0
 40
0.0
 40
0.0
 10
2763.753361173076
 20
1697.450058541422
 30
0.0
 10
2763.745965320321
 20
1697.443756290837
 30
0.0
 10
2763.740386998004
 20
1697.438273823195
 30
0.0
 10
2763.739488743821
 20
1697.431672969203
 30
0.0
 10
2763.7409399921
 20
1697.429566734842
 30
0.0
 10
2763.749705334366
 20
1697.4268855443
 30
0.0
 10
2763.756529699169
 20
1697.426324033564
 30
0.0
 10
2763.77531814995
 20
1697.426912296906
 30
0.0
 10
2763.786630592733
 20
1697.428004741984
 30
0.0
 10
2763.81256331039
 20
1697.431614425892
 30
0.0
 10
2763.827186722054
 20
1697.434191033667
 30
0.0
 10
2763.842290650265
 20
1697.437247740794
 30
0.0
  0
ELLIPSE
  5
411
330
1F
100
AcDbEntity
  8
NASCOSTA
100
AcDbEllipse
 10
2763.009112241801
 20
1715.034905941519
 30
0.0
 11
2.951337726597149
 21
0.0000000000006176
 31
0.0
210
0.0
220
0.0
230
1.0
 40
0.5773502691896284
 41
5.168710697135503
 42
6.350462366026336
  0
SPLINE
  5
412
330
1F
100
AcDbEntity
  8
NASCOSTA
100
AcDbSpline
210
0.0
220
0.0
230
1.0
 70
     8
 71
     3
 72
    17
 73
    13
 74
     0
 42
0.000000001
 43
0.0000000001
 40
-0.0225429585506787
 40
-0.0225429585506787
 40
-0.0225429585506787
 40
-0.0225429585506787
 40
-0.0168557535207492
 40
-0.0168557535207492
 40
-0.0168557535207492
 40
-0.0113609908484245
 40
-0.0113609908484245
 40
-0.0113609908484245
 40
-0.0054393775117273
 40
-0.0054393775117273
 40
-0.0054393775117273
 40
-0.0000000001717303
 40
-0.0000000001717303
 40
-0.0000000001717303
 40
-0.0000000001717303
 10
2764.103800520564
 20
1713.43664075392
 30
0.0
 10
2764.104771003357
 20
1713.435873745542
 30
0.0
 10
2764.107510722236
 20
1713.435600347018
 30
0.0
 10
2764.11226854368
 20
1713.435954013961
 30
0.0
 10
2764.116865371037
 20
1713.436295713602
 30
0.0
 10
2764.123363999102
 20
1713.437224744934
 30
0.0
 10
2764.13198525832
 20
1713.438887573462
 30
0.0
 10
2764.14127624441
 20
1713.440679575805
 30
0.0
 10
2764.152961932925
 20
1713.443311899841
 30
0.0
 10
2764.167119905817
 20
1713.446923877779
 30
0.0
 10
2764.180124901677
 20
1713.45024170855
 30
0.0
 10
2764.19484593418
 20
1713.454293997443
 30
0.0
 10
2764.211005121487
 20
1713.459041740519
 30
0.0
  0
SPLINE
  5
413
330
1F
100
AcDbEntity
  8
NASCOSTA
100
AcDbSpline
210
0.0
220
0.0
230
1.0
 70
     8
 71
     3
 72
    17
 73
    13
 74
     0
 42
0.000000001
 43
0.0000000001
 40
-0.0226305583929073
 40
-0.0226305583929073
 40
-0.0226305583929073
 40
-0.0226305583929073
 40
-0.0171879323498546
 40
-0.0171879323498546
 40
-0.0171879323498546
 40
-0.0112641994371624
 40
-0.0112641994371624
 40
-0.0112641994371624
 40
-0.0057302062483909
 40
-0.0057302062483909
 40
-0.0057302062483909
 40
-0.0000009999994471
 40
-0.0000009999994471
 40
-0.0000009999994471
 40
-0.0000009999994471
 10
2765.655410757809
 20
1714.903447376841
 30
0.0
 10
2765.654455885195
 20
1714.913866936625
 30
0.0
 10
2765.655962313776
 20
1714.926010532732
 30
0.0
 10
2765.659720783341
 20
1714.939432043656
 30
0.0
 10
2765.663811486924
 20
1714.954039963688
 30
0.0
 10
2765.670439585768
 20
1714.969704356816
 30
0.0
 10
2765.678915522324
 20
1714.985673521141
 30
0.0
 10
2765.68683380221
 20
1715.000592027413
 30
0.0
 10
2765.696304135627
 20
1715.015664407312
 30
0.0
 10
2765.706776977887
 20
1715.030415835423
 30
0.0
 10
2765.717619252403
 20
1715.045687624027
 30
0.0
 10
2765.729573220816
 20
1715.060669848365
 30
0.0
 10
2765.742176743933
 20
1715.075016977288
 30
0.0
  0
ELLIPSE
  5
414
330
1F
100
AcDbEntity
  8
NASCOSTA
100
AcDbEllipse
 10
2761.198452070027
 20
1684.412416627958
 30
0.0
 11
6.41585476154956
 21
37.39434192065302
 31
0.0
210
0.0
220
0.0
230
1.0
 40
0.4999999999997457
 41
5.271928110238303
 42
5.309230474266522
  0
ARC
  5
415
330
1F
100
AcDbEntity
  8
NASCOSTA
100
AcDbCircle
 10
2763.009112241807
 20
1684.101756456179
 30
0.0
 40
38.00000000000001
100
AcDbArc
 50
44.99999999999078
 51
135.0000000000092
  0
ELLIPSE
  5
416
330
1F
100
AcDbEntity
  8
NASCOSTA
100
AcDbEllipse
 10
2763.009112241802
 20
1671.069285530907
 30
0.0
 11
30.96078969996
 21
-0.000000000012526
 31
0.0
210
0.0
220
0.0
230
1.0
 40
0.8062960729890885
 41
1.535639080842384
 42
1.605953516451071
  0
ELLIPSE
  5
417
330
1F
100
AcDbEntity
  8
NASCOSTA
100
AcDbEllipse
 10
2782.086880308726
 20
1690.147053597823
 30
0.0
 11
-9.352435174718397
 21
29.51444485583017
 31
0.0
210
0.0
220
0.0
230
1.0
 40
0.4182622638261399
 41
5.569459879779306
 42
5.639774315330448
  0
ELLIPSE
  5
418
330
1F
100
AcDbEntity
  8
NASCOSTA
100
AcDbEllipse
 10
2743.931344174893
 20
1690.147053597823
 30
0.0
 11
-9.35243517471985
 21
-29.5144448558297
 31
0.0
210
0.0
220
0.0
230
1.0
 40
0.4182622638266637
 41
3.785003701704679
 42
3.855318137313492
  0
ELLIPSE
  5
419
330
1F
100
AcDbEntity
  8
NASCOSTA
100
AcDbEllipse
 10
2763.009112241801
 20
1715.034905941519
 30
0.0
 11
-2.95133772659715
 21
-0.00000000000062
 31
0.0
210
0.0
220
0.0
230
1.0
 40
0.5773502691896278
 41
6.215908248332068
 42
7.397659917222952
  0
ELLIPSE
  5
41A
330
1F
100
AcDbEntity
  8
NASCOSTA
100
AcDbEllipse
 10
2787.130025813614
 20
1712.910170027983
 30
0.0
 11
2.499999999997712
 21
-2.499999999997712
 31
0.0
210
0.0
220
0.0
230
0.9999999999999998
 40
0.7071067811862559
 41
0.7853981633972936
 42
1.427727873516867
  0
LINE
  5
41B
330
1F
100
AcDbEntity
  8
NASCOSTA
100
AcDbLine
 10
2790.316494295205
 20
1711.409138509576
 30
0.0
 11
2790.147792766577
 21
1712.392403075016
 31
0.0
  0
LINE
  5
41C
330
1F
100
AcDbEntity
  8
NASCOSTA
100
AcDbLine
 10
2735.870431717037
 20
1712.392403075016
 30
0.0
 11
2735.70173018841
 21
1711.409138509576
 31
0.0
  0
ELLIPSE
  5
41D
330
1F
100
AcDbEntity
  8
NASCOSTA
100
AcDbEllipse
 10
2738.888198670019
 20
1712.91017002797
 30
0.0
 11
2.500000000013727
 21
2.500000000013726
 31
0.0
210
0.0
220
0.0
230
1.0
 40
0.7071067811883929
 41
1.713864780073071
 42
2.356194490188368
  0
ELLIPSE
  5
41E
330
1F
100
AcDbEntity
  8
NASCOSTA
100
AcDbEllipse
 10
2763.009112241801
 20
1714.82260979375
 30
0.0
 11
-2.65
 21
-0.0000000000005564
 31
0.0
210
0.0
220
0.0
230
1.0
 40
0.5773502691896263
 41
6.230324917688146
 42
7.383243247866873
  0
ELLIPSE
  5
41F
330
1F
100
AcDbEntity
  8
NASCOSTA
100
AcDbEllipse
 10
2763.009112241804
 20
1698.920606204522
 30
0.0
 11
-2.649999999999999
 21
-0.0000000000005546
 31
0.0
210
0.0
220
0.0
230
1.0
 40
0.5773502691896173
 41
6.100409366532163
 42
7.513158799022804
  0
SPLINE
  5
420
330
1F
100
AcDbEntity
  8
NASCOSTA
100
AcDbSpline
210
0.0
220
0.0
230
1.0
 70
     8
 71
     3
 72
    16
 73
    12
 74
     0
 42
0.000000001
 43
0.0000000001
 40
-0.0338159973662069
 40
-0.0338159973662069
 40
-0.0338159973662069
 40
-0.0338159973662069
 40
-0.0277949649994184
 40
-0.0277949649994184
 40
-0.0220997067583624
 40
-0.0220997067583624
 40
-0.0162330673429154
 40
-0.0162330673429154
 40
-0.0101093935357856
 40
-0.0101093935357856
 40
-0.0000000059045492
 40
-0.0000000059045492
 40
-0.0000000059045492
 40
-0.0000000059045492
 10
2762.175896909699
 20
1697.437272131967
 30
0.0
 10
2762.190921750598
 20
1697.434214809027
 30
0.0
 10
2762.205523260411
 20
1697.43164124399
 30
0.0
 10
2762.231449149194
 20
1697.428028870415
 30
0.0
 10
2762.242773169889
 20
1697.426933338735
 30
0.0
 10
2762.261582896447
 20
1697.426339815336
 30
0.0
 10
2762.268417094016
 20
1697.426899082916
 30
0.0
 10
2762.277201362155
 20
1697.429577040582
 30
0.0
 10
2762.278661216907
 20
1697.4316821612
 30
0.0
 10
2762.277798327535
 20
1697.438235538345
 30
0.0
 10
2762.27235484754
 20
1697.44367231327
 30
0.0
 10
2762.264863189266
 20
1697.450058561528
 30
0.0
  0
ELLIPSE
  5
421
330
1F
100
AcDbEntity
  8
NASCOSTA
100
AcDbEllipse
 10
2762.481261869905
 20
1697.42760829006
 30
0.0
 11
-0.225482823919643
 21
0.038428043180716
 31
0.0
210
0.0
220
0.0
230
1.0
 40
0.1974646019977085
 41
0.0501524938842
 42
0.3203853994189298
  0
SPLINE
  5
422
330
1F
100
AcDbEntity
  8
NASCOSTA
100
AcDbSpline
210
0.0
220
0.0
230
1.0
 70
     8
 71
     3
 72
     8
 73
     4
 74
     0
 42
0.000000001
 43
0.0000000001
 40
0.0003000216096056
 40
0.0003000216096056
 40
0.0003000216096056
 40
0.0003000216096056
 40
0.0004336691999924
 40
0.0004336691999924
 40
0.0004336691999924
 40
0.0004336691999924
 10
2762.255682155395
 20
1697.463755917288
 30
0.0
 10
2762.255142256647
 20
1697.470502861088
 30
0.0
 10
2762.254601998356
 20
1697.477278088026
 30
0.0
 10
2762.254061417172
 20
1697.484078754978
 30
0.0
  0
SPLINE
  5
423
330
1F
100
AcDbEntity
  8
NASCOSTA
100
AcDbSpline
210
0.0
220
0.0
230
1.0
 70
     8
 71
     3
 72
    20
 73
    16
 74
     0
 42
0.000000001
 43
0.0000000001
 40
0.0
 40
0.0
 40
0.0
 40
0.0
 40
0.0072800196798327
 40
0.0072800196798327
 40
0.0072800196798327
 40
0.0143751611331983
 40
0.0143751611331983
 40
0.0143751611331983
 40
0.0220537624375374
 40
0.0220537624375374
 40
0.0220537624375374
 40
0.0256082638138106
 40
0.0256082638138106
 40
0.0256082638138106
 40
0.0289409390965052
 40
0.0289409390965052
 40
0.0289409390965052
 40
0.0289409390965052
 10
2762.254061417225
 20
1697.484078754321
 30
0.0
 10
2762.254355881159
 20
1697.480374316326
 30
0.0
 10
2762.252336999914
 20
1697.477093548087
 30
0.0
 10
2762.247655456431
 20
1697.474474497936
 30
0.0
 10
2762.243092802111
 20
1697.471921959329
 30
0.0
 10
2762.235936204811
 20
1697.469964416439
 30
0.0
 10
2762.225744221958
 20
1697.46896416725
 30
0.0
 10
2762.214714114476
 20
1697.467881663853
 30
0.0
 10
2762.200049252415
 20
1697.467916836152
 30
0.0
 10
2762.181385409238
 20
1697.469669175672
 30
0.0
 10
2762.17274572948
 20
1697.47048035117
 30
0.0
 10
2762.163340083412
 20
1697.471652885124
 30
0.0
 10
2762.153204280091
 20
1697.473225929067
 30
0.0
 10
2762.143701022778
 20
1697.474700803913
 30
0.0
 10
2762.133710705444
 20
1697.4765039699
 30
0.0
 10
2762.123316058975
 20
1697.478632427074
 30
0.0
  0
SPLINE
  5
424
330
1F
100
AcDbEntity
  8
NASCOSTA
100
AcDbSpline
210
0.0
220
0.0
230
1.0
 70
     8
 71
     3
 72
    20
 73
    16
 74
     0
 42
0.000000001
 43
0.0000000001
 40
0.0000000000395495
 40
0.0000000000395495
 40
0.0000000000395495
 40
0.0000000000395495
 40
0.0033092055358677
 40
0.0033092055358677
 40
0.0033092055358677
 40
0.0068387133624004
 40
0.0068387133624004
 40
0.0068387133624004
 40
0.0144625102119794
 40
0.0144625102119794
 40
0.0144625102119794
 40
0.0215059473386821
 40
0.0215059473386821
 40
0.0215059473386821
 40
0.0287328438358273
 40
0.0287328438358273
 40
0.0287328438358273
 40
0.0287328438358273
 10
2760.403253485652
 20
1699.198695000398
 30
0.0
 10
2760.405258422784
 20
1699.204957487509
 30
0.0
 10
2760.40634742489
 20
1699.212056837109
 30
0.0
 10
2760.406542190246
 20
1699.219891585219
 30
0.0
 10
2760.406749921634
 20
1699.228247912683
 30
0.0
 10
2760.405937058167
 20
1699.23729504525
 30
0.0
 10
2760.404230267875
 20
1699.246831325577
 30
0.0
 10
2760.400543571857
 20
1699.267429853048
 30
0.0
 10
2760.392788862429
 20
1699.289814234186
 30
0.0
 10
2760.382596685664
 20
1699.312118715697
 30
0.0
 10
2760.373180385933
 20
1699.332725273856
 30
0.0
 10
2760.361633368833
 20
1699.353384885645
 30
0.0
 10
2760.34890416294
 20
1699.373228161211
 30
0.0
 10
2760.335843401294
 20
1699.393588291654
 30
0.0
 10
2760.321363464465
 20
1699.413367100332
 30
0.0
 10
2760.306113315095
 20
1699.432026856451
 30
0.0
  0
SPLINE
  5
425
330
1F
100
AcDbEntity
  8
NASCOSTA
100
AcDbSpline
210
0.0
220
0.0
230
1.0
 70
     8
 71
     3
 72
     8
 73
     4
 74
     0
 42
0.000000001
 43
0.0000000001
 40
-0.0000839772897915
 40
-0.0000839772897915
 40
-0.0000839772897915
 40
-0.0000839772897915
 40
0.0000496702480792
 40
0.0000496702480792
 40
0.0000496702480792
 40
0.0000496702480792
 10
2760.306113312387
 20
1699.432026859765
 30
0.0
 10
2760.33411278376
 20
1699.397767305914
 30
0.0
 10
2760.362127630916
 20
1699.363517485983
 30
0.0
 10
2760.390159473234
 20
1699.329278599449
 30
0.0
  0
SPLINE
  5
426
330
1F
100
AcDbEntity
  8
NASCOSTA
100
AcDbSpline
210
0.0
220
0.0
230
1.0
 70
     8
 71
     3
 72
    10
 73
     6
 74
     0
 42
0.000000001
 43
0.0000000001
 40
-0.0765978994777893
 40
-0.0765978994777893
 40
-0.0765978994777893
 40
-0.0765978994777893
 40
-0.0696349222050814
 40
-0.0696349222050814
 40
-0.0688311621886767
 40
-0.0688311621886767
 40
-0.0688311621886767
 40
-0.0688311621886767
 10
2760.390159473234
 20
1699.329278599449
 30
0.0
 10
2760.405752241368
 20
1699.310271903029
 30
0.0
 10
2760.421874889483
 20
1699.292540940493
 30
0.0
 10
2760.439666202794
 20
1699.275104366468
 30
0.0
 10
2760.441529109363
 20
1699.27330447198
 30
0.0
 10
2760.443411054888
 20
1699.271510684742
 30
0.0
  0
SPLINE
  5
427
330
1F
100
AcDbEntity
  8
NASCOSTA
100
AcDbSpline
210
0.0
220
0.0
230
1.0
 70
     8
 71
     3
 72
    16
 73
    12
 74
     0
 42
0.000000001
 43
0.0000000001
 40
-0.0269083325848439
 40
-0.0269083325848439
 40
-0.0269083325848439
 40
-0.0269083325848439
 40
-0.0188067078374112
 40
-0.0188067078374112
 40
-0.0139504917004581
 40
-0.0139504917004581
 40
-0.0092987563283357
 40
-0.0092987563283357
 40
-0.004783397737044
 40
-0.004783397737044
 40
0.0
 40
0.0
 40
0.0
 40
0.0
 10
2760.443411085785
 20
1699.271510766169
 30
0.0
 10
2760.466444141933
 20
1699.24957131219
 30
0.0
 10
2760.486864842505
 20
1699.229246466293
 30
0.0
 10
2760.514238761217
 20
1699.196169947773
 30
0.0
 10
2760.523799456444
 20
1699.183051769906
 30
0.0
 10
2760.539571214967
 20
1699.155833478574
 30
0.0
 10
2760.545477225083
 20
1699.142541592919
 30
0.0
 10
2760.553369666775
 20
1699.116448963788
 30
0.0
 10
2760.555247722714
 20
1699.104350910144
 30
0.0
 10
2760.555741720322
 20
1699.081533878787
 30
0.0
 10
2760.55415974465
 20
1699.071069050569
 30
0.0
 10
2760.551232971093
 20
1699.061948603043
 30
0.0
  0
SPLINE
  5
428
330
1F
100
AcDbEntity
  8
NASCOSTA
100
AcDbSpline
210
0.0
220
0.0
230
1.0
 70
     8
 71
     3
 72
    17
 73
    13
 74
     0
 42
0.000000001
 43
0.0000000001
 40
-0.0225429585507819
 40
-0.0225429585507819
 40
-0.0225429585507819
 40
-0.0225429585507819
 40
-0.0168550087066333
 40
-0.0168550087066333
 40
-0.0168550087066333
 40
-0.0113604888338679
 40
-0.0113604888338679
 40
-0.0113604888338679
 40
-0.0054391371586444
 40
-0.0054391371586444
 40
-0.0054391371586444
 40
-0.0000000001713991
 40
-0.0000000001713991
 40
-0.0000000001713991
 40
-0.0000000001713991
 10
2760.276047739668
 20
1715.075016977289
 30
0.0
 10
2760.288609249605
 20
1715.060717673766
 30
0.0
 10
2760.300519369994
 20
1715.045795509813
 30
0.0
 10
2760.311333242098
 20
1715.030576711784
 30
0.0
 10
2760.321779367119
 20
1715.015875459046
 30
0.0
 10
2760.33123128221
 20
1715.000853947223
 30
0.0
 10
2760.339145273139
 20
1714.985981525604
 30
0.0
 10
2760.347674048088
 20
1714.969953766908
 30
0.0
 10
2760.354347263543
 20
1714.954227186975
 30
0.0
 10
2760.358467558935
 20
1714.939560896628
 30
0.0
 10
2760.362252311522
 20
1714.926088978954
 30
0.0
 10
2760.363771705514
 20
1714.913900841349
 30
0.0
 10
2760.362813725792
 20
1714.903447376841
 30
0.0
  0
SPLINE
  5
429
330
1F
100
AcDbEntity
  8
NASCOSTA
100
AcDbSpline
210
0.0
220
0.0
230
1.0
 70
     8
 71
     3
 72
    17
 73
    13
 74
     0
 42
0.000000001
 43
0.0000000001
 40
-0.022630558393317
 40
-0.022630558393317
 40
-0.022630558393317
 40
-0.022630558393317
 40
-0.0171879323501766
 40
-0.0171879323501766
 40
-0.0171879323501766
 40
-0.011264199437352
 40
-0.011264199437352
 40
-0.011264199437352
 40
-0.0057302062483963
 40
-0.0057302062483963
 40
-0.0057302062483963
 40
-0.000000999999448
 40
-0.000000999999448
 40
-0.000000999999448
 40
-0.000000999999448
 10
2761.807219362113
 20
1713.459041740519
 30
0.0
 10
2761.823326138776
 20
1713.454309396254
 30
0.0
 10
2761.83800497504
 20
1713.450267727516
 30
0.0
 10
2761.85098010055
 20
1713.446955643366
 30
0.0
 10
2761.865102176442
 20
1713.443350783921
 30
0.0
 10
2761.876770515102
 20
1713.440718739547
 30
0.0
 10
2761.886060364473
 20
1713.438922117945
 30
0.0
 10
2761.894739007467
 20
1713.437243701336
 30
0.0
 10
2761.901279858762
 20
1713.436304896524
 30
0.0
 10
2761.905905564747
 20
1713.435957776389
 30
0.0
 10
2761.910694443723
 20
1713.435598411501
 30
0.0
 10
2761.913450064888
 20
1713.435871046262
 30
0.0
 10
2761.914423963037
 20
1713.43664075392
 30
0.0
  0
ELLIPSE
  5
42A
330
1F
100
AcDbEntity
  8
NASCOSTA
100
AcDbEllipse
 10
2762.927498978705
 20
1667.154862844172
 30
0.0
 11
-2.419946630642018
 21
113.3442207864715
 31
0.0
210
0.0
220
0.0
230
1.0
 40
0.0002370119766765
 41
1.15038502399837
 42
1.2999054853572
  0
ELLIPSE
  5
42B
330
1F
100
AcDbEntity
  8
NASCOSTA
100
AcDbEllipse
 10
2763.090724768578
 20
1667.1548283183
 30
0.0
 11
2.419946982474402
 21
113.3442369543093
 31
0.0
210
0.0
220
0.0
230
1.0
 40
0.0002370119373154
 41
4.983280100800409
 42
5.132800555747005
  0
SPLINE
  5
42C
330
1F
100
AcDbEntity
  8
NASCOSTA
100
AcDbSpline
210
0.0
220
0.0
230
1.0
 70
     8
 71
     3
 72
    10
 73
     6
 74
     0
 42
0.000000001
 43
0.0000000001
 40
0.0
 40
0.0
 40
0.0
 40
0.0
 40
0.0063124507586069
 40
0.0063124507586069
 40
0.0125867519687232
 40
0.0125867519687232
 40
0.0125867519687232
 40
0.0125867519687232
 10
2761.920820160158
 20
1696.017399619415
 30
0.0
 10
2761.941897078461
 20
1696.018019080613
 30
0.0
 10
2761.963026943965
 20
1696.016435982075
 30
0.0
 10
2762.004484874795
 20
1696.011017697758
 30
0.0
 10
2762.025416599593
 20
1696.007113794879
 30
0.0
 10
2762.045680474097
 20
1696.002998202522
 30
0.0
  0
LINE
  5
42D
330
1F
100
AcDbEntity
  8
NASCOSTA
100
AcDbLine
 10
2763.972381229509
 20
1696.002983825968
 30
0.0
 11
2762.045921233474
 21
1696.002983825968
 31
0.0
  0
SPLINE
  5
42E
330
1F
100
AcDbEntity
  8
NASCOSTA
100
AcDbSpline
210
0.0
220
0.0
230
1.0
 70
     8
 71
     3
 72
    10
 73
     6
 74
     0
 42
0.000000001
 43
0.0000000001
 40
0.0
 40
0.0
 40
0.0
 40
0.0
 40
0.0062576049363778
 40
0.0062576049363778
 40
0.0125460388078826
 40
0.0125460388078826
 40
0.0125460388078826
 40
0.0125460388078826
 10
2763.972564440787
 20
1696.002996633946
 30
0.0
 10
2763.99280703356
 20
1696.007108138569
 30
0.0
 10
2764.013716297289
 20
1696.011014655856
 30
0.0
 10
2764.055197124385
 20
1696.016435923423
 30
0.0
 10
2764.076329733526
 20
1696.018019029589
 30
0.0
 10
2764.097405086427
 20
1696.017400582037
 30
0.0
  0
SPLINE
  5
42F
330
1F
100
AcDbEntity
  8
NASCOSTA
100
AcDbSpline
210
0.0
220
0.0
230
1.0
 70
     8
 71
     3
 72
    12
 73
     8
 74
     0
 42
0.000000001
 43
0.0000000001
 40
-0.0245546967876613
 40
-0.0245546967876613
 40
-0.0245546967876613
 40
-0.0245546967876613
 40
-0.0227651063230736
 40
-0.0227651063230736
 40
-0.0124521966005769
 40
-0.0124521966005769
 40
-0.0000195422788509
 40
-0.0000195422788509
 40
-0.0000195422788509
 40
-0.0000195422788509
 10
2763.779545466535
 20
1696.003749520573
 30
0.0
 10
2763.782799828442
 20
1696.003729275546
 30
0.0
 10
2763.785561084372
 20
1696.003712105419
 30
0.0
 10
2763.808135327748
 20
1696.003577048889
 30
0.0
 10
2763.83184562761
 20
1696.003447244545
 30
0.0
 10
2763.89535060152
 20
1696.003177485458
 30
0.0
 10
2763.932751051405
 20
1696.003060886997
 30
0.0
 10
2763.972564440787
 20
1696.002996633946
 30
0.0
  0
SPLINE
  5
430
330
1F
100
AcDbEntity
  8
NASCOSTA
100
AcDbSpline
210
0.0
220
0.0
230
1.0
 70
     8
 71
     3
 72
    12
 73
     8
 74
     0
 42
0.000000001
 43
0.0000000001
 40
-0.0189033021615157
 40
-0.0189033021615157
 40
-0.0189033021615157
 40
-0.0189033021615157
 40
-0.0073371903288276
 40
-0.0073371903288276
 40
0.0
 40
0.0
 40
0.0014038282041164
 40
0.0014038282041164
 40
0.0014038282041164
 40
0.0014038282041164
 10
2762.045680474097
 20
1696.002998202522
 30
0.0
 10
2762.075091802895
 20
1696.003040439822
 30
0.0
 10
2762.115002924858
 20
1696.00314071356
 30
0.0
 10
2762.188628637888
 20
1696.003457127867
 30
0.0
 10
2762.211657823696
 20
1696.003585125552
 30
0.0
 10
2762.232817754786
 20
1696.003712512333
 30
0.0
 10
2762.235388000663
 20
1696.003728821734
 30
0.0
 10
2762.238679017058
 20
1696.003749520573
 30
0.0
  0
SPLINE
  5
431
330
1F
100
AcDbEntity
  8
NASCOSTA
100
AcDbSpline
210
0.0
220
0.0
230
1.0
 70
     8
 71
     3
 72
    10
 73
     6
 74
     0
 42
0.000000001
 43
0.0000000001
 40
0.0
 40
0.0
 40
0.0
 40
0.0
 40
0.0063124507586054
 40
0.0063124507586054
 40
0.0125867519687744
 40
0.0125867519687744
 40
0.0125867519687744
 40
0.0125867519687744
 10
2744.007814698237
 20
1716.106989244837
 30
0.0
 10
2743.997281327362
 20
1716.097065158391
 30
0.0
 10
2743.986746070199
 20
1716.084887451511
 30
0.0
 10
2743.966118671918
 20
1716.058638634646
 30
0.0
 10
2743.955725989183
 20
1716.044195689704
 30
0.0
 10
2743.945653218917
 20
1716.02988899311
 30
0.0
  0
LINE
  5
432
330
1F
100
AcDbEntity
  8
NASCOSTA
100
AcDbLine
 10
2742.982321091554
 20
1715.066505988505
 30
0.0
 11
2743.945551089572
 21
1716.029735986523
 31
0.0
  0
SPLINE
  5
433
330
1F
100
AcDbEntity
  8
NASCOSTA
100
AcDbSpline
210
0.0
220
0.0
230
1.0
 70
     8
 71
     3
 72
    10
 73
     6
 74
     0
 42
0.000000001
 43
0.0000000001
 40
0.0
 40
0.0
 40
0.0
 40
0.0
 40
0.0062576049362774
 40
0.0062576049362774
 40
0.0125460388076559
 40
0.0125460388076559
 40
0.0125460388076559
 40
0.0125460388076559
 10
2742.982216598432
 20
1715.066440078327
 30
0.0
 10
2742.972030878228
 20
1715.060494710381
 30
0.0
 10
2742.961503017692
 20
1715.054019824476
 30
0.0
 10
2742.940660981089
 20
1715.03880230155
 30
0.0
 10
2742.930065000786
 20
1715.029848778877
 30
0.0
 10
2742.919522957445
 20
1715.018697021865
 30
0.0
  0
SPLINE
  5
434
330
1F
100
AcDbEntity
  8
NASCOSTA
100
AcDbSpline
210
0.0
220
0.0
230
1.0
 70
     8
 71
     3
 72
    10
 73
     6
 74
     0
 42
0.000000001
 43
0.0000000001
 40
0.0
 40
0.0
 40
0.0
 40
0.0
 40
0.0063124507585971
 40
0.0063124507585971
 40
0.0125867519687237
 40
0.0125867519687237
 40
0.0125867519687237
 40
0.0125867519687237
 10
2783.098701866559
 20
1715.01869716405
 30
0.0
 10
2783.088158319582
 20
1715.029849995056
 30
0.0
 10
2783.077563711241
 20
1715.038802153679
 30
0.0
 10
2783.056733178693
 20
1715.054011267644
 30
0.0
 10
2783.04619413663
 20
1715.0605000475
 30
0.0
 10
2783.036003032391
 20
1715.06645722541
 30
0.0
  0
LINE
  5
435
330
1F
100
AcDbEntity
  8
NASCOSTA
100
AcDbLine
 10
2782.072634404342
 20
1716.029774976219
 30
0.0
 11
2783.035864402359
 21
1715.066544978201
 31
0.0
  0
SPLINE
  5
436
330
1F
100
AcDbEntity
  8
NASCOSTA
100
AcDbSpline
210
0.0
220
0.0
230
1.0
 70
     8
 71
     3
 72
    10
 73
     6
 74
     0
 42
0.000000001
 43
0.0000000001
 40
0.0
 40
0.0
 40
0.0
 40
0.0
 40
0.0062576049363569
 40
0.0062576049363569
 40
0.0125460388078696
 40
0.0125460388078696
 40
0.0125460388078696
 40
0.0125460388078696
 10
2782.072555686185
 20
1716.029892277317
 30
0.0
 10
2782.062498813617
 20
1716.044189502145
 30
0.0
 10
2782.052117410425
 20
1716.058623879969
 30
0.0
 10
2782.031478619932
 20
1716.084887184139
 30
0.0
 10
2782.020941991094
 20
1716.097066270607
 30
0.0
 10
2782.010408683295
 20
1716.106989865096
 30
0.0
  0
SPLINE
  5
437
330
1F
100
AcDbEntity
  8
NASCOSTA
100
AcDbSpline
210
0.0
220
0.0
230
1.0
 70
     8
 71
     3
 72
    12
 73
     8
 74
     0
 42
0.000000001
 43
0.0000000001
 40
-0.0246013977192936
 40
-0.0246013977192936
 40
-0.0246013977192936
 40
-0.0246013977192936
 40
-0.0228293391720714
 40
-0.0228293391720714
 40
-0.0124521966402795
 40
-0.0124521966402795
 40
-0.0000195422788465
 40
-0.0000195422788465
 40
-0.0000195422788465
 40
-0.0000195422788465
 10
2743.164253518007
 20
1715.078175019631
 30
0.0
 10
2743.160404843731
 20
1715.078809436406
 30
0.0
 10
2743.157239289511
 20
1715.079283051094
 30
0.0
 10
2743.130989319793
 20
1715.082937184507
 30
0.0
 10
2743.104519297416
 20
1715.085486901423
 30
0.0
 10
2743.042464744555
 20
1715.083586623219
 30
0.0
 10
2743.010742534675
 20
1715.077791784644
 30
0.0
 10
2742.982216598432
 20
1715.066440078327
 30
0.0
  0
SPLINE
  5
438
330
1F
100
AcDbEntity
  8
NASCOSTA
100
AcDbSpline
210
0.0
220
0.0
230
1.0
 70
     8
 71
     3
 72
    12
 73
     8
 74
     0
 42
0.000000001
 43
0.0000000001
 40
-0.0189032573838366
 40
-0.0189032573838366
 40
-0.0189032573838366
 40
-0.0189032573838366
 40
-0.0073371813428361
 40
-0.0073371813428361
 40
0.0
 40
0.0
 40
0.0014038224499373
 40
0.0014038224499373
 40
0.0014038224499373
 40
0.0014038224499373
 10
2743.945653218917
 20
1716.02988899311
 30
0.0
 10
2743.937288571045
 20
1716.008884549448
 30
0.0
 10
2743.928531810768
 20
1715.977830461428
 30
0.0
 10
2743.927056835118
 20
1715.905996085
 30
0.0
 10
2743.929837333531
 20
1715.880314378295
 30
0.0
 10
2743.933484214621
 20
1715.855634990279
 30
0.0
 10
2743.933971152055
 20
1715.852594138891
 30
0.0
 10
2743.934686742746
 20
1715.84860824437
 30
0.0
  0
SPLINE
  5
439
330
1F
100
AcDbEntity
  8
NASCOSTA
100
AcDbSpline
210
0.0
220
0.0
230
1.0
 70
     8
 71
     3
 72
    12
 73
     8
 74
     0
 42
0.000000001
 43
0.0000000001
 40
-0.0245547306192999
 40
-0.0245547306192999
 40
-0.0245547306192999
 40
-0.0245547306192999
 40
-0.0227651537712286
 40
-0.0227651537712286
 40
-0.012452196689257
 40
-0.012452196689257
 40
-0.000019542278849
 40
-0.000019542278849
 40
-0.000019542278849
 40
-0.000019542278849
 10
2782.083537740863
 20
1715.84860824437
 30
0.0
 10
2782.084203500242
 20
1715.852508075486
 30
0.0
 10
2782.084708523245
 20
1715.85575712021
 30
0.0
 10
2782.088504821971
 20
1715.881992523844
 30
0.0
 10
2782.091146550827
 20
1715.908214807011
 30
0.0
 10
2782.08952137961
 20
1715.969824982462
 30
0.0
 10
2782.083843139496
 20
1716.001430594014
 30
0.0
 10
2782.072555686185
 20
1716.029892277317
 30
0.0
  0
SPLINE
  5
43A
330
1F
100
AcDbEntity
  8
NASCOSTA
100
AcDbSpline
210
0.0
220
0.0
230
1.0
 70
     8
 71
     3
 72
    12
 73
     8
 74
     0
 42
0.000000001
 43
0.0000000001
 40
-0.0189032089778806
 40
-0.0189032089778806
 40
-0.0189032089778806
 40
-0.0189032089778806
 40
-0.0073371717398911
 40
-0.0073371717398911
 40
0.0
 40
0.0
 40
0.0014038161567629
 40
0.0014038161567629
 40
0.0014038161567629
 40
0.0014038161567629
 10
2783.036003032391
 20
1715.06645722541
 30
0.0
 10
2783.014956351475
 20
1715.074864110564
 30
0.0
 10
2782.98380198984
 20
1715.083721144539
 30
0.0
 10
2782.911651141996
 20
1715.085512536225
 30
0.0
 10
2782.885841402479
 20
1715.082860023355
 30
0.0
 10
2782.861034672477
 20
1715.07934053266
 30
0.0
 10
2782.857977540793
 20
1715.078869908687
 30
0.0
 10
2782.853970965602
 20
1715.078175019631
 30
0.0
  0
LINE
  5
43B
330
1F
100
AcDbEntity
  8
NASCOSTA
100
AcDbLine
 10
2781.270731008328
 20
1703.777588785081
 30
0.0
 11
2780.269082199003
 21
1702.775939975756
 31
0.0
  0
SPLINE
  5
43C
330
1F
100
AcDbEntity
  8
NASCOSTA
100
AcDbSpline
210
0.0
220
0.0
230
1.0
 70
     8
 71
     3
 72
    16
 73
    12
 74
     0
 42
0.000000001
 43
0.0000000001
 40
1.650902214899345
 40
1.650902214899345
 40
1.650902214899345
 40
1.650902214899345
 40
1.762725634058118
 40
1.762725634058118
 40
1.874549053216892
 40
1.874549053216892
 40
1.986372472375665
 40
1.986372472375665
 40
2.098195891534438
 40
2.098195891534438
 40
2.210019310693211
 40
2.210019310693211
 40
2.210019310693211
 40
2.210019310693211
 10
2760.123789659506
 20
1715.181358083865
 30
0.0
 10
2758.901322773234
 20
1715.509109468293
 30
0.0
 10
2757.684019730569
 20
1715.771495900538
 30
0.0
 10
2755.274803929848
 20
1716.16213707725
 30
0.0
 10
2754.082896528898
 20
1716.290390818992
 30
0.0
 10
2751.739257589444
 20
1716.410982830827
 30
0.0
 10
2750.587530933589
 20
1716.403320326927
 30
0.0
 10
2748.338596837972
 20
1716.251942560318
 30
0.0
 10
2747.241393994909
 20
1716.108226416545
 30
0.0
 10
2745.115267559317
 20
1715.686274111654
 30
0.0
 10
2744.086348869521
 20
1715.408036791112
 30
0.0
 10
2743.098088283066
 20
1715.06415602146
 30
0.0
  0
SPLINE
  5
43D
330
1F
100
AcDbEntity
  8
NASCOSTA
100
AcDbSpline
210
0.0
220
0.0
230
1.0
 70
     8
 71
     3
 72
    16
 73
    12
 74
     0
 42
0.000000001
 43
0.0000000001
 40
0.9315733428965822
 40
0.9315733428965822
 40
0.9315733428965822
 40
0.9315733428965822
 40
1.043396771832279
 40
1.043396771832279
 40
1.155220200767976
 40
1.155220200767976
 40
1.267043629703673
 40
1.267043629703673
 40
1.37886705863937
 40
1.37886705863937
 40
1.490690487575067
 40
1.490690487575067
 40
1.490690487575067
 40
1.490690487575067
 10
2782.920136200543
 20
1715.06415602146
 30
0.0
 10
2781.931875527682
 20
1715.408036821178
 30
0.0
 10
2780.902956744365
 20
1715.686274160294
 30
0.0
 10
2778.77683011095
 20
1716.10822647858
 30
0.0
 10
2777.679627163589
 20
1716.251942617172
 30
0.0
 10
2775.43069285229
 20
1716.403320349484
 30
0.0
 10
2774.278966085056
 20
1716.410982824267
 30
0.0
 10
2771.935326919633
 20
1716.29039073066
 30
0.0
 10
2770.743419404097
 20
1716.162136936263
 30
0.0
 10
2768.334203374986
 20
1715.771495631672
 30
0.0
 10
2767.11690021852
 20
1715.509109124202
 30
0.0
 10
2765.894433220858
 20
1715.181357654026
 30
0.0
  0
LINE
  5
43E
330
1F
100
AcDbEntity
  8
NASCOSTA
100
AcDbLine
 10
2782.863496099806
 20
1715.005584271392
 30
0.0
 11
2767.354891476877
 21
1699.851411478478
 31
0.0
  0
LINE
  5
43F
330
1F
100
AcDbEntity
  8
NASCOSTA
100
AcDbLine
 10
2758.663333006732
 20
1699.851411478478
 30
0.0
 11
2743.154729681251
 21
1715.005583003595
 31
0.0
  0
SPLINE
  5
440
330
1F
100
AcDbEntity
  8
NASCOSTA
100
AcDbSpline
210
0.0
220
0.0
230
1.0
 70
     8
 71
     3
 72
    16
 73
    12
 74
     0
 42
0.000000001
 43
0.0000000001
 40
4.505940202248655
 40
4.505940202248655
 40
4.505940202248655
 40
4.505940202248655
 40
4.588519713503069
 40
4.588519713503069
 40
4.671099224757483
 40
4.671099224757483
 40
4.753678736011897
 40
4.753678736011897
 40
4.836258247266311
 40
4.836258247266311
 40
4.918837758520723
 40
4.918837758520723
 40
4.918837758520723
 40
4.918837758520723
 10
2762.479660025487
 20
1697.307642482376
 30
0.0
 10
2762.549156925417
 20
1697.299239194081
 30
0.0
 10
2762.619310423846
 20
1697.292487161157
 30
0.0
 10
2762.760408837693
 20
1697.282344445016
 30
0.0
 10
2762.831353641568
 20
1697.278953755258
 30
0.0
 10
2762.973507679835
 20
1697.275563067593
 30
0.0
 10
2763.044716803773
 20
1697.275563067593
 30
0.0
 10
2763.186870842039
 20
1697.278953755258
 30
0.0
 10
2763.257815645914
 20
1697.282344445016
 30
0.0
 10
2763.398914059761
 20
1697.292487161157
 30
0.0
 10
2763.469067558189
 20
1697.299239194081
 30
0.0
 10
2763.53856445812
 20
1697.307642482376
 30
0.0
  0
ARC
  5
441
330
1F
100
AcDbEntity
  8
NASCOSTA
100
AcDbCircle
 10
2767.215114151309
 20
1699.994457971818
 30
0.0
 40
0.2
100
AcDbArc
 50
288.4349488229426
 51
314.337746109932
  0
ARC
  5
442
330
1F
100
AcDbEntity
  8
NASCOSTA
100
AcDbCircle
 10
2758.8031103323
 20
1699.994457971818
 30
0.0
 40
0.2000000000000001
100
AcDbArc
 50
225.662253890068
 51
251.5650511770862
  0
LINE
  5
443
330
1F
100
AcDbEntity
  8
NASCOSTA
100
AcDbLine
 10
2761.524188001314
 20
1689.775844498131
 30
0.0
 11
2761.241345288839
 21
1689.939143814317
 31
0.0
  0
LINE
  5
444
330
1F
100
AcDbEntity
  8
NASCOSTA
100
AcDbLine
 10
2764.494036482297
 20
1689.775844498131
 30
0.0
 11
2764.776879194771
 21
1689.939143814317
 31
0.0
  0
LINE
  5
445
330
1F
100
AcDbEntity
  8
NASCOSTA
100
AcDbLine
 10
2765.509112241804
 20
1698.798131717383
 30
0.0
 11
2765.509112241805
 21
1690.959764540476
 31
0.0
  0
LINE
  5
446
330
1F
100
AcDbEntity
  8
NASCOSTA
100
AcDbLine
 10
2760.509112241804
 20
1698.798131717383
 30
0.0
 11
2760.509112241805
 21
1690.959764540476
 31
0.0
  0
LINE
  5
447
330
1F
100
AcDbEntity
  8
NASCOSTA
100
AcDbLine
 10
2765.659112241804
 20
1698.920606204522
 30
0.0
 11
2765.659112241801
 21
1714.82260979375
 31
0.0
  0
LINE
  5
448
330
1F
100
AcDbEntity
  8
NASCOSTA
100
AcDbLine
 10
2764.77687919477
 20
1697.777510991223
 30
0.0
 11
2764.882945211948
 21
1697.838748234793
 31
0.0
  0
LINE
  5
449
330
1F
100
AcDbEntity
  8
NASCOSTA
100
AcDbLine
 10
2764.527759144883
 20
1713.568787426778
 30
0.0
 11
2764.700448052535
 21
1713.638508487143
 31
0.0
  0
LINE
  5
44A
330
1F
100
AcDbEntity
  8
NASCOSTA
100
AcDbLine
 10
2760.359112241804
 20
1698.920606204522
 30
0.0
 11
2760.3591122418
 21
1714.82260979375
 31
0.0
  0
LINE
  5
44B
330
1F
100
AcDbEntity
  8
NASCOSTA
100
AcDbLine
 10
2761.241345288837
 20
1697.777510991223
 30
0.0
 11
2761.135279271659
 21
1697.838748234793
 31
0.0
  0
LINE
  5
44C
330
1F
100
AcDbEntity
  8
NASCOSTA
100
AcDbLine
 10
2761.490465338717
 20
1713.568787426778
 30
0.0
 11
2761.317776431065
 21
1713.638508487143
 31
0.0
  0
SPLINE
  5
44D
330
1F
100
AcDbEntity
  8
NASCOSTA
100
AcDbSpline
210
0.0
220
0.0
230
1.0
 70
     8
 71
     3
 72
     8
 73
     4
 74
     0
 42
0.000000001
 43
0.0000000001
 40
0.0
 40
0.0
 40
0.0
 40
0.0
 40
1.947600863226607
 40
1.947600863226607
 40
1.947600863226607
 40
1.947600863226607
 10
2760.363092859178
 20
1714.90985111905
 30
0.0
 10
2760.369809624027
 20
1709.6835359888
 30
0.0
 10
2760.384725635451
 20
1704.454407743163
 30
0.0
 10
2760.406573079936
 20
1699.222930834248
 30
0.0
  0
SPLINE
  5
44E
330
1F
100
AcDbEntity
  8
NASCOSTA
100
AcDbSpline
210
0.0
220
0.0
230
1.0
 70
     8
 71
     3
 72
     8
 73
     4
 74
     0
 42
0.000000001
 43
0.0000000001
 40
0.0
 40
0.0
 40
0.0
 40
0.0
 40
1.947600863244523
 40
1.947600863244523
 40
1.947600863244523
 40
1.947600863244523
 10
2765.611651403679
 20
1699.222930834262
 30
0.0
 10
2765.633498848512
 20
1704.454407743048
 30
0.0
 10
2765.64841485959
 20
1709.68353598884
 30
0.0
 10
2765.655131624424
 20
1714.909851119205
 30
0.0
  0
LINE
  5
44F
330
1F
100
AcDbEntity
  8
NASCOSTA
100
AcDbLine
 10
2760.437608634886
 20
1699.238806693612
 30
0.0
 11
2758.739864779097
 21
1699.804721312208
 31
0.0
  0
LINE
  5
450
330
1F
100
AcDbEntity
  8
NASCOSTA
100
AcDbLine
 10
2767.278359704512
 20
1699.804721312208
 30
0.0
 11
2765.580615001
 21
1699.238806411038
 31
0.0
  0
SPLINE
  5
451
330
1F
100
AcDbEntity
  8
NASCOSTA
100
AcDbSpline
210
0.0
220
0.0
230
1.0
 70
     8
 71
     3
 72
    22
 73
    18
 74
     0
 42
0.000000001
 43
0.0000000001
 40
0.0
 40
0.0
 40
0.0
 40
0.0
 40
0.0086585357243952
 40
0.0086585357243952
 40
0.0124526762133109
 40
0.0124526762133109
 40
0.0138062142771099
 40
0.0138062142771099
 40
0.0183531059046956
 40
0.0183531059046956
 40
0.0230510369512464
 40
0.0230510369512464
 40
0.027240907078301
 40
0.027240907078301
 40
0.0325808631352027
 40
0.0325808631352027
 40
0.0338505664297524
 40
0.0338505664297524
 40
0.0338505664297524
 40
0.0338505664297524
 10
2782.920138753814
 20
1715.064155132967
 30
0.0
 10
2782.936946693998
 20
1715.058305990913
 30
0.0
 10
2782.951028088606
 20
1715.054509133672
 30
0.0
 10
2782.963084278945
 20
1715.051994675866
 30
0.0
 10
2782.965688302517
 20
1715.051602177234
 30
0.0
 10
2782.967200089193
 20
1715.051413690779
 30
0.0
 10
2782.967411409781
 20
1715.051394424154
 30
0.0
 10
2782.96741141035
 20
1715.051394424103
 30
0.0
 10
2782.964901533086
 20
1715.05164741001
 30
0.0
 10
2782.95450337448
 20
1715.051049921311
 30
0.0
 10
2782.946265766554
 20
1715.050064981191
 30
0.0
 10
2782.928044293134
 20
1715.04536734243
 30
0.0
 10
2782.918258400214
 20
1715.041932381582
 30
0.0
 10
2782.895919984124
 20
1715.031180246217
 30
0.0
 10
2782.883146290202
 20
1715.02295894585
 30
0.0
 10
2782.868814879482
 20
1715.010619573741
 30
0.0
 10
2782.866126482071
 20
1715.008154778526
 30
0.0
 10
2782.8634893687
 20
1715.005577726165
 30
0.0
  0
SPLINE
  5
452
330
1F
100
AcDbEntity
  8
NASCOSTA
100
AcDbSpline
210
0.0
220
0.0
230
1.0
 70
     8
 71
     3
 72
    22
 73
    18
 74
     0
 42
0.000000001
 43
0.0000000001
 40
0.0
 40
0.0
 40
0.0
 40
0.0
 40
0.0068889743421269
 40
0.0068889743421269
 40
0.0101483402491636
 40
0.0101483402491636
 40
0.015689191347589
 40
0.015689191347589
 40
0.0200397172804877
 40
0.0200397172804877
 40
0.0200981967269189
 40
0.0200981967269189
 40
0.0243686917562815
 40
0.0243686917562815
 40
0.0297955911590055
 40
0.0297955911590055
 40
0.0338767188970495
 40
0.0338767188970495
 40
0.0338767188970495
 40
0.0338767188970495
 10
2743.15473348931
 20
1715.005579302504
 30
0.0
 10
2743.14046168887
 20
1715.01952602147
 30
0.0
 10
2743.123833393683
 20
1715.030703489143
 30
0.0
 10
2743.100108428158
 20
1715.041712744269
 30
0.0
 10
2743.092562276082
 20
1715.04447043656
 30
0.0
 10
2743.073837878378
 20
1715.049882258388
 30
0.0
 10
2743.063664567034
 20
1715.051093387965
 30
0.0
 10
2743.053051712513
 20
1715.051618343916
 30
0.0
 10
2743.050796217113
 20
1715.051389681804
 30
0.0
 10
2743.050796216476
 20
1715.051389681747
 30
0.0
 10
2743.050796603602
 20
1715.051389716343
 30
0.0
 10
2743.05085377862
 20
1715.051394916618
 30
0.0
 10
2743.052986432788
 20
1715.051621153264
 30
0.0
 10
2743.061138199544
 20
1715.053187631803
 30
0.0
 10
2743.068100809965
 20
1715.054813562165
 30
0.0
 10
2743.082904608464
 20
1715.059093393723
 30
0.0
 10
2743.090165079664
 20
1715.061398833034
 30
0.0
 10
2743.098086474262
 20
1715.064155392037
 30
0.0
  0
SPLINE
  5
453
330
1F
100
AcDbEntity
  8
NASCOSTA
100
AcDbSpline
210
0.0
220
0.0
230
1.0
 70
     8
 71
     3
 72
    14
 73
    10
 74
     0
 42
0.000000001
 43
0.0000000001
 40
0.0
 40
0.0
 40
0.0
 40
0.0
 40
0.0069506512460828
 40
0.0069506512460828
 40
0.0137176965295117
 40
0.0137176965295117
 40
0.0162782328282582
 40
0.0162782328282582
 40
0.0189587928468738
 40
0.0189587928468738
 40
0.0189587928468738
 40
0.0189587928468738
 10
2765.580616949747
 20
1699.238808519762
 30
0.0
 10
2765.56022287228
 20
1699.232013499006
 30
0.0
 10
2765.540850434481
 20
1699.221461457868
 30
0.0
 10
2765.508725057415
 20
1699.196102770178
 30
0.0
 10
2765.495368811221
 20
1699.180875509824
 30
0.0
 10
2765.482739279711
 20
1699.161381516278
 30
0.0
 10
2765.479819440949
 20
1699.156165276786
 30
0.0
 10
2765.475039394682
 20
1699.146537520648
 30
0.0
 10
2765.473210044201
 20
1699.142130897386
 30
0.0
 10
2765.471927504361
 20
1699.1386585902
 30
0.0
  0
SPLINE
  5
454
330
1F
100
AcDbEntity
  8
NASCOSTA
100
AcDbSpline
210
0.0
220
0.0
230
1.0
 70
     8
 71
     3
 72
    26
 73
    22
 74
     0
 42
0.000000001
 43
0.0000000001
 40
0.0
 40
0.0
 40
0.0
 40
0.0
 40
0.0007628507792192
 40
0.0007628507792192
 40
0.0010488720360177
 40
0.0010488720360177
 40
0.001263385456916
 40
0.001263385456916
 40
0.0013438269686906
 40
0.0013438269686906
 40
0.0016489172132144
 40
0.0016489172132144
 40
0.0025643995354424
 40
0.0025643995354424
 40
0.005316333672105
 40
0.005316333672105
 40
0.0119745254408048
 40
0.0119745254408048
 40
0.0187305739605035
 40
0.0187305739605035
 40
0.0259733325184858
 40
0.0259733325184858
 40
0.0259733325184858
 40
0.0259733325184858
 10
2763.538561649472
 20
1697.307642142046
 30
0.0
 10
2763.540974018947
 20
1697.307935072249
 30
0.0
 10
2763.543393138987
 20
1697.30826531623
 30
0.0
 10
2763.546724161407
 20
1697.308769927974
 30
0.0
 10
2763.547633105534
 20
1697.30891271307
 30
0.0
 10
2763.549224503923
 20
1697.309171595605
 30
0.0
 10
2763.549906794237
 20
1697.309285444421
 30
0.0
 10
2763.550845214317
 20
1697.309445954118
 30
0.0
 10
2763.551101174769
 20
1697.309490135243
 30
0.0
 10
2763.5523280427
 20
1697.30970382494
 30
0.0
 10
2763.553299342719
 20
1697.309878766514
 30
0.0
 10
2763.557186130559
 20
1697.310601842907
 30
0.0
 10
2763.560104487464
 20
1697.31119659017
 30
0.0
 10
2763.571787897969
 20
1697.313784171736
 30
0.0
 10
2763.58056441001
 20
1697.316196031213
 30
0.0
 10
2763.610184960997
 20
1697.325915401474
 30
0.0
 10
2763.630839872531
 20
1697.335493610122
 30
0.0
 10
2763.668776398998
 20
1697.358600818843
 30
0.0
 10
2763.686481468049
 20
1697.372495509496
 30
0.0
 10
2763.717647197658
 20
1697.403283648289
 30
0.0
 10
2763.731268469053
 20
1697.420831657782
 30
0.0
 10
2763.741085258079
 20
1697.437401468618
 30
0.0
  0
SPLINE
  5
455
330
1F
100
AcDbEntity
  8
NASCOSTA
100
AcDbSpline
210
0.0
220
0.0
230
1.0
 70
     8
 71
     3
 72
    26
 73
    22
 74
     0
 42
0.000000001
 43
0.0000000001
 40
0.0
 40
0.0
 40
0.0
 40
0.0
 40
0.0058581602121294
 40
0.0058581602121294
 40
0.012060096634882
 40
0.012060096634882
 40
0.0188218531379946
 40
0.0188218531379946
 40
0.0223555468423113
 40
0.0223555468423113
 40
0.0241741794305528
 40
0.0241741794305528
 40
0.0246323031910072
 40
0.0246323031910072
 40
0.024718290609849
 40
0.024718290609849
 40
0.0248630260205629
 40
0.0248630260205629
 40
0.0252972553759491
 40
0.0252972553759491
 40
0.0260092043188922
 40
0.0260092043188922
 40
0.0260092043188922
 40
0.0260092043188922
 10
2762.277075865386
 20
1697.437432545129
 30
0.0
 10
2762.284982221105
 20
1697.424047226821
 30
0.0
 10
2762.295354025587
 20
1697.410031292717
 30
0.0
 10
2762.320403832436
 20
1697.382826279768
 30
0.0
 10
2762.335588612654
 20
1697.369408218327
 30
0.0
 10
2762.370314171964
 20
1697.344911313892
 30
0.0
 10
2762.390564624452
 20
1697.333827266783
 30
0.0
 10
2762.422366738422
 20
1697.321033228676
 30
0.0
 10
2762.433564194107
 20
1697.317313126319
 30
0.0
 10
2762.45057443037
 20
1697.312836062733
 30
0.0
 10
2762.456379671229
 20
1697.311511737643
 30
0.0
 10
2762.463632266955
 20
1697.310112366346
 30
0.0
 10
2762.465091325984
 20
1697.309843776904
 30
0.0
 10
2762.466823147029
 20
1697.309540357149
 30
0.0
 10
2762.467096803201
 20
1697.309492868292
 30
0.0
 10
2762.467830994372
 20
1697.309366685735
 30
0.0
 10
2762.468291474649
 20
1697.309288838581
 30
0.0
 10
2762.470133038867
 20
1697.308982688376
 30
0.0
 10
2762.471513377283
 20
1697.308764870114
 30
0.0
 10
2762.475153155652
 20
1697.308221324692
 30
0.0
 10
2762.477410839154
 20
1697.307915595492
 30
0.0
 10
2762.479662827474
 20
1697.307642142855
 30
0.0
  0
SPLINE
  5
456
330
1F
100
AcDbEntity
  8
NASCOSTA
100
AcDbSpline
210
0.0
220
0.0
230
1.0
 70
     8
 71
     3
 72
    16
 73
    12
 74
     0
 42
0.000000001
 43
0.0000000001
 40
0.0
 40
0.0
 40
0.0
 40
0.0
 40
0.0034991275732269
 40
0.0034991275732269
 40
0.007135938795141
 40
0.007135938795141
 40
0.0117191487959965
 40
0.0117191487959965
 40
0.0176055350757637
 40
0.0176055350757637
 40
0.0189962627215827
 40
0.0189962627215827
 40
0.0189962627215827
 40
0.0189962627215827
 10
2760.546307031432
 20
1699.138745306242
 30
0.0
 10
2760.544647309369
 20
1699.14323463635
 30
0.0
 10
2760.542038246865
 20
1699.149344224178
 30
0.0
 10
2760.534544015393
 20
1699.163180718841
 30
0.0
 10
2760.529513642469
 20
1699.171049729
 30
0.0
 10
2760.515831514951
 20
1699.188535839694
 30
0.0
 10
2760.506457996324
 20
1699.19823235166
 30
0.0
 10
2760.482314213883
 20
1699.217902633931
 30
0.0
 10
2760.466501288556
 20
1699.227394787399
 30
0.0
 10
2760.445723784193
 20
1699.235953000959
 30
0.0
 10
2760.44168752334
 20
1699.237454443206
 30
0.0
 10
2760.437603003869
 20
1699.238814488868
 30
0.0
  0
LINE
  5
457
330
1F
100
AcDbEntity
  8
VISIBILE
100
AcDbLine
 10
2783.449809166675
 20
1704.542453381054
 30
0.0
 11
2784.452782916979
 21
1705.545427131358
 31
0.0
  0
LINE
  5
458
330
1F
100
AcDbEntity
  8
VISIBILE
100
AcDbLine
 10
2784.452782916979
 20
1705.545427131358
 30
0.0
 11
2791.223481763355
 21
1712.316125977728
 31
0.0
  0
ELLIPSE
  5
459
330
1F
100
AcDbEntity
  8
VISIBILE
100
AcDbEllipse
 10
2762.698452070027
 20
1685.912416627959
 30
0.0
 11
37.39434192065392
 21
6.415854761544105
 31
0.0
210
0.0
220
0.0
230
1.0
 40
0.5000000000000423
 41
0.8993760393081302
 42
0.9366784033363479
  0
ELLIPSE
  5
45A
330
1F
100
AcDbEntity
  8
VISIBILE
100
AcDbEllipse
 10
2762.698452070027
 20
1685.912416627959
 30
0.0
 11
-39.36846343105296
 21
-6.754560465185395
 31
0.0
210
0.0
220
0.0
230
1.0
 40
0.5000000000000423
 41
4.043776531569593
 42
4.079205765661015
  0
SPLINE
  5
45B
330
1F
100
AcDbEntity
  8
VISIBILE
100
AcDbSpline
210
0.0
220
0.0
230
1.0
 70
     8
 71
     3
 72
     8
 73
     4
 74
     0
 42
0.000000001
 43
0.0000000001
 40
-0.000040000005
 40
-0.000040000005
 40
-0.000040000005
 40
-0.000040000005
 40
0.0020110259001238
 40
0.0020110259001238
 40
0.0020110259001238
 40
0.0020110259001238
 10
2789.988086718397
 20
1713.580730932769
 30
0.0
 10
2790.411915473655
 20
1713.172009383639
 30
0.0
 10
2790.824885967993
 20
1712.749360150904
 30
0.0
 10
2791.223481763355
 20
1712.316125977728
 30
0.0
  0
SPLINE
  5
45C
330
1F
100
AcDbEntity
  8
VISIBILE
100
AcDbSpline
210
0.0
220
0.0
230
1.0
 70
     8
 71
     3
 72
     8
 73
     4
 74
     0
 42
0.000000001
 43
0.0000000001
 40
0.0029989648501459
 40
0.0029989648501459
 40
0.0029989648501459
 40
0.0029989648501459
 40
0.0050499907552709
 40
0.0050499907552709
 40
0.0050499907552709
 40
0.0050499907552709
 10
2789.236183974529
 20
1714.303423766555
 30
0.0
 10
2789.499389813328
 20
1714.074856305569
 30
0.0
 10
2789.74994954373
 20
1713.833975313563
 30
0.0
 10
2789.988086718397
 20
1713.580730932769
 30
0.0
  0
ARC
  5
45D
330
1F
100
AcDbEntity
  8
VISIBILE
100
AcDbCircle
 10
2763.009112241807
 20
1684.101756456179
 30
0.0
 40
40.0
100
AcDbArc
 50
49.02901205103354
 51
130.9709879489664
  0
SPLINE
  5
45E
330
1F
100
AcDbEntity
  8
VISIBILE
100
AcDbSpline
210
0.0
220
0.0
230
1.0
 70
     8
 71
     3
 72
    11
 73
     7
 74
     0
 42
0.000000001
 43
0.0000000001
 40
-0.000040000005
 40
-0.000040000005
 40
-0.000040000005
 40
-0.000040000005
 40
0.0010306125556166
 40
0.0010306125556166
 40
0.0010306125556166
 40
0.0020110259001248
 40
0.0020110259001248
 40
0.0020110259001248
 40
0.0020110259001248
 10
2736.030137765216
 20
1713.580730932769
 30
0.0
 10
2736.154442704371
 20
1713.712921664393
 30
0.0
 10
2736.282125039027
 20
1713.841752526511
 30
0.0
 10
2736.413231770021
 20
1713.967212447822
 30
0.0
 10
2736.533292745717
 20
1714.082102358122
 30
0.0
 10
2736.656225171469
 20
1714.194165961322
 30
0.0
 10
2736.782040509085
 20
1714.303423766555
 30
0.0
  0
SPLINE
  5
45F
330
1F
100
AcDbEntity
  8
VISIBILE
100
AcDbSpline
210
0.0
220
0.0
230
1.0
 70
     8
 71
     3
 72
    11
 73
     7
 74
     0
 42
0.000000001
 43
0.0000000001
 40
0.0029989648501644
 40
0.0029989648501644
 40
0.0029989648501644
 40
0.0029989648501644
 40
0.0040713493363302
 40
0.0040713493363302
 40
0.0040713493363302
 40
0.0050499907552703
 40
0.0050499907552703
 40
0.0050499907552703
 40
0.0050499907552703
 10
2734.79474272026
 20
1712.316125977726
 30
0.0
 10
2735.003149618552
 20
1712.542643646296
 30
0.0
 10
2735.215478167267
 20
1712.766275891221
 30
0.0
 10
2735.431242314926
 20
1712.986527992477
 30
0.0
 10
2735.628145323451
 20
1713.187526637718
 30
0.0
 10
2735.827909030126
 20
1713.385710559897
 30
0.0
 10
2736.030137765216
 20
1713.580730932769
 30
0.0
  0
LINE
  5
460
330
1F
100
AcDbEntity
  8
VISIBILE
100
AcDbLine
 10
2761.021814452969
 20
1686.089054245005
 30
0.0
 11
2734.794742720255
 21
1712.31612597773
 31
0.0
  0
SPLINE
  5
461
330
1F
100
AcDbEntity
  8
VISIBILE
100
AcDbSpline
210
0.0
220
0.0
230
1.0
 70
     8
 71
     3
 72
    11
 73
     7
 74
     0
 42
0.000000001
 43
0.0000000001
 40
-0.000040000005
 40
-0.000040000005
 40
-0.000040000005
 40
-0.000040000005
 40
0.0010323844811763
 40
0.0010323844811763
 40
0.0010323844811763
 40
0.0020110259001248
 40
0.0020110259001248
 40
0.0020110259001248
 40
0.0020110259001248
 10
2763.009112241795
 20
1686.601756456179
 30
0.0
 10
2762.663001550627
 20
1686.512565950942
 30
0.0
 10
2762.316463067435
 20
1686.422964445667
 30
0.0
 10
2761.969967720136
 20
1686.33346072735
 30
0.0
 10
2761.653761450174
 20
1686.251781024758
 30
0.0
 10
2761.337591298448
 20
1686.170182801208
 30
0.0
 10
2761.021814452969
 20
1686.089054245005
 30
0.0
  0
SPLINE
  5
462
330
1F
100
AcDbEntity
  8
VISIBILE
100
AcDbSpline
210
0.0
220
0.0
230
1.0
 70
     8
 71
     3
 72
    14
 73
    10
 74
     0
 42
0.000000001
 43
0.0000000001
 40
0.0130964153848882
 40
0.0130964153848882
 40
0.0130964153848882
 40
0.0130964153848882
 40
0.0141111382033047
 40
0.0141111382033047
 40
0.0141111382033047
 40
0.014618499612513
 40
0.014618499612513
 40
0.014618499612513
 40
0.0151258610217212
 40
0.0151258610217212
 40
0.0151258610217212
 40
0.0151258610217212
 10
2764.996410030619
 20
1686.089054245003
 30
0.0
 10
2764.66543921137
 20
1686.174086396968
 30
0.0
 10
2764.33435774898
 20
1686.259551766531
 30
0.0
 10
2764.00308500367
 20
1686.345129898444
 30
0.0
 10
2763.837448631015
 20
1686.3879189644
 30
0.0
 10
2763.67176443763
 20
1686.430736223354
 30
0.0
 10
2763.506022399754
 20
1686.473542037662
 30
0.0
 10
2763.340280361877
 20
1686.516347851969
 30
0.0
 10
2763.17286247343
 20
1686.559559071744
 30
0.0
 10
2763.009112241795
 20
1686.601756456179
 30
0.0
  0
LINE
  5
463
330
1F
100
AcDbEntity
  8
VISIBILE
100
AcDbLine
 10
2764.996410030619
 20
1686.089054245003
 30
0.0
 11
2781.452782916977
 21
1702.545427131358
 31
0.0
  0
ELLIPSE
  5
464
330
1F
100
AcDbEntity
  8
VISIBILE
100
AcDbEllipse
 10
2761.198452070027
 20
1684.412416627958
 30
0.0
 11
-6.754560465191153
 21
-39.36846343105198
 31
0.0
210
0.0
220
0.0
230
1.0
 40
0.4999999999997458
 41
2.133143295320607
 42
2.168572529412029
  0
LINE
  5
465
330
1F
100
AcDbEntity
  8
VISIBILE
100
AcDbLine
 10
2783.270731008328
 20
1705.777588785081
 30
0.0
 11
2781.270731008328
 21
1703.777588785081
 31
0.0
  0
LINE
  5
466
330
1F
100
AcDbEntity
  8
VISIBILE
100
AcDbLine
 10
2763.009112241795
 20
1684.101756456179
 30
0.0
 11
2762.433129194762
 21
1684.677739503212
 31
0.0
  0
LINE
  5
467
330
1F
100
AcDbEntity
  8
VISIBILE
100
AcDbLine
 10
2761.021814452969
 20
1686.089054245005
 30
0.0
 11
2762.433129194762
 21
1684.677739503212
 31
0.0
  0
LINE
  5
468
330
1F
100
AcDbEntity
  8
VISIBILE
100
AcDbLine
 10
2764.996410030619
 20
1686.089054245003
 30
0.0
 11
2763.585095288829
 21
1684.677739503212
 31
0.0
  0
LINE
  5
469
330
1F
100
AcDbEntity
  8
VISIBILE
100
AcDbLine
 10
2763.009112241795
 20
1684.101756456179
 30
0.0
 11
2763.585095288829
 21
1684.677739503212
 31
0.0
  0
LINE
  5
46A
330
1F
100
AcDbEntity
  8
VISIBILE
100
AcDbLine
 10
2735.64583219032
 20
1713.203337454231
 30
0.0
 11
2736.251282133169
 21
1713.808787397081
 31
0.0
  0
LINE
  5
46B
330
1F
100
AcDbEntity
  8
VISIBILE
100
AcDbLine
 10
2789.766942132607
 20
1713.808787614918
 30
0.0
 11
2790.372393400528
 21
1713.203336346997
 31
0.0
  0
ENDSEC
  0
SECTION
  2
OBJECTS
  0
DICTIONARY
  5
C
330
0
100
AcDbDictionary
281
     1
  3
ACAD_CIP_PREVIOUS_PRODUCT_INFO
350
216
  3
ACAD_COLOR
350
6B
  3
ACAD_DETAILVIEWSTYLE
350
21B
  3
ACAD_GROUP
350
D
  3
ACAD_LAYOUT
350
1A
  3
ACAD_MATERIAL
350
6A
  3
ACAD_MLEADERSTYLE
350
12D
  3
ACAD_MLINESTYLE
350
17
  3
ACAD_PLOTSETTINGS
350
19
  3
ACAD_PLOTSTYLENAME
350
E
  3
ACAD_SCALELIST
350
10C
  3
ACAD_SECTIONVIEWSTYLE
350
219
  3
ACAD_TABLESTYLE
350
7E
  3
ACAD_VISUALSTYLE
350
EF
  3
ACDB_RECOMPOSE_DATA
350
474
  3
AcDbVariableDictionary
350
5E
  3
AcDsDecomposeData
350
47B
  3
DWGPROPS
350
475
  0
DICTIONARY
  5
1FF
330
2
100
AcDbDictionary
280
     1
281
     1
  3
ACAD_LAYERSTATES
360
200
  0
DICTIONARY
  5
13C
330
10
100
AcDbDictionary
280
     1
281
     1
  0
DICTIONARY
  5
1CE
330
1F
100
AcDbDictionary
280
     1
281
     1
  0
XRECORD
  5
216
102
{ACAD_REACTORS
330
C
102
}
330
C
100
AcDbXrecord
280
     1
300
AMECH_PP
300
2022
300

  0
DICTIONARY
  5
6B
102
{ACAD_REACTORS
330
C
102
}
330
C
100
AcDbDictionary
281
     1
  0
DICTIONARY
  5
21B
102
{ACAD_REACTORS
330
C
102
}
330
C
100
AcDbDictionary
281
     1
  3
Metric50
350
21C
  0
DICTIONARY
  5
D
102
{ACAD_REACTORS
330
C
102
}
330
C
100
AcDbDictionary
281
     1
  0
DICTIONARY
  5
1A
102
{ACAD_REACTORS
330
C
102
}
330
C
100
AcDbDictionary
281
     1
  3
Layout1
350
D3
  3
Layout2
350
D7
  3
Model
350
22
  0
DICTIONARY
  5
6A
102
{ACAD_REACTORS
330
C
102
}
330
C
100
AcDbDictionary
281
     1
  3
ByBlock
350
ED
  3
ByLayer
350
EC
  3
Global
350
EE
  0
DICTIONARY
  5
12D
102
{ACAD_REACTORS
330
C
102
}
330
C
100
AcDbDictionary
281
     1
  3
Annotativa
350
13B
  3
Standard
350
12E
  0
DICTIONARY
  5
17
102
{ACAD_REACTORS
330
C
102
}
330
C
100
AcDbDictionary
281
     1
  3
Standard
350
18
  0
DICTIONARY
  5
19
102
{ACAD_REACTORS
330
C
102
}
330
C
100
AcDbDictionary
281
     1
  0
ACDBDICTIONARYWDFLT
  5
E
102
{ACAD_REACTORS
330
C
102
}
330
C
100
AcDbDictionary
281
     1
  3
Normal
350
F
100
AcDbDictionaryWithDefault
340
F
  0
DICTIONARY
  5
10C
102
{ACAD_REACTORS
330
C
102
}
330
C
100
AcDbDictionary
281
     1
  3
A0
350
10D
  3
A1
350
1BE
  3
A2
350
1BF
  3
A3
350
1C0
  3
A4
350
1C1
  3
A5
350
1C2
  3
A6
350
1C3
  3
A7
350
1C4
  3
A8
350
1C5
  3
A9
350
1C6
  3
B0
350
1C7
  3
B1
350
1C8
  3
B2
350
1C9
  3
B3
350
1CA
  3
B4
350
1CB
  3
B5
350
1CC
  3
B6
350
1CD
  0
DICTIONARY
  5
219
102
{ACAD_REACTORS
330
C
102
}
330
C
100
AcDbDictionary
281
     1
  3
Metric50
350
21A
  0
DICTIONARY
  5
7E
102
{ACAD_REACTORS
330
C
102
}
330
C
100
AcDbDictionary
281
     1
  3
Standard
350
7F
  0
DICTIONARY
  5
EF
102
{ACAD_REACTORS
330
C
102
}
330
C
100
AcDbDictionary
281
     1
  3
2dWireframe
350
F5
  3
Basic
350
F4
  3
Brighten
350
FB
  3
ColorChange
350
FF
  3
Conceptual
350
F8
  3
Dim
350
FA
  3
EdgeColorOff
350
1E6
  3
Facepattern
350
FE
  3
Flat
350
F0
  3
FlatWithEdges
350
F1
  3
Gouraud
350
F2
  3
GouraudWithEdges
350
F3
  3
Hidden
350
F7
  3
JitterOff
350
1E4
  3
Linepattern
350
FD
  3
OverhangOff
350
1E5
  3
Realistic
350
F9
  3
Shaded
350
1F3
  3
Shaded with edges
350
1F2
  3
Shades of Gray
350
1EF
  3
Sketchy
350
1F0
  3
Thicken
350
FC
  3
Wireframe
350
F6
  3
X-Ray
350
1F1
  0
XRECORD
  5
474
102
{ACAD_REACTORS
330
C
102
}
330
C
100
AcDbXrecord
280
     1
 90
        1
330
7F
  0
DICTIONARY
  5
5E
102
{ACAD_REACTORS
330
C
102
}
330
C
100
AcDbDictionary
281
     1
  3
CANNOSCALE
350
146
  3
CENTEREXE
350
259
  3
CENTERLTYPEFILE
350
25A
  3
CMLEADERSTYLE
350
145
  3
CTABLESTYLE
350
84
  3
CVIEWDETAILSTYLE
350
227
  3
CVIEWSECTIONSTYLE
350
228
  3
DIMASSOC
350
5F
  3
HIDETEXT
350
63
  3
INDEXCTL
350
46F
  3
LAYEREVAL
350
1AE
  3
LAYERNOTIFY
350
1AF
  3
LIGHTINGUNITS
350
46D
  3
MSLTSCALE
350
46C
  3
PSOLHEIGHT
350
471
  3
PSOLWIDTH
350
470
  3
SORTENTS
350
46E
  3
XCLIPFRAME
350
472
  0
DICTIONARY
  5
47B
102
{ACAD_REACTORS
330
C
102
}
330
C
100
AcDbDictionary
281
     1
  3
AcDsRecords
350
47D
  3
AcDsSchemas
350
47C
1001
ACAD
1070
     2
  0
XRECORD
  5
475
102
{ACAD_REACTORS
330
C
102
}
330
C
100
AcDbXrecord
280
     1
  1
DWGPROPS COOKIE
  2

  3

  4

  6

  7

  8
tecnico7
  9

300
=
301
=
302
=
303
=
304
=
305
=
306
=
307
=
308
=
309
=
 40
0.0003356481481481
 41
2459768.680127315
 42
2459768.680462963
  1

 90
        0
  0
DICTIONARY
  5
200
102
{ACAD_REACTORS
330
1FF
102
}
330
1FF
100
AcDbDictionary
281
     1
  0
ACDBDETAILVIEWSTYLE
  5
21C
102
{ACAD_XDICTIONARY
360
4B9
102
}
102
{ACAD_REACTORS
330
21B
102
}
330
21B
100
AcDbModelDocViewStyle
 70
     0
  3
Metric50
290
     0
100
AcDbDetailViewStyle
 70
     0
 71
     0
 90
        3
 71
     1
340
11
 40
5.0
340
0
 40
5.0
300

 40
0.0
280
     1
 71
     2
340
16
 90
       25
 71
     3
340
11
 40
5.0
 90
        0
 40
15.0
 90
        1
300
%<\AcVar ViewDetailId>% (%<\AcVar ViewScale \f "%sn">%)
 71
     4
340
16
 90
       25
340
16
 90
       25
280
     0
  0
LAYOUT
  5
D3
102
{ACAD_XDICTIONARY
360
480
102
}
102
{ACAD_REACTORS
330
1A
102
}
330
1A
100
AcDbPlotSettings
  1

  2
C:\Documents and Settings\basas\Application Data\Autodesk\AutoCAD 2005\R16.1\enu\plotters\Default Windows System Printer.pc3
  4

  6

 40
0.0
 41
0.0
 42
0.0
 43
0.0
 44
0.0
 45
0.0
 46
0.0
 47
0.0
 48
0.0
 49
0.0
140
0.0
141
0.0
142
1.0
143
1.0
 70
   688
 72
     0
 73
     0
 74
     5
  7

 75
    16
147
1.0
148
0.0
149
0.0
100
AcDbLayout
  1
Layout1
 70
     1
 71
     1
 10
0.0
 20
0.0
 11
12.0
 21
9.0
 12
0.0
 22
0.0
 32
0.0
 14
0.0
 24
0.0
 34
0.0
 15
0.0
 25
0.0
 35
0.0
146
0.0
 13
0.0
 23
0.0
 33
0.0
 16
1.0
 26
0.0
 36
0.0
 17
0.0
 27
1.0
 37
0.0
 76
     0
330
D2
  0
LAYOUT
  5
D7
102
{ACAD_XDICTIONARY
360
482
102
}
102
{ACAD_REACTORS
330
1A
102
}
330
1A
100
AcDbPlotSettings
  1

  2
C:\Documents and Settings\basas\Application Data\Autodesk\AutoCAD 2005\R16.1\enu\plotters\Default Windows System Printer.pc3
  4

  6

 40
0.0
 41
0.0
 42
0.0
 43
0.0
 44
0.0
 45
0.0
 46
0.0
 47
0.0
 48
0.0
 49
0.0
140
0.0
141
0.0
142
1.0
143
1.0
 70
   688
 72
     0
 73
     0
 74
     5
  7

 75
    16
147
1.0
148
0.0
149
0.0
100
AcDbLayout
  1
Layout2
 70
     1
 71
     2
 10
0.0
 20
0.0
 11
12.0
 21
9.0
 12
0.0
 22
0.0
 32
0.0
 14
0.0
 24
0.0
 34
0.0
 15
0.0
 25
0.0
 35
0.0
146
0.0
 13
0.0
 23
0.0
 33
0.0
 16
1.0
 26
0.0
 36
0.0
 17
0.0
 27
1.0
 37
0.0
 76
     0
330
D6
  0
LAYOUT
  5
22
102
{ACAD_XDICTIONARY
360
205
102
}
102
{ACAD_REACTORS
330
1A
102
}
330
1A
100
AcDbPlotSettings
  1

  2
none_device
  4
ISO_A4_(210.00_x_297.00_MM)
  6

 40
7.5
 41
20.0
 42
7.5
 43
20.0
 44
210.0
 45
297.0
 46
11.54999923706054
 47
-13.65000009536743
 48
0.0
 49
0.0
140
0.0
141
0.0
142
1.0
143
8.704084754739808
 70
 11952
 72
     1
 73
     0
 74
     0
  7

 75
     0
147
0.1148885871608098
148
0.0
149
0.0
100
AcDbLayout
  1
Model
 70
     1
 71
     0
 10
0.0
 20
0.0
 11
12.0
 21
9.0
 12
0.0
 22
0.0
 32
0.0
 14
0.0
 24
0.0
 34
0.0
 15
0.0
 25
0.0
 35
0.0
146
0.0
 13
0.0
 23
0.0
 33
0.0
 16
1.0
 26
0.0
 36
0.0
 17
0.0
 27
1.0
 37
0.0
 76
     0
330
1F
331
EA
1001
ACAD_PSEXT
1000
None
1000
None
1000
Not applicable
1000
The layout will not be plotted unless a new plotter configuration name is selected.
1070
     0
  0
MATERIAL
  5
ED
102
{ACAD_XDICTIONARY
360
1F9
102
}
102
{ACAD_REACTORS
330
6A
102
}
330
6A
100
AcDbMaterial
  1
ByBlock
  0
MATERIAL
  5
EC
102
{ACAD_XDICTIONARY
360
1F7
102
}
102
{ACAD_REACTORS
330
6A
102
}
330
6A
100
AcDbMaterial
  1
ByLayer
  0
MATERIAL
  5
EE
102
{ACAD_XDICTIONARY
360
173
102
}
102
{ACAD_REACTORS
330
6A
102
}
330
6A
100
AcDbMaterial
  1
Global
 43
0.0007999999797903
 43
0.0
 43
0.0
 43
0.0
 43
0.0
 43
0.0007999999797903
 43
0.0
 43
0.0
 43
0.0
 43
0.0
 43
1.0
 43
0.0
 43
0.0
 43
0.0
 43
0.0
 43
1.0
 49
0.0007999999797903
 49
0.0
 49
0.0
 49
0.0
 49
0.0
 49
0.0007999999797903
 49
0.0
 49
0.0
 49
0.0
 49
0.0
 49
1.0
 49
0.0
 49
0.0
 49
0.0
 49
0.0
 49
1.0
142
0.0007999999797903
142
0.0
142
0.0
142
0.0
142
0.0
142
0.0007999999797903
142
0.0
142
0.0
142
0.0
142
0.0
142
1.0
142
0.0
142
0.0
142
0.0
142
0.0
142
1.0
144
0.0007999999797903
144
0.0
144
0.0
144
0.0
144
0.0
144
0.0007999999797903
144
0.0
144
0.0
144
0.0
144
0.0
144
1.0
144
0.0
144
0.0
144
0.0
144
0.0
144
1.0
1001
ACAD
1070
    -1
1070
     3
1070
     0
1000

1071
        0
1070
     0
  0
MLEADERSTYLE
  5
13B
102
{ACAD_REACTORS
330
12D
102
}
330
12D
100
AcDbMLeaderStyle
170
     2
171
     1
172
     0
 90
        2
 40
0.0
 41
0.0
173
     1
 91
-1056964608
340
14
 92
       -2
290
     1
 42
2.0
291
     1
 43
8.0
  3
Standard
 44
4.0
300

342
11
174
     1
178
     1
175
     1
176
     0
 93
-1056964608
 45
4.0
292
     0
297
     0
 46
4.0
 94
-1056964608
 47
1.0
 49
1.0
140
1.0
293
     1
141
0.0
294
     1
177
     0
142
1.0
295
     0
296
     1
143
3.75
1001
ACAD_MLEADERVER
1070
     2
  0
MLEADERSTYLE
  5
12E
102
{ACAD_REACTORS
330
12D
102
}
330
12D
100
AcDbMLeaderStyle
170
     2
171
     1
172
     0
 90
        2
 40
0.0
 41
0.0
173
     1
 91
-1056964608
340
14
 92
       -2
290
     1
 42
2.0
291
     1
 43
8.0
  3
Standard
 44
4.0
300

342
11
174
     1
178
     1
175
     1
176
     0
 93
-1056964608
 45
4.0
292
     0
297
     0
 46
4.0
 94
-1056964608
 47
1.0
 49
1.0
140
1.0
293
     1
141
0.0
294
     1
177
     0
142
1.0
295
     0
296
     0
143
3.75
1001
ACAD_MLEADERVER
1070
     2
  0
MLINESTYLE
  5
18
102
{ACAD_REACTORS
330
17
102
}
330
17
100
AcDbMlineStyle
  2
STANDARD
 70
     0
  3

 62
   256
 51
90.0
 52
90.0
 71
     2
 49
0.5
 62
   256
  6
BYLAYER
 49
-0.5
 62
   256
  6
BYLAYER
  0
ACDBPLACEHOLDER
  5
F
102
{ACAD_REACTORS
330
E
102
}
330
E
  0
SCALE
  5
10D
102
{ACAD_REACTORS
330
10C
102
}
330
10C
100
AcDbScale
 70
     0
300
1:1
140
1.0
141
1.0
290
     1
  0
SCALE
  5
1BE
102
{ACAD_REACTORS
330
10C
102
}
330
10C
100
AcDbScale
 70
     0
300
1:2
140
1.0
141
2.0
290
     0
  0
SCALE
  5
1BF
102
{ACAD_REACTORS
330
10C
102
}
330
10C
100
AcDbScale
 70
     0
300
1:4
140
1.0
141
4.0
290
     0
  0
SCALE
  5
1C0
102
{ACAD_REACTORS
330
10C
102
}
330
10C
100
AcDbScale
 70
     0
300
1:5
140
1.0
141
5.0
290
     0
  0
SCALE
  5
1C1
102
{ACAD_REACTORS
330
10C
102
}
330
10C
100
AcDbScale
 70
     0
300
1:8
140
1.0
141
8.0
290
     0
  0
SCALE
  5
1C2
102
{ACAD_REACTORS
330
10C
102
}
330
10C
100
AcDbScale
 70
     0
300
1:10
140
1.0
141
10.0
290
     0
  0
SCALE
  5
1C3
102
{ACAD_REACTORS
330
10C
102
}
330
10C
100
AcDbScale
 70
     0
300
1:16
140
1.0
141
16.0
290
     0
  0
SCALE
  5
1C4
102
{ACAD_REACTORS
330
10C
102
}
330
10C
100
AcDbScale
 70
     0
300
1:20
140
1.0
141
20.0
290
     0
  0
SCALE
  5
1C5
102
{ACAD_REACTORS
330
10C
102
}
330
10C
100
AcDbScale
 70
     0
300
1:30
140
1.0
141
30.0
290
     0
  0
SCALE
  5
1C6
102
{ACAD_REACTORS
330
10C
102
}
330
10C
100
AcDbScale
 70
     0
300
1:40
140
1.0
141
40.0
290
     0
  0
SCALE
  5
1C7
102
{ACAD_REACTORS
330
10C
102
}
330
10C
100
AcDbScale
 70
     0
300
1:50
140
1.0
141
50.0
290
     0
  0
SCALE
  5
1C8
102
{ACAD_REACTORS
330
10C
102
}
330
10C
100
AcDbScale
 70
     0
300
1:100
140
1.0
141
100.0
290
     0
  0
SCALE
  5
1C9
102
{ACAD_REACTORS
330
10C
102
}
330
10C
100
AcDbScale
 70
     0
300
2:1
140
2.0
141
1.0
290
     0
  0
SCALE
  5
1CA
102
{ACAD_REACTORS
330
10C
102
}
330
10C
100
AcDbScale
 70
     0
300
4:1
140
4.0
141
1.0
290
     0
  0
SCALE
  5
1CB
102
{ACAD_REACTORS
330
10C
102
}
330
10C
100
AcDbScale
 70
     0
300
8:1
140
8.0
141
1.0
290
     0
  0
SCALE
  5
1CC
102
{ACAD_REACTORS
330
10C
102
}
330
10C
100
AcDbScale
 70
     0
300
10:1
140
10.0
141
1.0
290
     0
  0
SCALE
  5
1CD
102
{ACAD_REACTORS
330
10C
102
}
330
10C
100
AcDbScale
 70
     0
300
100:1
140
100.0
141
1.0
290
     0
  0
ACDBSECTIONVIEWSTYLE
  5
21A
102
{ACAD_XDICTIONARY
360
4B7
102
}
102
{ACAD_REACTORS
330
219
102
}
330
219
100
AcDbModelDocViewStyle
 70
     0
  3
Metric50
290
     0
100
AcDbSectionViewStyle
 70
     0
 71
     0
 90
      102
 71
     1
340
11
 40
5.0
340
0
340
0
 40
5.0
300
I, O, Q, S, X, Z
 40
10.0
 90
        0
 40
2.5
 90
        0
 71
     2
340
16
 90
       25
340
16
 90
       50
 40
5.0
 40
2.5
 40
5.0
 71
     3
340
11
 40
5.0
 90
        0
 40
15.0
 90
        1
300
%<\AcVar ViewSectionStartId>%-%<\AcVar ViewSectionEndId>% (%<\AcVar ViewScale \f "%sn">%)
 71
     4
300
ANSI31
 40
1.0
 90
        0
290
     0
290
     0
 90
        6
 40
0.0
 40
1.570796326794896
 40
0.2617993877991494
 40
1.308996938995747
 40
-0.2617993877991494
 40
1.832595714594046
  0
TABLESTYLE
  5
7F
102
{ACAD_XDICTIONARY
360
162
102
}
102
{ACAD_REACTORS
330
7E
102
}
330
7E
100
AcDbTableStyle
  3
Standard
 70
     0
 71
     0
 40
1.5
 41
1.5
280
     0
281
     0
  7
Standard
140
4.5
170
     2
 62
     0
 63
     7
283
     0
274
    -2
284
     1
 64
     0
275
    -2
285
     1
 65
     0
276
    -2
286
     1
 66
     0
277
    -2
287
     1
 67
     0
278
    -2
288
     1
 68
     0
279
    -2
289
     1
 69
     0
  7
Standard
140
6.0
170
     5
 62
     0
 63
     7
283
     0
274
    -2
284
     1
 64
     0
275
    -2
285
     1
 65
     0
276
    -2
286
     1
 66
     0
277
    -2
287
     1
 67
     0
278
    -2
288
     1
 68
     0
279
    -2
289
     1
 69
     0
  7
Standard
140
4.5
170
     5
 62
     0
 63
     7
283
     0
274
    -2
284
     1
 64
     0
275
    -2
285
     1
 65
     0
276
    -2
286
     1
 66
     0
277
    -2
287
     1
 67
     0
278
    -2
288
     1
 68
     0
279
    -2
289
     1
 69
     0
  0
VISUALSTYLE
  5
F5
102
{ACAD_XDICTIONARY
360
491
102
}
102
{ACAD_REACTORS
330
EF
102
}
330
EF
100
AcDbVisualStyle
  2
2dWireframe
 70
     4
 71
     0
 72
     2
 73
     1
 90
        0
 40
-0.6
 41
-30.0
 62
     5
 63
     7
 74
     1
 91
        4
 64
     7
 65
   257
 75
     1
175
     1
 42
1.0
 92
        0
 66
   257
 43
1.0
 76
     1
 77
     6
 78
     2
 67
     7
 79
     5
170
     0
171
     0
290
     0
174
     0
 93
        1
 44
0.0
173
     0
291
     0
 45
0.0
1001
ACAD
1000
AcDbSavedByObjectVersion
1070
     0
  0
VISUALSTYLE
  5
F4
102
{ACAD_XDICTIONARY
360
48F
102
}
102
{ACAD_REACTORS
330
EF
102
}
330
EF
100
AcDbVisualStyle
  2
Basic
 70
     7
 71
     1
 72
     0
 73
     1
 90
        0
 40
-0.6
 41
-30.0
 62
     5
 63
     7
 74
     0
 91
        4
 64
     7
 65
   257
 75
     1
175
     1
 42
1.0
 92
        8
 66
     7
 43
1.0
 76
     1
 77
     6
 78
     2
 67
     7
 79
     5
170
     0
171
     0
290
     0
174
     0
 93
        1
 44
0.0
173
     0
291
     1
 45
0.0
1001
ACAD
1000
AcDbSavedByObjectVersion
1070
     0
  0
VISUALSTYLE
  5
FB
102
{ACAD_XDICTIONARY
360
49D
102
}
102
{ACAD_REACTORS
330
EF
102
}
330
EF
100
AcDbVisualStyle
  2
Brighten
 70
    12
 71
     2
 72
     2
 73
     1
 90
        0
 40
-0.6
 41
-30.0
 62
     5
 63
     7
 74
     1
 91
        4
 64
     7
 65
   257
 75
     1
175
     1
 42
1.0
 92
        8
 66
     7
 43
1.0
 76
     1
 77
     6
 78
     2
 67
     7
 79
     5
170
     0
171
     0
290
     0
174
     0
 93
        1
 44
50.0
173
     0
291
     1
 45
0.0
1001
ACAD
1000
AcDbSavedByObjectVersion
1070
     0
  0
VISUALSTYLE
  5
FF
102
{ACAD_XDICTIONARY
360
4A5
102
}
102
{ACAD_REACTORS
330
EF
102
}
330
EF
100
AcDbVisualStyle
  2
ColorChange
 70
    16
 71
     2
 72
     2
 73
     3
 90
        0
 40
-0.6
 41
-30.0
 62
     5
 63
     8
 74
     1
 91
        4
 64
     7
 65
   257
 75
     1
175
     1
 42
1.0
 92
        8
 66
     8
 43
1.0
 76
     1
 77
     6
 78
     2
 67
     7
 79
     5
170
     0
171
     0
290
     0
174
     0
 93
        1
 44
0.0
173
     0
291
     1
 45
0.0
1001
ACAD
1000
AcDbSavedByObjectVersion
1070
     0
  0
VISUALSTYLE
  5
F8
102
{ACAD_XDICTIONARY
360
497
102
}
102
{ACAD_REACTORS
330
EF
102
}
330
EF
100
AcDbVisualStyle
  2
Conceptual
 70
     9
 71
     3
 72
     2
 73
     1
 90
        0
 40
-0.6
 41
-30.0
 62
     5
 63
     7
 74
     2
 91
        2
 64
     7
 65
   257
 75
     1
175
     1
 42
40.0
 92
        8
 66
     7
 43
1.0
 76
     1
 77
     6
 78
     2
 67
     7
 79
     3
170
     0
171
     0
290
     0
174
     0
 93
        1
 44
0.0
173
     0
291
     0
 45
0.0
1001
ACAD
1000
AcDbSavedByObjectVersion
1070
     0
  0
VISUALSTYLE
  5
FA
102
{ACAD_XDICTIONARY
360
49B
102
}
102
{ACAD_REACTORS
330
EF
102
}
330
EF
100
AcDbVisualStyle
  2
Dim
 70
    11
 71
     2
 72
     2
 73
     1
 90
        0
 40
-0.6
 41
-30.0
 62
     5
 63
     7
 74
     1
 91
        4
 64
     7
 65
   257
 75
     1
175
     1
 42
1.0
 92
        8
 66
     7
 43
1.0
 76
     1
 77
     6
 78
     2
 67
     7
 79
     5
170
     0
171
     0
290
     0
174
     0
 93
        1
 44
-50.0
173
     0
291
     1
 45
0.0
1001
ACAD
1000
AcDbSavedByObjectVersion
1070
     0
  0
VISUALSTYLE
  5
1E6
102
{ACAD_XDICTIONARY
360
4AB
102
}
102
{ACAD_REACTORS
330
EF
102
}
330
EF
100
AcDbVisualStyle
  2
EdgeColorOff
 70
    22
 71
     2
 72
     2
 73
     0
 90
        0
 40
-0.6
 41
-30.0
 62
     5
 63
     7
 74
     1
 91
        4
 64
     7
 65
   257
 75
     1
175
     1
 42
1.0
 92
        8
 66
     7
 43
1.0
 76
     1
 77
     6
 78
     2
 67
     7
 79
     5
170
     0
171
     0
290
     0
174
     0
 93
        1
 44
0.0
173
     0
291
     1
 45
0.0
1001
ACAD
1000
AcDbSavedByObjectVersion
1070
     0
  0
VISUALSTYLE
  5
FE
102
{ACAD_XDICTIONARY
360
4A3
102
}
102
{ACAD_REACTORS
330
EF
102
}
330
EF
100
AcDbVisualStyle
  2
Facepattern
 70
    15
 71
     2
 72
     2
 73
     1
 90
        0
 40
-0.6
 41
-30.0
 62
     5
 63
     7
 74
     1
 91
        4
 64
     7
 65
   257
 75
     1
175
     1
 42
1.0
 92
        8
 66
     7
 43
1.0
 76
     1
 77
     6
 78
     2
 67
     7
 79
     5
170
     0
171
     0
290
     0
174
     0
 93
        1
 44
0.0
173
     0
291
     1
 45
0.0
1001
ACAD
1000
AcDbSavedByObjectVersion
1070
     0
  0
VISUALSTYLE
  5
F0
102
{ACAD_XDICTIONARY
360
487
102
}
102
{ACAD_REACTORS
330
EF
102
}
330
EF
100
AcDbVisualStyle
  2
Flat
 70
     0
 71
     2
 72
     1
 73
     1
 90
        2
 40
-0.6
 41
30.0
 62
     5
 63
     7
 74
     0
 91
        0
 64
     7
 65
   257
 75
     1
175
     1
 42
1.0
 92
        8
 66
     7
 43
1.0
 76
     1
 77
     6
 78
     2
 67
     7
 79
     5
170
     0
171
     0
290
     0
174
     0
 93
       13
 44
0.0
173
     0
291
     1
 45
0.0
1001
ACAD
1000
AcDbSavedByObjectVersion
1070
     0
  0
VISUALSTYLE
  5
F1
102
{ACAD_XDICTIONARY
360
489
102
}
102
{ACAD_REACTORS
330
EF
102
}
330
EF
100
AcDbVisualStyle
  2
FlatWithEdges
 70
     1
 71
     2
 72
     1
 73
     1
 90
        2
 40
-0.6
 41
30.0
 62
     5
 63
     7
 74
     1
 91
        0
 64
     7
 65
   257
 75
     1
175
     1
 42
1.0
 92
        0
 66
   257
 43
1.0
 76
     1
 77
     6
 78
     2
 67
     7
 79
     5
170
     0
171
     0
290
     0
174
     0
 93
       13
 44
0.0
173
     0
291
     1
 45
0.0
1001
ACAD
1000
AcDbSavedByObjectVersion
1070
     0
  0
VISUALSTYLE
  5
F2
102
{ACAD_XDICTIONARY
360
48B
102
}
102
{ACAD_REACTORS
330
EF
102
}
330
EF
100
AcDbVisualStyle
  2
Gouraud
 70
     2
 71
     2
 72
     2
 73
     1
 90
        2
 40
-0.6
 41
30.0
 62
     5
 63
     7
 74
     0
 91
        0
 64
     7
 65
   257
 75
     1
175
     1
 42
1.0
 92
        0
 66
     7
 43
1.0
 76
     1
 77
     6
 78
     2
 67
     7
 79
     5
170
     0
171
     0
290
     0
174
     0
 93
       13
 44
0.0
173
     0
291
     1
 45
0.0
1001
ACAD
1000
AcDbSavedByObjectVersion
1070
     0
  0
VISUALSTYLE
  5
F3
102
{ACAD_XDICTIONARY
360
48D
102
}
102
{ACAD_REACTORS
330
EF
102
}
330
EF
100
AcDbVisualStyle
  2
GouraudWithEdges
 70
     3
 71
     2
 72
     2
 73
     1
 90
        2
 40
-0.6
 41
30.0
 62
     5
 63
     7
 74
     1
 91
        0
 64
     7
 65
   257
 75
     1
175
     1
 42
1.0
 92
        0
 66
   257
 43
1.0
 76
     1
 77
     6
 78
     2
 67
     7
 79
     5
170
     0
171
     0
290
     0
174
     0
 93
       13
 44
0.0
173
     0
291
     1
 45
0.0
1001
ACAD
1000
AcDbSavedByObjectVersion
1070
     0
  0
VISUALSTYLE
  5
F7
102
{ACAD_XDICTIONARY
360
495
102
}
102
{ACAD_REACTORS
330
EF
102
}
330
EF
100
AcDbVisualStyle
  2
Hidden
 70
     6
 71
     1
 72
     2
 73
     2
 90
        0
 40
-0.6
 41
-30.0
 62
     5
 63
     7
 74
     2
 91
        2
 64
     7
 65
   257
 75
     2
175
     1
 42
40.0
 92
        0
 66
   257
 43
1.0
 76
     1
 77
     6
 78
     2
 67
     7
 79
     3
170
     0
171
     0
290
     0
174
     0
 93
        1
 44
0.0
173
     0
291
     0
 45
0.0
1001
ACAD
1000
AcDbSavedByObjectVersion
1070
     0
  0
VISUALSTYLE
  5
1E4
102
{ACAD_XDICTIONARY
360
4A7
102
}
102
{ACAD_REACTORS
330
EF
102
}
330
EF
100
AcDbVisualStyle
  2
JitterOff
 70
    20
 71
     2
 72
     2
 73
     0
 90
        0
 40
-0.6
 41
-30.0
 62
     5
 63
     7
 74
     1
 91
        4
 64
     7
 65
   257
 75
     1
175
     1
 42
1.0
 92
       10
 66
     7
 43
1.0
 76
     1
 77
     6
 78
     2
 67
     7
 79
     5
170
     0
171
     0
290
     0
174
     0
 93
        1
 44
0.0
173
     0
291
     1
 45
0.0
1001
ACAD
1000
AcDbSavedByObjectVersion
1070
     0
  0
VISUALSTYLE
  5
FD
102
{ACAD_XDICTIONARY
360
4A1
102
}
102
{ACAD_REACTORS
330
EF
102
}
330
EF
100
AcDbVisualStyle
  2
Linepattern
 70
    14
 71
     2
 72
     2
 73
     1
 90
        0
 40
-0.6
 41
-30.0
 62
     5
 63
     7
 74
     1
 91
        4
 64
     7
 65
   257
 75
     7
175
     7
 42
1.0
 92
        8
 66
     7
 43
1.0
 76
     1
 77
     6
 78
     2
 67
     7
 79
     5
170
     0
171
     0
290
     0
174
     0
 93
        1
 44
0.0
173
     0
291
     1
 45
0.0
1001
ACAD
1000
AcDbSavedByObjectVersion
1070
     0
  0
VISUALSTYLE
  5
1E5
102
{ACAD_XDICTIONARY
360
4A9
102
}
102
{ACAD_REACTORS
330
EF
102
}
330
EF
100
AcDbVisualStyle
  2
OverhangOff
 70
    21
 71
     2
 72
     2
 73
     0
 90
        0
 40
-0.6
 41
-30.0
 62
     5
 63
     7
 74
     1
 91
        4
 64
     7
 65
   257
 75
     1
175
     1
 42
1.0
 92
        9
 66
     7
 43
1.0
 76
     1
 77
     6
 78
     2
 67
     7
 79
     5
170
     0
171
     0
290
     0
174
     0
 93
        1
 44
0.0
173
     0
291
     1
 45
0.0
1001
ACAD
1000
AcDbSavedByObjectVersion
1070
     0
  0
VISUALSTYLE
  5
F9
102
{ACAD_XDICTIONARY
360
499
102
}
102
{ACAD_REACTORS
330
EF
102
}
330
EF
100
AcDbVisualStyle
  2
Realistic
 70
     8
 71
     2
 72
     3
 73
     0
 90
        2
 40
-0.6
 41
30.0
 62
     5
 63
     7
 74
     0
 91
        0
 64
     7
 65
   257
 75
     1
175
     1
 42
1.0
 92
        8
 66
   257
 43
1.0
 76
     1
 77
     6
 78
     2
 67
     7
 79
     3
170
     0
171
     0
290
     0
174
     0
 93
       13
 44
0.0
173
     0
291
     0
 45
0.0
1001
ACAD
1000
AcDbSavedByObjectVersion
1070
     0
  0
VISUALSTYLE
  5
1F3
102
{ACAD_XDICTIONARY
360
4B5
102
}
102
{ACAD_REACTORS
330
EF
102
}
330
EF
100
AcDbVisualStyle
  2
Shaded
 70
    27
 71
     2
 72
     2
 73
     1
 90
        2
 40
-0.6
 41
30.0
 62
     5
 63
     7
 74
     0
 91
        4
 64
     7
 65
   257
 75
     1
175
     1
 42
1.0
 92
        8
 66
   257
 43
1.0
 76
     1
 77
     6
 78
     2
 67
     8
 79
     3
170
     0
171
     0
290
     0
174
     0
 93
        5
 44
0.0
173
     0
291
     0
 45
0.0
1001
ACAD
1000
AcDbSavedByObjectVersion
1070
     0
  0
VISUALSTYLE
  5
1F2
102
{ACAD_XDICTIONARY
360
4B3
102
}
102
{ACAD_REACTORS
330
EF
102
}
330
EF
100
AcDbVisualStyle
  2
Shaded with edges
 70
    26
 71
     2
 72
     2
 73
     1
 90
        2
 40
-0.6
 41
30.0
 62
     5
 63
     7
 74
     1
 91
        2
 64
     7
 65
   257
 75
     2
175
     1
 42
1.0
 92
        8
 66
   257
 43
1.0
 76
     1
 77
     6
 78
     2
 67
     7
 79
     3
170
     0
171
     0
290
     0
174
     0
 93
        5
 44
0.0
173
     0
291
     0
 45
0.0
1001
ACAD
1000
AcDbSavedByObjectVersion
1070
     0
  0
VISUALSTYLE
  5
1EF
102
{ACAD_XDICTIONARY
360
4AD
102
}
102
{ACAD_REACTORS
330
EF
102
}
330
EF
100
AcDbVisualStyle
  2
Shades of Gray
 70
    23
 71
     2
 72
     2
 73
     3
 90
        0
 40
-0.6
 41
-30.0
 62
     5
 63
     7
 74
     2
 91
        2
 64
     7
 65
     7
 75
     1
175
     1
 42
40.0
 92
        8
 66
     7
 43
1.0
 76
     1
 77
     6
 78
     2
 67
     7
 79
     3
170
     0
171
     0
290
     0
174
     0
 93
        1
 44
0.0
173
     0
291
     0
 45
0.0
1001
ACAD
1000
AcDbSavedByObjectVersion
1070
     0
  0
VISUALSTYLE
  5
1F0
102
{ACAD_XDICTIONARY
360
4AF
102
}
102
{ACAD_REACTORS
330
EF
102
}
330
EF
100
AcDbVisualStyle
  2
Sketchy
 70
    24
 71
     1
 72
     2
 73
     2
 90
        0
 40
-0.6
 41
-30.0
 62
     5
 63
     7
 74
     2
 91
        2
 64
     7
 65
     7
 75
     1
175
     1
 42
40.0
 92
       11
 66
     7
 43
1.0
 76
     1
 77
     6
 78
     2
 67
     7
 79
     6
170
     0
171
     0
290
     0
174
     0
 93
        1
 44
0.0
173
     0
291
     0
 45
0.0
1001
ACAD
1000
AcDbSavedByObjectVersion
1070
     0
  0
VISUALSTYLE
  5
FC
102
{ACAD_XDICTIONARY
360
49F
102
}
102
{ACAD_REACTORS
330
EF
102
}
330
EF
100
AcDbVisualStyle
  2
Thicken
 70
    13
 71
     2
 72
     2
 73
     1
 90
        0
 40
-0.6
 41
-30.0
 62
     5
 63
     7
 74
     1
 91
        4
 64
     7
 65
   257
 75
     1
175
     1
 42
1.0
 92
       12
 66
     7
 43
1.0
 76
     1
 77
     6
 78
     2
 67
     7
 79
     5
170
     0
171
     0
290
     0
174
     0
 93
        1
 44
0.0
173
     0
291
     1
 45
0.0
1001
ACAD
1000
AcDbSavedByObjectVersion
1070
     0
  0
VISUALSTYLE
  5
F6
102
{ACAD_XDICTIONARY
360
493
102
}
102
{ACAD_REACTORS
330
EF
102
}
330
EF
100
AcDbVisualStyle
  2
Wireframe
 70
     5
 71
     0
 72
     2
 73
     0
 90
        0
 40
-0.6
 41
-30.0
 62
     5
 63
     7
 74
     1
 91
        4
 64
     7
 65
   257
 75
     1
175
     1
 42
1.0
 92
        0
 66
   257
 43
1.0
 76
     1
 77
     6
 78
     2
 67
     7
 79
     3
170
     0
171
     0
290
     0
174
     0
 93
        1
 44
0.0
173
     0
291
     0
 45
0.0
1001
ACAD
1000
AcDbSavedByObjectVersion
1070
     0
  0
VISUALSTYLE
  5
1F1
102
{ACAD_XDICTIONARY
360
4B1
102
}
102
{ACAD_REACTORS
330
EF
102
}
330
EF
100
AcDbVisualStyle
  2
X-Ray
 70
    25
 71
     2
 72
     2
 73
     1
 90
        1
 40
0.5
 41
-30.0
 62
     5
 63
     7
 74
     1
 91
        0
 64
     7
 65
   257
 75
     1
175
     1
 42
1.0
 92
        8
 66
     7
 43
1.0
 76
     1
 77
     6
 78
     2
 67
     7
 79
     3
170
     0
171
     0
290
     0
174
     0
 93
       13
 44
0.0
173
     0
291
     0
 45
0.0
1001
ACAD
1000
AcDbSavedByObjectVersion
1070
     0
  0
DICTIONARYVAR
  5
146
102
{ACAD_REACTORS
330
5E
102
}
330
5E
100
DictionaryVariables
280
     0
  1
1:1
  0
DICTIONARYVAR
  5
259
102
{ACAD_REACTORS
330
5E
102
}
330
5E
100
DictionaryVariables
280
     0
  1
3.500000
  0
DICTIONARYVAR
  5
25A
102
{ACAD_REACTORS
330
5E
102
}
330
5E
100
DictionaryVariables
280
     0
  1
acadiso.lin
  0
DICTIONARYVAR
  5
145
102
{ACAD_REACTORS
330
5E
102
}
330
5E
100
DictionaryVariables
280
     0
  1
STANDARD
  0
DICTIONARYVAR
  5
84
102
{ACAD_REACTORS
330
5E
102
}
330
5E
100
DictionaryVariables
280
     0
  1
STANDARD
  0
DICTIONARYVAR
  5
227
102
{ACAD_REACTORS
330
5E
102
}
330
5E
100
DictionaryVariables
280
     0
  1
Metric50
  0
DICTIONARYVAR
  5
228
102
{ACAD_REACTORS
330
5E
102
}
330
5E
100
DictionaryVariables
280
     0
  1
Metric50
  0
DICTIONARYVAR
  5
5F
102
{ACAD_REACTORS
330
5E
102
}
330
5E
100
DictionaryVariables
280
     0
  1
2
  0
DICTIONARYVAR
  5
63
102
{ACAD_REACTORS
330
5E
102
}
330
5E
100
DictionaryVariables
280
     0
  1
1
  0
DICTIONARYVAR
  5
46F
102
{ACAD_REACTORS
330
5E
102
}
330
5E
100
DictionaryVariables
280
     0
  1
0
  0
DICTIONARYVAR
  5
1AE
102
{ACAD_REACTORS
330
5E
102
}
330
5E
100
DictionaryVariables
280
     0
  1
0
  0
DICTIONARYVAR
  5
1AF
102
{ACAD_REACTORS
330
5E
102
}
330
5E
100
DictionaryVariables
280
     0
  1
0
  0
DICTIONARYVAR
  5
46D
102
{ACAD_REACTORS
330
5E
102
}
330
5E
100
DictionaryVariables
280
     0
  1
2
  0
DICTIONARYVAR
  5
46C
102
{ACAD_REACTORS
330
5E
102
}
330
5E
100
DictionaryVariables
280
     0
  1
1
  0
DICTIONARYVAR
  5
471
102
{ACAD_REACTORS
330
5E
102
}
330
5E
100
DictionaryVariables
280
     0
  1
80.000000
  0
DICTIONARYVAR
  5
470
102
{ACAD_REACTORS
330
5E
102
}
330
5E
100
DictionaryVariables
280
     0
  1
5.000000
  0
DICTIONARYVAR
  5
46E
102
{ACAD_REACTORS
330
5E
102
}
330
5E
100
DictionaryVariables
280
     0
  1
127
  0
DICTIONARYVAR
  5
472
102
{ACAD_REACTORS
330
5E
102
}
330
5E
100
DictionaryVariables
280
     0
  1
2
  0
DICTIONARY
  5
47D
102
{ACAD_REACTORS
330
47B
102
}
330
47B
100
AcDbDictionary
281
     1
  0
DICTIONARY
  5
47C
102
{ACAD_REACTORS
330
47B
102
}
330
47B
100
AcDbDictionary
281
     1
  3
2489978357216
350
476
  3
2489978357232
350
477
  3
2489978357248
350
478
  3
2489978357264
350
479
  3
2489978357280
350
47A
  0
DICTIONARY
  5
4B9
330
21C
100
AcDbDictionary
280
     1
281
     1
  3
ACAD_XREC_ROUNDTRIP
360
4BA
  0
DICTIONARY
  5
480
330
D3
100
AcDbDictionary
280
     1
281
     1
  3
ACAD_XREC_ROUNDTRIP
360
481
  0
DICTIONARY
  5
482
330
D7
100
AcDbDictionary
280
     1
281
     1
  3
ACAD_XREC_ROUNDTRIP
360
483
  0
DICTIONARY
  5
205
330
22
100
AcDbDictionary
280
     1
281
     1
  3
ACAD_XREC_ROUNDTRIP
360
47E
  0
DICTIONARY
  5
1F9
330
ED
100
AcDbDictionary
280
     1
281
     1
  3
ACAD_XREC_ROUNDTRIP
360
485
  3
FBXASSET
360
1FA
  0
DICTIONARY
  5
1F7
330
EC
100
AcDbDictionary
280
     1
281
     1
  3
ACAD_XREC_ROUNDTRIP
360
484
  3
FBXASSET
360
1F8
  0
DICTIONARY
  5
173
330
EE
100
AcDbDictionary
280
     1
281
     1
  3
ACAD_XREC_ROUNDTRIP
360
486
  3
BUMPTILE
360
175
  3
DIFFUSETILE
360
174
  3
FBXASSET
360
1FB
  3
OPACITYTILE
360
176
  3
REFLECTIONTILE
360
177
  0
DICTIONARY
  5
4B7
330
21A
100
AcDbDictionary
280
     1
281
     1
  3
ACAD_XREC_ROUNDTRIP
360
4B8
  0
DICTIONARY
  5
162
330
7F
100
AcDbDictionary
280
     1
281
     1
  3
ACAD_ROUNDTRIP_2008_TABLESTYLE_CELLSTYLEMAP
360
473
  3
ACAD_XREC_ROUNDTRIP
360
47F
  0
DICTIONARY
  5
491
330
F5
100
AcDbDictionary
280
     1
281
     1
  3
ACAD_XREC_ROUNDTRIP
360
492
  0
DICTIONARY
  5
48F
330
F4
100
AcDbDictionary
280
     1
281
     1
  3
ACAD_XREC_ROUNDTRIP
360
490
  0
DICTIONARY
  5
49D
330
FB
100
AcDbDictionary
280
     1
281
     1
  3
ACAD_XREC_ROUNDTRIP
360
49E
  0
DICTIONARY
  5
4A5
330
FF
100
AcDbDictionary
280
     1
281
     1
  3
ACAD_XREC_ROUNDTRIP
360
4A6
  0
DICTIONARY
  5
497
330
F8
100
AcDbDictionary
280
     1
281
     1
  3
ACAD_XREC_ROUNDTRIP
360
498
  0
DICTIONARY
  5
49B
330
FA
100
AcDbDictionary
280
     1
281
     1
  3
ACAD_XREC_ROUNDTRIP
360
49C
  0
DICTIONARY
  5
4AB
330
1E6
100
AcDbDictionary
280
     1
281
     1
  3
ACAD_XREC_ROUNDTRIP
360
4AC
  0
DICTIONARY
  5
4A3
330
FE
100
AcDbDictionary
280
     1
281
     1
  3
ACAD_XREC_ROUNDTRIP
360
4A4
  0
DICTIONARY
  5
487
330
F0
100
AcDbDictionary
280
     1
281
     1
  3
ACAD_XREC_ROUNDTRIP
360
488
  0
DICTIONARY
  5
489
330
F1
100
AcDbDictionary
280
     1
281
     1
  3
ACAD_XREC_ROUNDTRIP
360
48A
  0
DICTIONARY
  5
48B
330
F2
100
AcDbDictionary
280
     1
281
     1
  3
ACAD_XREC_ROUNDTRIP
360
48C
  0
DICTIONARY
  5
48D
330
F3
100
AcDbDictionary
280
     1
281
     1
  3
ACAD_XREC_ROUNDTRIP
360
48E
  0
DICTIONARY
  5
495
330
F7
100
AcDbDictionary
280
     1
281
     1
  3
ACAD_XREC_ROUNDTRIP
360
496
  0
DICTIONARY
  5
4A7
330
1E4
100
AcDbDictionary
280
     1
281
     1
  3
ACAD_XREC_ROUNDTRIP
360
4A8
  0
DICTIONARY
  5
4A1
330
FD
100
AcDbDictionary
280
     1
281
     1
  3
ACAD_XREC_ROUNDTRIP
360
4A2
  0
DICTIONARY
  5
4A9
330
1E5
100
AcDbDictionary
280
     1
281
     1
  3
ACAD_XREC_ROUNDTRIP
360
4AA
  0
DICTIONARY
  5
499
330
F9
100
AcDbDictionary
280
     1
281
     1
  3
ACAD_XREC_ROUNDTRIP
360
49A
  0
DICTIONARY
  5
4B5
330
1F3
100
AcDbDictionary
280
     1
281
     1
  3
ACAD_XREC_ROUNDTRIP
360
4B6
  0
DICTIONARY
  5
4B3
330
1F2
100
AcDbDictionary
280
     1
281
     1
  3
ACAD_XREC_ROUNDTRIP
360
4B4
  0
DICTIONARY
  5
4AD
330
1EF
100
AcDbDictionary
280
     1
281
     1
  3
ACAD_XREC_ROUNDTRIP
360
4AE
  0
DICTIONARY
  5
4AF
330
1F0
100
AcDbDictionary
280
     1
281
     1
  3
ACAD_XREC_ROUNDTRIP
360
4B0
  0
DICTIONARY
  5
49F
330
FC
100
AcDbDictionary
280
     1
281
     1
  3
ACAD_XREC_ROUNDTRIP
360
4A0
  0
DICTIONARY
  5
493
330
F6
100
AcDbDictionary
280
     1
281
     1
  3
ACAD_XREC_ROUNDTRIP
360
494
  0
DICTIONARY
  5
4B1
330
1F1
100
AcDbDictionary
280
     1
281
     1
  3
ACAD_XREC_ROUNDTRIP
360
4B2
  0
XRECORD
  5
476
102
{ACAD_REACTORS
330
47C
102
}
330
47C
100
AcDbXrecord
280
     1
  1
AcDb_Thumbnail_Schema
102
{ATTRRECORD
341
477
  2
AcDbDs::TreatedAsObjectData
280
     1
291
     1
102
ATTRRECORD}
102
{ATTRRECORD
341
478
  2
AcDbDs::Legacy
280
     1
291
     1
102
ATTRRECORD}
  2
AcDbDs::ID
280
    10
 91
        8
102
{ATTRRECORD
341
479
  2
AcDs:Indexable
280
     1
291
     1
102
ATTRRECORD}
102
{ATTRRECORD
341
47A
  2
AcDbDs::HandleAttribute
280
     7
282
     1
102
ATTRRECORD}
  2
Thumbnail_Data
280
    15
 91
        0
  0
XRECORD
  5
477
102
{ACAD_REACTORS
330
47C
102
}
330
47C
100
AcDbXrecord
280
     1
  1
AcDbDs::TreatedAsObjectDataSchema
  2
AcDbDs::TreatedAsObjectData
280
     1
 91
        0
  0
XRECORD
  5
478
102
{ACAD_REACTORS
330
47C
102
}
330
47C
100
AcDbXrecord
280
     1
  1
AcDbDs::LegacySchema
  2
AcDbDs::Legacy
280
     1
 91
        0
  0
XRECORD
  5
479
102
{ACAD_REACTORS
330
47C
102
}
330
47C
100
AcDbXrecord
280
     1
  1
AcDbDs::IndexedPropertySchema
  2
AcDs:Indexable
280
     1
 91
        0
  0
XRECORD
  5
47A
102
{ACAD_REACTORS
330
47C
102
}
330
47C
100
AcDbXrecord
280
     1
  1
AcDbDs::HandleAttributeSchema
  2
AcDbDs::HandleAttribute
280
     7
 91
        1
284
     1
  0
XRECORD
  5
4BA
102
{ACAD_REACTORS
330
4B9
102
}
330
4B9
100
AcDbXrecord
280
     1
102
DISPLAYNAME
  1
Metric50
102
FLAGS
 90
        0
  0
XRECORD
  5
481
102
{ACAD_REACTORS
330
480
102
}
330
480
100
AcDbXrecord
280
     1
102
SHADEPLOT
 70
     0
102
SHADEPLOTRESLEVEL
 70
     2
102
SHADEPLOTCUSTOMDPI
 70
   300
  0
XRECORD
  5
483
102
{ACAD_REACTORS
330
482
102
}
330
482
100
AcDbXrecord
280
     1
102
SHADEPLOT
 70
     0
102
SHADEPLOTRESLEVEL
 70
     2
102
SHADEPLOTCUSTOMDPI
 70
   300
  0
XRECORD
  5
47E
102
{ACAD_REACTORS
330
205
102
}
330
205
100
AcDbXrecord
280
     1
102
SHADEPLOT
 70
     0
102
SHADEPLOTRESLEVEL
 70
     2
102
SHADEPLOTCUSTOMDPI
 70
   300
  0
XRECORD
  5
485
102
{ACAD_REACTORS
330
1F9
102
}
330
1F9
100
AcDbXrecord
280
     1
102
MATERIAL
148
0.0
149
0.0
149
0.0
 93
        0
 94
       63
282
     0
 72
     1
 77
     1
171
     1
175
     1
179
     1
273
     0
  0
XRECORD
  5
1FA
102
{ACAD_REACTORS
330
1F9
102
}
330
1F9
100
AcDbXrecord
280
     1
 70
     1
 90
429727718
  1
D62C5603-E3A1-4AEA-B7FB-FE5D8D0755AF
310
504B03040A0000080000CC70623B3DEE336E79000000790000001B0000006175746F6465736B2D64657369676E2D7061636B6167652E786D6C3C3F786D6C2076657273696F6E3D22312E302220656E636F64696E673D227574662D3822203F3E3C666F726D6174733E3C666F726D61743E687474703A2F2F736368656D612E
310
6175746F6465736B2E636F6D2F64657369676E2D7061636B6167652F323030393C2F666F726D61743E3C2F666F726D6174733E504B0304140006080800CC70623BD486FD9CA0000000F4000000130000005B436F6E74656E745F54797065735D2E786D6C7D8EC10E82300C865F65E91D8A1E8C310C0EEA1BF002731658846E
310
D98AC1B77784ABF1D8FE5FBFBF75BBCE937A534CCEB38643598122B6FEE978D0B0485F9C41B54DDD7D022595594E1A469170414C76A4D9A4D207E29CF43ECE46F218070CC6BECC4078ACAA135ACF422C856C0E68EA1BF5669944DDD7BCDE7B1F8E415D77AECB980613C2E4AC91FC167A2B244592486606FC29C8FD7F045B9A
310
EF7053A7E60B504B0304140006080800CC70623B853B8169EB0000007C01000008000000636F72652E786D6C8D90416EC3201045AF62CDB6C206821CC7C244919D9CA01740401C94182C03558F5F9C3852BBEB6A467FFE9B197D7EFC9E1EC5975982F5AE035262288C535E5B377690E21535501C055FBC8FBF6C503839990E
310
5619041F179FE64D52DE45E362569DD7661365082642A11EB9E920A89B99642953CC8E702F67A9EE7234257977194EC9EAE275C4EABCCF5EAD5940D4AC6F0E35A568B8F43562CD7046CD199FD07E60174276A7BE677B5EADB0E0D14EEFFB6A31321A0D82627C4084204C3F096B71DD52F6819B16635EADF63F509AF53FA164
310
5DDCD1EDDD17164090FCC8732078B56691CB33A85CD7DCC40F504B0304140006080800CC70623B55019EA25F0000007C00000007000000636E782E786D6C4DCB3B0E80201045D1AD90E915ED2CF8AC45050C11660C8261F98AB1B07AC9C97D42D718D865D3E909258CFD00CCE24AC6E326A164D74DC0B4128928FF32603847
310
2BA13128B1252AC747C6BAB984FC68F0B87FE8960A5C09FE86CFB69FBA01504B0304140006080800CC70623BDBABAAF470010000D40300000C0000006662782F636F72652E786D6CC553D16E823014FD95A6AF4B694182CC941A83FA05FB810A9511A125A5257EFE2E82712ECEB8A7F100CD39F7F69E734AF9FADC366850B6
310
AF8DCE7018308C942E4C59EB2AC3DE1D498AD15A706B8CFB56869196ADCAF00863C12B6B7C374385D14E6907A836A59A41D9F7CA615434B0C8705F7CAA5606D23BA8E84F41278B93AC54100640439DE0BDB320004D43C63716C7C399D30917DCFBBA9CD9BA8469F5B156168B24CED3F7248AC8769F27244EB73B92EED8862C
310
B7F13E0C179B3C8F979C8ECD82BBBABDAA2BAC924E9558448CBD9330242CFA08E3154B5651FCC6D215639C8EE5774DBE2B5F6CF2B5768B68963BB5F5588420E442FC700B1139D4CB01F450C1E918227C2E09DF070D8140C84E1E9AAB8F1340832A9CB13130A5F1376A908D57309505ECF2A0DF179C4E9D30F5B239B87E3823
310
7A79C6F31DE1A8A5AEC08474B03C7837EAE4938639B44E5932B833D2C6B6B279CDC613877FA26EE21F4A2A4C63EC7F29A2F301D1F9F7A0E37D145F504B0304140006080800CC70623B9C113CC27E0000009D0000000B0000006662782F636E782E786D6C4DCCDF0A83201C86E15B91DFB94BFB330DD428C8FB886521330DA7
310
6397BF1A1DECE883878F57749FCDA1B7892F1BBC047A23808C7F84D9FA55424E0BE6803A256208E9EF06C84F9B91703228B1C690F78B66B34CD9A5439DF5CF0BFBF65E35BCA1B8D6A5C6F540381E886698B5741C695F9503EBA150A2F8958E3DC3EA0B504B0304140006080800CC70623B7DF2F77C2A010000120200003100
310
00006662782F41393633353835312D344632462D344230382D423046372D3739314545314133324237412F636F72652E786D6C8D51DB8EC22014FC15C2939B0D2DB4B45643319AE817EC0F6041255A68B86CFCFC856D4D76DF7CE190393373060EDB3DC707F856CE6B6B7A480A0C81328395DA5C7B18C3057510EC3873D686
310
3F34088C18550F330C39BB3A1BA7051AAC09CA84841A2BD5020AEF55806078A44B0FFD7053A328440C89E1EFC52486BBB8AA8214A99D789CF9E05200300FC927E4FB4D5B375D43103D5527440FB843077C5AA3F5861C8F645F5787F59E95B390B318B55CE45AA638FAA2957BD7248B390B7A7CC51F9C124149C82B8C378810
310
84AB2F42B7B8DD56F413775B8C5999E9FF4471926F8AA236A1AE96B8B3CC434E5839373893369E1FAF30EA395917409EB7F26AF8801C171837A4A6AC9C89E9F9C9B1A58BA30FD6A5EF5DDDCF894B9AD9B6A59C957943A9FCAE2FD5BC4DFE03504B0304140006080800CC70623BAD7543B64E01000033030000300000006662
310
782F41393633353835312D344632462D344230382D423046372D3739314545314133324237412F636E782E786D6CD593CD6EC32010845F0571AD6CE3D48AD20813A9873E410FBD12D82434182C7EAAE6EDBB2424CD25871E7B41D6EC30B3FA84F9E67BB2E40B4234DE8DB46F1925E094D7C6ED479AD3AE5951B2113C789FEE
310
6C943839C1488B4C05DF079FE72A69D8C96C13AAD6B8631503449F83828872B949AC57D26200B826A308D316B4064D6E46FCDA41C05550DC9E483A00797BFD207EFB092A45DE9514C1BBD22178396BD39D891265658C238DEA00936C654E5E433CB65A26D9F6EDB5EBC14EBF49A45CB856E66048291F6939A9A81BB5C89177
310
38143CA680F4AA299D66A042CEB3354A2684DC9D8D178FE0D9B8B41CAAD720F880EE7EF93C0C18769E099ECC04D5A102C8049A8A05632F4DDF376CF1DE0F6BB65C2F8627B65A33C6BB62177CEBBDAD973006829F89F22E814B54F4BC2BE347F8AA8F681390B50FA73F804400B5F542E796F19FF974E7F78DB802FE05E20750
310
4B0304140006080800CC70623BE75B7789680500003C100000340000006662782F41393633353835312D344632462D344230382D423046372D3739314545314133324237412F6F626A656374732E786D6CAD575B8F9B3818FD2B887D06C22499CB8AA1CA655245D5B455A356FB305264C061D8018C6C3393D95FBFC7600890
310
A4CD5EF210B0B1BFEBF98E3F7B1FF6596ABC522E1296DF9BAE3D320D9A872C4AF2F8DE2CE5CEBA358D0FBEC719939D65A691938CDE9B6ADAF4BD98B3B2D05311DD91329583D9D5FC0F438434A7A611A644887B5384CF34233629258BA878B12322891DEFF6B66BD70BFB62634E8AE781D082709A4B588AF91C528CDA28B73F
310
1C998EEF39EABBEFA97FBD6A7C7E9553F9D3D79FE442923C3C523610337627CB87ABE99D359D4CC6D6E4FACAB5E6ABF9D2726FC6A3C5F56271377BB88362213924694B38DD99FE47C48627A1E7D49F5A8BB5E1A74C0A599ED3B0F21F1E56366B89112D681E218F0915D0D6F17AD41FBA2A369DCF6335D62ABBD39779D5DDD1
310
11D4D8DE3CBB96B2E04FB8202E41051754A1AA8E8F76B4C6DFE810B580B1547F4B84911149794252234D024EF8BBE963A95AE27B3D310A9D5C215C7960FAEE415ED75694C6AFB17BCACA5D99A60A9AA65F217B0BFC53292ACB92BF283FAD0D3621576592CB5BED907C2FA8E9DF794E35E97BEA31BED21FEB401ABB94C44839
310
DCACBF0E1C5DA8DA5B2F4DFFD32AD86F543D9E565E7056502E157C00AD2671CD534549AB752FCA9CDA00677A313F04E51B22FF19E57B300579E3C97EB29F682D92935CEC18CF901B7B54FD8C51F362B56FC72FE0B3C1EAE335EDCCBF5AEC39ADB17DC238973F804BA5E6F6BFE7AF1FB32E523BE9F3BD571418E3631DCA4D48
310
5250CF639223210A9446CA30052EDF057BD35F8329C1ECD84552BF0DC8D18BE7BCE23BFE6BD960AB4A7DE79923A103BEBD80F911CBAA2C60DB19B01CF164A5583B772EE6D3FFA56666CBCDA74DC97724A48F9A58967497E489C4D979006FD7A05E227A1EBDD0F737C623387A9C844D3709995625106D157315F8B8392CD4E0
310
A0B9A720C4BE9829CEF37EA1E13111214D53925356365ADA634861B52519DD27A00AEB808EAF0628E6F435519D446F45CF2C9CF5214F0A15B2F6D06B79DA3EE3CBF7F56780D2F4E7EF73A0F5E5B02A38D07DC852C6B7C1FBB6664213E0C39E3EBA7FF4E1AD23EA2829407C85E586727488B751B2DB9502BC7B228A3FD68B6E
310
A65A22397E690AA8D158D7E404EC8CDA235CC3B7D1898680131CEC2CDF2638C65196279577750F15884AEE19F94199155B92B13297978469D4F8D358DF0AEF7631E28DC8F0D9F437D5D39A83B2231A1D52D543813A824EF8D44BCFF2FA6A31BD1E8DAD87F1CCB526B3879935BF59CDADD5C37479BB1CDD4CA7B3556B516589
310
EF352754B706114D9C885EC9131DE6EFEB43D99AFE2391C2F958179413D7CFEF6B1B6DB1E7600F00DE6E5C67454A339A4BA2E0FBA85ED26F045D454F463DBFCE484C2F90F2E5E3666003662ED8F755951A7D1BECD5B30B550B2785C8E7320B7292A4838DDA71BBC863ED7613CAF659337A3354231D4FF4A182A54904C2898C
310
98B28C4AD0CE056CCF332A80986E571EE9DBC305BB5FEB7E509220A58D25CF042D712A806AC0AD0C657FDEF80D2D9CEAA2EE4D1C76F60BFE74219A06527D6F82DF6412526107381E55E353090704D085B52408A8913C4ED159D79BDA71BB4BC506F4831350EB6F975CD22D69BF7AC49B91A2C0A9DDA3D5CA36AD20FC478E37
310
E61844E2352865EBCB61A275A65283CAAA9DD27703B4102F5AF51EF5F573B75CBB5AD38BC845F7A49F82A0966A49C2E3EA5EA0ECD326CD965F1DB402C6FA8B51A4658C5C5E2EC9E214602E55810345408596591009A82E7E7FFACA19EEA299B14A0081A705CB3296EBC14CDF658DCD336EA6D1136881AAEB87B81AB9EE53D5
310
F5EB8BC8362082DA24122F98680A4E7930C01A0079749CEA14382A0783E5EBA5A10F8C098456A03D6A4AEB6BB881E2513747552A5DB22C7EDAF83BD5528081A365F7FF06504B0304140006080000CC70623B000000000000000000000000350000006662782F41393633353835312D344632462D344230382D423046372D37
310
39314545314133324237412F76657274696365732E62696E504B0304140006080800CC70623BF270F1330600000004000000360000006662782F41393633353835312D344632462D344230382D423046372D3739314545314133324237412F747269616E676C65732E62696E636660600000504B0304140006080000CC7062
310
3B000000000000000000000000370000006662782F41393633353835312D344632462D344230382D423046372D3739314545314133324237412F617474726962757465732E62696E504B0304140006080800CC70623B08DA0BD19000000041010000360000006662782F41393633353835312D344632462D344230382D4230
310
46372D3739314545314133324237412F6469726563746F72792E786D6C858F410AC3201045AF22B36F53E9A60B35CBEEBAE80D244E44489C6234F4F835464A48035D0DF398FF9F8AF63D0E6CC63039F212F8F9020C7D47C6792B21C5FE7403D62A1188E2E60C98D7234A5830286103A55745067B9D86B8A3CF9C7F90C11DE6
310
07FB144396D7B6A82D282E9A152AD114D5EF2CB866EEE831B8EEA07A7BB5A8D7D61A2BAAEB7FD5F70921FF497D00504B0304140006080800CC70623BEDD1DC58FD000000A00100003B0000006662782F41393633353835312D344632462D344230382D423046372D3739314545314133324237412F7265736F75726365732F
310
636F72652E786D6C8D504B6E833010BD0A9A6D65B00922041947112427E8052C33A156828DFCA97AFC9A40A576D7CDCCE87D344F8F9FBFE667F689CE6B6B3A6039850C8DB2A336530731DC4903D95970676DF82583CCC8193B5861107C72362E3BA4AC096842428D1D7107A5F7182053CF7474E0D507CE32973124857FE48B
310
540F3961CEF244279DE03EB81420DB9EAC1384436FA353E879B1B182C7A8C75DA3C7F453DF353A1075D537A7BA6464B8F535A99AE14A9A2BBD90E350DD183B5CFABE3AF262350B1EF4FC9351399401471025A527C218A1E53BAB5A5AB765F5469B96525EACF23FA6B88CFF34456DC2A1DCE36E360F82A5202F42F062ED2BAD
310
579969AFDD8A6F504B010214000A0000080000CC70623B3DEE336E79000000790000001B00000000000000000000000000000000006175746F6465736B2D64657369676E2D7061636B6167652E786D6C504B01021400140006080800CC70623BD486FD9CA0000000F40000001300000000000000000000000000B20000005B
310
436F6E74656E745F54797065735D2E786D6C504B01021400140006080800CC70623B853B8169EB0000007C010000080000000000000000000000000083010000636F72652E786D6C504B01021400140006080800CC70623B55019EA25F0000007C000000070000000000000000000000000094020000636E782E786D6C504B
310
01021400140006080800CC70623BDBABAAF470010000D40300000C00000000000000000000000000180300006662782F636F72652E786D6C504B01021400140006080800CC70623B9C113CC27E0000009D0000000B00000000000000000000000000B20400006662782F636E782E786D6C504B01021400140006080800CC70
310
623B7DF2F77C2A010000120200003100000000000000000000000000590500006662782F41393633353835312D344632462D344230382D423046372D3739314545314133324237412F636F72652E786D6C504B01021400140006080800CC70623BAD7543B64E010000330300003000000000000000000000000000D2060000
310
6662782F41393633353835312D344632462D344230382D423046372D3739314545314133324237412F636E782E786D6C504B01021400140006080800CC70623BE75B7789680500003C10000034000000000000000000000000006E0800006662782F41393633353835312D344632462D344230382D423046372D3739314545
310
314133324237412F6F626A656374732E786D6C504B01021400140006080000CC70623B0000000000000000000000003500000000000000000000000000280E00006662782F41393633353835312D344632462D344230382D423046372D3739314545314133324237412F76657274696365732E62696E504B01021400140006
310
080800CC70623BF270F133060000000400000036000000000000000000000000007B0E00006662782F41393633353835312D344632462D344230382D423046372D3739314545314133324237412F747269616E676C65732E62696E504B01021400140006080000CC70623B0000000000000000000000003700000000000000
310
000000000000D50E00006662782F41393633353835312D344632462D344230382D423046372D3739314545314133324237412F617474726962757465732E62696E504B01021400140006080800CC70623B08DA0BD1900000004101000036000000000000000000000000002A0F00006662782F41393633353835312D344632
310
462D344230382D423046372D3739314545314133324237412F6469726563746F72792E786D6C504B01021400140006080800CC70623BEDD1DC58FD000000A00100003B000000000000000000000000000E1000006662782F41393633353835312D344632462D344230382D423046372D3739314545314133324237412F7265
310
736F75726365732F636F72652E786D6C504B0506000000000E000E0080040000641100000000
  0
XRECORD
  5
484
102
{ACAD_REACTORS
330
1F7
102
}
330
1F7
100
AcDbXrecord
280
     1
102
MATERIAL
148
0.0
149
0.0
149
0.0
 93
        0
 94
       63
282
     0
 72
     1
 77
     1
171
     1
175
     1
179
     1
273
     0
  0
XRECORD
  5
1F8
102
{ACAD_REACTORS
330
1F7
102
}
330
1F7
100
AcDbXrecord
280
     1
 70
     1
 90
429727718
  1
30362254-06B7-45E0-A893-8CFA70E3D6BC
310
504B03040A0000080000CC70623B3DEE336E79000000790000001B0000006175746F6465736B2D64657369676E2D7061636B6167652E786D6C3C3F786D6C2076657273696F6E3D22312E302220656E636F64696E673D227574662D3822203F3E3C666F726D6174733E3C666F726D61743E687474703A2F2F736368656D612E
310
6175746F6465736B2E636F6D2F64657369676E2D7061636B6167652F323030393C2F666F726D61743E3C2F666F726D6174733E504B0304140006080800CC70623BD486FD9CA0000000F4000000130000005B436F6E74656E745F54797065735D2E786D6C7D8EC10E82300C865F65E91D8A1E8C310C0EEA1BF002731658846E
310
D98AC1B77784ABF1D8FE5FBFBF75BBCE937A534CCEB38643598122B6FEE978D0B0485F9C41B54DDD7D022595594E1A469170414C76A4D9A4D207E29CF43ECE46F218070CC6BECC4078ACAA135ACF422C856C0E68EA1BF5669944DDD7BCDE7B1F8E415D77AECB980613C2E4AC91FC167A2B244592486606FC29C8FD7F045B9A
310
EF7053A7E60B504B0304140006080800CC70623B1EC5D7A3EB0000007C01000008000000636F72652E786D6C8D90416EC3201045AF82665B6103C6756C6122AB4D4ED00B204C5C94182C03558F5F9C3852BBEB6A467FFE9B197D71FC9E6FE8CBACC17AD7032D0820E3B41FAD9B7A48F1820F808E52ACDEC75F36404ECDA687
310
4D0629A6D5A76597B477D1B89855E747B38B2A041301E95B6E7A08FAD3CCAA50296647B8168BD2573599823EBB0CA76447F43862C7BCCF5EAC59410E4DDD9C7973C2755553CCCFA4C603E3040F1565ED3B1FDE4E432BCA0D9622DAF9795FAF464533826484B498524CD807E51D79ED187F21878E10516EF63F505AC67F42C9
310
BA58B1FDDD071640D2FCC87D2045B96591CB3DA85CB7DCE40F504B0304140006080800CC70623B55019EA25F0000007C00000007000000636E782E786D6C4DCB3B0E80201045D1AD90E915ED2CF8AC45050C11660C8261F98AB1B07AC9C97D42D718D865D3E909258CFD00CCE24AC6E326A164D74DC0B4128928FF32603847
310
2BA13128B1252AC747C6BAB984FC68F0B87FE8960A5C09FE86CFB69FBA01504B0304140006080800CC70623B8C9102E971010000D40300000C0000006662782F636F72652E786D6CC5535B6E833010BC8AE5DF0A6C08340F1947A84D4ED00B38C6A128602363A31CBFCB234A53A551FA553EC09AD9F5CE8C31DB9E9B1AF5CA
310
7695D1198E428A91D2D214952E33ECDD315861B4E5CC1AE3BE9561A445A3323CC098B3D21ADFCE9034DA29ED00D5A6503328BA4E398C640D8B0C77F253352214DE4145770A5B214FA2546114020D759C75CE8200340D19DE981F0F6746269C33EFAB6266AB02A655C74A59CCF365BADC27CB5D902ED22848F6340DF238A141
310
BE88E2F57B92BFEDF23523433367AE6A2EEAA455C2A902F398D2751045018D3FA264435F3771F242571B4A1919CA6F9A7C5B3CD9E42BED16F12C776AEB308F40C848FC700B1139D4891EF410CEC810227CC6846F8386402064270EF5C5C709A05E49676C024C61FC95EA45ED154CA5211D1FF4FB8291A913A68E9B83EBBB33
310
E2A7673CDE118E5AE8124C0807CB8377834E366998436B950D7A7746DAD846D4CFD978E0F04FD455FC5D49D2D4C6FE9722321F10997F0F32DC47FE05504B0304140006080800CC70623BFFEA85907E0000009D0000000B0000006662782F636E782E786D6C4DCCD10A83201886E15B91FFDC95D95A811AB6F23E625948A6C3
310
E9D8E5AF46073BFAE0E1E365ED67B3E8ADC3CB78C7815C7240DA3DFC64DCC221C519D7805AC182F7F1EF06C88D9BE6703008B6049F9E274D7A1E938DBB5AE3D6131B2589BA0D3D965551E0B2EA732C9B9A624AAEB41E3A557677029960D9AFB4EF11165F504B0304140006080800CC70623B4FEEA4082C0100001202000031
310
0000006662782F39464131463745442D413632322D343644302D413938332D3331353338454246344243312F636F72652E786D6C8D515B6EC32010BC0AE2AB55850DD871ED0813254D72825EC00192A2C460F1A872FC42ED48ED5F7E00CDCECCCEB26C731F6FE05B39AFADE921293004CA082BB5B9F43086336A21D870E6AC
310
0D7F68109861543DCC30E4ECE26C9C164858139409093556AA051CBC570102714B8F1E7AF1A5C6A11862480C7F2DA6415C878B2A4891CA89C7990F2E050073937C42DE1DB7E4F87ED8A36D4329AA9B3D46DBAEAD504556557BD81DEBDD0761E52CE42C462D17B996298E3E6BE59E35C962CE821E1FF18553435012728A7187
310
0841987E927A8D9B35ADDF70BBC6989599FE4F1427F9A4286A132ABAC49D651EF234CD5CE04CDA78BA3DC2A8FB645D00B9DF8B57E215725C60BCA2A463E54C4CE327C7A65E1C7DB02E7DEFCBF594B864C5CA6CDBD49C957943E9FA5D5FBAF336F90F504B0304140006080800CC70623BAD7543B64E01000033030000300000
310
006662782F39464131463745442D413632322D343644302D413938332D3331353338454246344243312F636E782E786D6CD593CD6EC32010845F0571AD6CE3D48AD20813A9873E410FBD12D82434182C7EAAE6EDBB2424CD25871E7B41D6EC30B3FA84F9E67BB2E40B4234DE8DB46F1925E094D7C6ED479AD3AE5951B2113C
310
789FEE6C943839C1488B4C05DF079FE72A69D8C96C13AAD6B8631503449F83828872B949AC57D26200B826A308D316B4064D6E46FCDA41C05550DC9E483A00797BFD207EFB092A45DE9514C1BBD22178396BD39D891265658C238DEA00936C654E5E433CB65A26D9F6EDB5EBC14EBF49A45CB856E66048291F6939A9A81BB5
310
C8917738143CA680F4AA299D66A042CEB3354A2684DC9D8D178FE0D9B8B41CAAD720F880EE7EF93C0C18769E099ECC04D5A102C8049A8A05632F4DDF376CF1DE0F6BB65C2F8627B65A33C6BB62177CEBBDAD973006829F89F22E814B54F4BC2BE347F8AA8F681390B50FA73F804400B5F542E796F19FF974E7F78DB802FE05
310
E207504B0304140006080800CC70623B16AB87BA640500003C100000340000006662782F39464131463745442D413632322D343644302D413938332D3331353338454246344243312F6F626A656374732E786D6CAD575B6FA33818FD2B887DE6924B3BED8A326A92B68A663B534DD4D13E548A0C38942D60649B369D5FBFC7
310
600890A493BDE42160637FD7F31D7FF63E6FB3D478A55C242CBF3247B66B1A340F5994E4F19559CA8D75611A9F7D8F33263BCB4C232719BD32D5B4E97B316765A1A722BA21652A07B3B7B33F0D11D29C9A46981221AE4C113ED38CD8A4942CA2E2C58E882476BCD9DA23BB5ED8171B73523C0F841684D35CC252CCE79062D4
310
468DFA43D7747CCF51DF7D4FFDEB5593E3AB9CCA9FBEFE241792E4E19EB28198C968BAB8199F5D5A67D3E9C49A9E8F47D6EC76B6B0469F26EEFC7C3EBFBCBEB98462213924694B38DD98FE1D62C393D073EA4FADC5DAF04326852CCF6958F90F0F2B9BB5C48816348F90C7840A68EB78EDF68723159BCEE7891A6B95DDE9D3
310
BCEAEEE8086A6C6F9E5D4B59F0175C10A7A0820BAA5055C7473B5AE3CFDD452D602CD5DF12616444529E90D448938013FE6EFA58AA96F85E4F8C42275708571E98FE6827AF6B2B4AE3D7D83D64E5A64C53054DD3AF90BD06FEA9149565C94FCA0F6B834DC85599E4F2423B24DF0B6AFA979E534DFA9E7A4CC6FA631D486393
310
921829879BF5D781A373557BCB85E97FB90DB62B558F8795179C15944B051F40AB495CF35451D26A4727654E6D8033BD98EF82F21D91FF8AF2DD9982BCF1643BDD4EB516C9492E368C67C88DED563FC36D5EACF66DFF057C3658BDBFA69DF9578B3DA735B64F18C7F20770A9D45CFCF7FCF563D6456A277DBEF78A02637CA2
310
43B90A490AEAB94F72244481D24819A6C0E59B606BFA4B3025981DBB48EAB701D97BF19C577CC77F2D1B6C55A9EF3C732474C0B727303F625995056C3B02963D9EAC146BE78EC5FCEC7FA999EBC5EACBAAE41B12D27B4D2C0BBA49F244E2ECDC81B76B502F113D8F5EE8FB1BE3111CDD4FC2AA9B844CAB1288B68AB90A7CDC
310
1C166AB0D3DC5310625FCC14E779BFD0709F8890A629C9292B1B2DED31A4B0DA928CEE135085754027E3018A397D4D5427D15BD1330B677DC8934285AC3DF45A9EB68FF8F2B8FC0A509AFEECFD0FF2DE25CC6047F7214B195F07EFEB9A094D800F7BFAE8FED187B78EA8A3A400F115961BCAD1215E47C966530AF0EE8128FE
310
58CEBB996A8964FFA529A046635D9353B0336A8F700DDF46271A024E70B0B37C9DE01847591E54DED53D54202AB947E4076556AC49C6CA5C9E1226B7F1A7B1BE15DEED62C41B91E1B3E9AFAAA735036547343A925075041DF0A9979E893B391F8FCFA6967B3EFB644DCF6E5CEBFAE272625DCC6FAF3FB93793C5F90CE1EF57
310
407342756B10D1C489E8953CD1617E5CEECAD6F4EF8914CE5D5D504E5C3F1F9736DA62CFC11E00BCDDB8CC8A9466349744C1F75EBDA4DF09BA8A9E8C7A7E9991989E20E5DBDD6A6003664ED8F7A04A8DBE0DF6EAD9B9AA858342E47399053949D2C146EDB85DE4B176BB0965FBAC19BD19AA918E27FA50C1D22402E144464C
310
59462568E704B6E71915404CB72B8FF4EDE184DDAF753F284990D2C6926782963815403548A70C657FDEF80D2D9CEAA2AE4C1C76F60BFE74219A06527D6582DF6412526107381E55E353090704D085B52408D0933C4ED159D79BDA71BB4BC506F4831350EB6F979CD22D69BF7AC49B91A2C0A9DDA3D5CA36AD20FC478E37E6
310
1844E2352865EBCB6EA275A652E3836BE04EFB400BF1A2556F515F1FBB35B2AB35BD889C744FFA1004B5544B121E57F70215746DD2F5E2C1412B602CBF19455AC6C8E5E9922C4E01E65215385004546899059180EAFCF7A707CE7017CD8CDB0410789AB32C63B91E5CEBBBACB17AC6CD347A022D5075FD106377347AAABA7E
310
7D11590744509B44E205134DC1290F06580320F78E537D3D73540E06CB970B431F185308AD40BBD794D6D77003C5A36E8EAA54BA64597CD8F83BD552A080A365F7FF06504B0304140006080000CC70623B000000000000000000000000350000006662782F39464131463745442D413632322D343644302D413938332D3331
310
353338454246344243312F76657274696365732E62696E504B0304140006080800CC70623BF270F1330600000004000000360000006662782F39464131463745442D413632322D343644302D413938332D3331353338454246344243312F747269616E676C65732E62696E636660600000504B0304140006080000CC70623B
310
000000000000000000000000370000006662782F39464131463745442D413632322D343644302D413938332D3331353338454246344243312F617474726962757465732E62696E504B0304140006080800CC70623B08DA0BD19000000041010000360000006662782F39464131463745442D413632322D343644302D413938
310
332D3331353338454246344243312F6469726563746F72792E786D6C858F410AC3201045AF22B36F53E9A60B35CBEEBAE80D244E44489C6234F4F835464A48035D0DF398FF9F8AF63D0E6CC63039F212F8F9020C7D47C6792B21C5FE7403D62A1188E2E60C98D7234A5830286103A55745067B9D86B8A3CF9C7F90C11DE607
310
FB144396D7B6A82D282E9A152AD114D5EF2CB866EEE831B8EEA07A7BB5A8D7D61A2BAAEB7FD5F70921FF497D00504B0304140006080800CC70623B0D6EF93BFE000000A00100003B0000006662782F39464131463745442D413632322D343644302D413938332D3331353338454246344243312F7265736F75726365732F63
310
6F72652E786D6C8D50596E833010BD0A9ADFCA60B334011947A8694ED00B586642AC041B79A97AFC9A40A5F6AF3F33A3B7689E1E3F7DCD8FEC139DD7D6F4C0720A191A65476DA61E62B892236427C19DB5E1970C322367EC618541F0C9D9B8EC90B226A009093576C41D94DE63804C3DD2D18357379C652E63480A7FCF17A9
310
EE72C29CE5894E3AC17D702940B63D59270887DE46A7D0F36263058F518FBB468FE9A7BE6A7420864373B8D4873369AA8691FA421B3294352543C5CAF65C0F6FEF43CB8BD52C78D0F34F46E550061C419494B6843142CB0F5677F4B52BEB177AEC28E5C52AFF638ACBF84F53D42654E51E77B379102C05791282176B5F693D
310
CB4C7BED567C03504B010214000A0000080000CC70623B3DEE336E79000000790000001B00000000000000000000000000000000006175746F6465736B2D64657369676E2D7061636B6167652E786D6C504B01021400140006080800CC70623BD486FD9CA0000000F40000001300000000000000000000000000B20000005B
310
436F6E74656E745F54797065735D2E786D6C504B01021400140006080800CC70623B1EC5D7A3EB0000007C010000080000000000000000000000000083010000636F72652E786D6C504B01021400140006080800CC70623B55019EA25F0000007C000000070000000000000000000000000094020000636E782E786D6C504B
310
01021400140006080800CC70623B8C9102E971010000D40300000C00000000000000000000000000180300006662782F636F72652E786D6C504B01021400140006080800CC70623BFFEA85907E0000009D0000000B00000000000000000000000000B30400006662782F636E782E786D6C504B01021400140006080800CC70
310
623B4FEEA4082C0100001202000031000000000000000000000000005A0500006662782F39464131463745442D413632322D343644302D413938332D3331353338454246344243312F636F72652E786D6C504B01021400140006080800CC70623BAD7543B64E010000330300003000000000000000000000000000D5060000
310
6662782F39464131463745442D413632322D343644302D413938332D3331353338454246344243312F636E782E786D6C504B01021400140006080800CC70623B16AB87BA640500003C1000003400000000000000000000000000710800006662782F39464131463745442D413632322D343644302D413938332D3331353338
310
454246344243312F6F626A656374732E786D6C504B01021400140006080000CC70623B0000000000000000000000003500000000000000000000000000270E00006662782F39464131463745442D413632322D343644302D413938332D3331353338454246344243312F76657274696365732E62696E504B01021400140006
310
080800CC70623BF270F133060000000400000036000000000000000000000000007A0E00006662782F39464131463745442D413632322D343644302D413938332D3331353338454246344243312F747269616E676C65732E62696E504B01021400140006080000CC70623B0000000000000000000000003700000000000000
310
000000000000D40E00006662782F39464131463745442D413632322D343644302D413938332D3331353338454246344243312F617474726962757465732E62696E504B01021400140006080800CC70623B08DA0BD190000000410100003600000000000000000000000000290F00006662782F39464131463745442D413632
310
322D343644302D413938332D3331353338454246344243312F6469726563746F72792E786D6C504B01021400140006080800CC70623B0D6EF93BFE000000A00100003B000000000000000000000000000D1000006662782F39464131463745442D413632322D343644302D413938332D3331353338454246344243312F7265
310
736F75726365732F636F72652E786D6C504B0506000000000E000E0080040000641100000000
  0
XRECORD
  5
486
102
{ACAD_REACTORS
330
173
102
}
330
173
100
AcDbXrecord
280
     1
102
MATERIAL
148
0.0
149
0.0
149
0.0
 93
        0
 94
       63
282
     0
 72
     1
 77
     1
171
     1
175
     1
179
     1
273
     0
  0
XRECORD
  5
175
102
{ACAD_REACTORS
330
173
102
}
330
173
100
AcDbXrecord
280
     1
270
     1
271
     1
  0
XRECORD
  5
174
102
{ACAD_REACTORS
330
173
102
}
330
173
100
AcDbXrecord
280
     1
270
     1
271
     1
  0
XRECORD
  5
1FB
102
{ACAD_REACTORS
330
173
102
}
330
173
100
AcDbXrecord
280
     1
 70
     0
 90
1673772943
  1
ECE7A1D2-D628-4531-984C-D00F80459256
310
504B03040A0000080000CC70623B3DEE336E79000000790000001B0000006175746F6465736B2D64657369676E2D7061636B6167652E786D6C3C3F786D6C2076657273696F6E3D22312E302220656E636F64696E673D227574662D3822203F3E3C666F726D6174733E3C666F726D61743E687474703A2F2F736368656D612E
310
6175746F6465736B2E636F6D2F64657369676E2D7061636B6167652F323030393C2F666F726D61743E3C2F666F726D6174733E504B0304140006080800CC70623BD486FD9CA0000000F4000000130000005B436F6E74656E745F54797065735D2E786D6C7D8EC10E82300C865F65E91D8A1E8C310C0EEA1BF002731658846E
310
D98AC1B77784ABF1D8FE5FBFBF75BBCE937A534CCEB38643598122B6FEE978D0B0485F9C41B54DDD7D022595594E1A469170414C76A4D9A4D207E29CF43ECE46F218070CC6BECC4078ACAA135ACF422C856C0E68EA1BF5669944DDD7BCDE7B1F8E415D77AECB980613C2E4AC91FC167A2B244592486606FC29C8FD7F045B9A
310
EF7053A7E60B504B0304140006080800CC70623BD9DDAED0EC0000007C01000008000000636F72652E786D6C8D90416EC3201045AF82665B61836D9CD8C2444DD39CA01740405C94182C03558F5F9C3852BBEB6A467FFE9B197D7EF89E6EE8CB2CC17A37002D0820E394D7D68D03A478C17B4007C117EFE32F1B20272733C0
310
2A83E0E3E2D3BC49CABB685CCCAAF3DA6CA20CC14440EA969B0182FA34932C648AD911AEC52CD5558EA6A0CF2EC329598D1E47ACCEFBECC59A050463A7EA5833865FEBDD0E37353BE3EE8DBDE3F6786A48D375FBF6CC78B9C282473B3DEFABC5C86834888A900E538A49F5419B9EB47DD5BC907D4F082F57FB1F28CDFA9F50
310
B22ED6D5F6EE030B20687EE43E10BC5CB3C8E51E54AE6B6EE207504B0304140006080800CC70623B55019EA25F0000007C00000007000000636E782E786D6C4DCB3B0E80201045D1AD90E915ED2CF8AC45050C11660C8261F98AB1B07AC9C97D42D718D865D3E909258CFD00CCE24AC6E326A164D74DC0B4128928FF326038
310
472BA13128B1252AC747C6BAB984FC68F0B87FE8960A5C09FE86CFB69FBA01504B0304140006080800CC70623BA24EB22D72010000D40300000C0000006662782F636F72652E786D6CC5535B6E833010BC8AE5DF0A6C5E49888CA3A6694ED00B38E05014B091B1518EDFE511A5A9D228FD2A1F60CDEC7A67C6986DCE4D8D7A
310
69BA4AAB0C073EC548AA5C17952A33ECECD15B61B4E1CC686DBF9561A44423333CC098B3D268D7CE50AE9595CA02AA74216750749DB418E5352C32DCE59FB211BE70162ABA93DF8AFC244AE9073ED050C759670D0840D390E18DF9F1706664C23973AE2A66B62A605A75ACA4C13C4976E1364A12EF355A2EBD384AF65EFA96
310
BC7B8BED2EA6719AAE16FB8491A199335B351775B991C2CA02F390D2D40B028F861F41BCA68B7518BFD0D59A524686F29B26D7164F36B94AD9289CE54E6D1DE6010819891F6E21228B3AD1831EC219194284CF98F06DD01008846CC5A1BEF83801D4CBDC6A1303536877A57A513B0953A94FC707FDBE6064EA84A9E3E6E0FA
310
EE8CF0E9198F7784A316AA0413C2C2F2E0ECA0934D1AE6D05A69BCDE9E91D2A611F573361E38FC1375157F5752AE6B6DFE4B11990F88CCBF0719EE23FF02504B0304140006080800CC70623B408A7D3B7C0000009D0000000B0000006662782F636E782E786D6C4DCCD10A83201886E15B91FFDC552A92A0064DBC8F581632
310
D3703A76F9ABD1C18E3E78F878E5F0D9027ABBFCF2292AE86E2D20171F69F6715550CB827B40839639A5F2770314A7CD293819B45C73AAFB45B35BA61ACAA1C1C7E7855C58C15BC331339661262CC762340413D68D77DA5B42298546CBE6573AF60CEB2F504B0304140006080800CC70623B449FB9BD290100001202000031
310
0000006662782F36394639363044362D344446342D343946362D394244322D3234314243333846323333332F636F72652E786D6C8D515B6EC32010BC0AE22B55850D98B871848994463E412FE002495162B07854397EA176A4F62F3F2C9A9D991D587EB84F37F0AD7D30CEF6905418026DA553C65E7A98E219ED203808EE9D
310
8B7F6810D871D23D2C3014FCE25D9A57483A1BB58D19B54EE9151C43D0110279CB971E06F9A5A7B11A53CC8C70ADE6515EC78BAE4895DB992778883E0700CB907242D17643D7E2538BD869608875438BBAE38922CAC8F1BDD90DB4691A5E2F42C153326A951B95E398B3D1FE599322163C9AE9115F7A3D46ADA0A018778810
310
84E907617BDCEE297BC5BB3DC6BC2EF47FA234AB2745C9D8D8D035EE220B50105E2F0DC1954B9FB747187D9F9D8FA0CCDB042D5FA0C015C65B42DF78BD10F3F3B363CB56C7109DCFDFBBB97E662ED92EB62D13BC2E1BCAE5777DB9966D8A1F504B0304140006080800CC70623BAD7543B64E01000033030000300000006662
310
782F36394639363044362D344446342D343946362D394244322D3234314243333846323333332F636E782E786D6CD593CD6EC32010845F0571AD6CE3D48AD20813A9873E410FBD12D82434182C7EAAE6EDBB2424CD25871E7B41D6EC30B3FA84F9E67BB2E40B4234DE8DB46F1925E094D7C6ED479AD3AE5951B2113C789FEE
310
6C943839C1488B4C05DF079FE72A69D8C96C13AAD6B8631503449F83828872B949AC57D26200B826A308D316B4064D6E46FCDA41C05550DC9E483A00797BFD207EFB092A45DE9514C1BBD22178396BD39D891265658C238DEA00936C654E5E433CB65A26D9F6EDB5EBC14EBF49A45CB856E66048291F6939A9A81BB5C89177
310
38143CA680F4AA299D66A042CEB3354A2684DC9D8D178FE0D9B8B41CAAD720F880EE7EF93C0C18769E099ECC04D5A102C8049A8A05632F4DDF376CF1DE0F6BB65C2F8627B65A33C6BB62177CEBBDAD973006829F89F22E814B54F4BC2BE347F8AA8F681390B50FA73F804400B5F542E796F19FF974E7F78DB802FE05E20750
310
4B0304140006080800CC70623B8D05915C650500003B100000340000006662782F36394639363044362D344446342D343946362D394244322D3234314243333846323333332F6F626A656374732E786D6CAD575B6FA33814FE2B887D06429276DA1565D4266D158D3A339A6846FB502932E050B66023DB74D2FDF5FB190C01
310
9276B2973C046C8ECFF53B17071F77456EBD502133CEAE6CDF9DD81665314F32965ED995DA3A17B6F5310C04E7AA47665B8C14F4CAD6DB7618A48257A5D94AE89654B91AEDDEDDFC61C998326A5B714EA4BCB265FC440BE2924AF184CA6737218AB8E976E7FA6E4338649B0A523E8D98964450A6A029F619B8588D52FE7039
310
B1BD30F0F4F730D0FF866AF6369557DB33949F31A9088B0F848DD8CCFCF9F2767A76E99CCDE733677E3EF59D9BBB9BA5E37F984D16E78BC5E5F5ED25044B25C0C96822E8D60EEFE11B91C581D77CEA34368A1F5329E68CD1B8B61F16D63A1B8E092D294B10C78C4A48EB593D192E7DED9BDEE7995E1B91FDEDD3ACEA9FE831
310
6A756F9F7D4D79F4274C90A7A04248AA51D5F8C718DAE06FB2F75AC4796EBE65D22A88A22223B995679120E2D50E41AA49C260C046A35368846B0BECD0DFF3EBEB8AD4F835768F69B9ADF25C43D30E6B646F807FAA64AD59F61715C7A54127C4AACA98BA3006A9D792DAE165E0D59B61A01FB3A9F9D838D2DAE62445C86166
310
F37564E842E7DE6A69879FEEA2DD5AE7E371E1A5E025154AC307D06A03D73EB5978C58FFA4C8E9033066E0F3BD53BEC1F39F91BE7B55103791EDE6BBB991A2046172CB4581D8B893FA674DDA17A77B3B7C413D1B511FD2743BFF8A38F03A658705E3ADF8015C3A3417FF3D7E439FF591DA0B5F18BC20C1B8981957AE6392A3
310
F43C640C01D1A0B4728E2DD4F26DB4B3C3152A252A3B4E913CEC1C72F012782FF88EFF8637AA552DBEF76408E8A8DE9E50F9E1CB3A2DA0DB1B6039A893B56063DC5B3E3FFB5F72E67AB9FEB4AEC496C4F4C1149625DD662C53E89D7BF0F6151A046260D1337DFDC94502430F83B0EE07A130A224BCAD7DAE1D9FB6CD422FF6
310
920702629C4BB9AE79C12F243C6432A6794E18E5552BA56B431AAB5D91317302B2B071E86C3A42B1A02F999E24061403B5D0EB639195DA655DD3EBEAB4FB862DDF579F014AD0E73C22F99E28DA57FB98E75C6CA2D74D53086D600F4786E0FE3144B771A8A7B900F03594DB8A633CBC49B2EDB69228BB479CF863B5E807AAAB
310
23872F6DFEB4129B949CA33823F58830E86D65621E10047D9DB34D862E8EAC3C2ABC2F7B2C40D67CDFE01F5545B92105AF983AC54D93D69E56FB8E797F88913F898A9FEC705D3F9D1B54EC8426FB500D40A03BD0119B06E1B95DDC7EB8F6975367793EBD70E66733DFB9BC982F9CE564727731999F5D4ECFCE3B8D6A4DC2A0
310
6D50FD148437D110834A64C6CDDF57FBACB5C307A2A477DFE4939736CFEF2B175371E0E10CF0DD1D5C15654E0BCA14D1E87DD02FF93782A162C0A3D95F1524A52770F972BF1EE9809D13CE7DD599467F8ECE9ADD85CE85A34CD45355448C64F9E8A031DC2D596ACC6E5DD93D9B82DE2EF5CAF81363A8E47996A0DE24564A79
310
4115AACE09C55E14540231FDA13C319787134EBF34E3A022514E5B4D9E0826E25C02D5805B15ABE1BEF51B26383D445DD9E875EE33FE4C22DA16427D65A3BCA92CA6D28DD01DF5DC53330704308475351050232CCD31583787BA75774AFB06E5070DD0C8EF484E19968C5D83BA5B90B244D31E54D55A372320FE4786B7EA58
310
44E135AA5467CB7EA333A61683CC6A8C3257034C10CF46F40EF9F5BE59BE5BD30C3C72D235E95D10345C1D45445A5F0BB47E46A5EBE5570F9380B5FA629579952296A773720405982B9DE04011506178964401AA8BDF1FBF0A8EAB6861DD6580C0E38217056766716DAEB2D6FA0917D3E4116581EADB879C4E7CFFB11EFACD
310
3D641311495D92C8676CB409A72D18610D803CE8A626049E8EC1887CB5B44CC39883690DDA8399B4B9855B481E7D71D4A9D22F96E5BB73BF5793020C02137BF837504B0304140006080000CC70623B000000000000000000000000350000006662782F36394639363044362D344446342D343946362D394244322D32343142
310
43333846323333332F76657274696365732E62696E504B0304140006080800CC70623BF270F1330600000004000000360000006662782F36394639363044362D344446342D343946362D394244322D3234314243333846323333332F747269616E676C65732E62696E636660600000504B0304140006080000CC70623B0000
310
00000000000000000000370000006662782F36394639363044362D344446342D343946362D394244322D3234314243333846323333332F617474726962757465732E62696E504B0304140006080800CC70623B08DA0BD19000000041010000360000006662782F36394639363044362D344446342D343946362D394244322D
310
3234314243333846323333332F6469726563746F72792E786D6C858F410AC3201045AF22B36F53E9A60B35CBEEBAE80D244E44489C6234F4F835464A48035D0DF398FF9F8AF63D0E6CC63039F212F8F9020C7D47C6792B21C5FE7403D62A1188E2E60C98D7234A5830286103A55745067B9D86B8A3CF9C7F90C11DE607FB14
310
4396D7B6A82D282E9A152AD114D5EF2CB866EEE831B8EEA07A7BB5A8D7D61A2BAAEB7FD5F70921FF497D00504B0304140006080800CC70623BCA768048FE000000A00100003B0000006662782F36394639363044362D344446342D343946362D394244322D3234314243333846323333332F7265736F75726365732F636F72
310
652E786D6C8D50596E833010BD0A9ADFCA60D600328E9AA639412F609909B1126CE4A5EAF16B0295DABFFECC8CDEA2797AECF8353F924FB44E193D409E5248504B332A3D0D10FC95B4901C39B3C6F85F3248B49871801506CE266BC2B243D2688FDA47549B11775038871E12F988C7004EDE7016A9083E2ADC3D5D84BC8B09
310
D33C8D74D471E6BC8D0192EDC93A815B742658898E651BCB59086ADC356A8C3FD555A1055ED7E7E254D615792D0F075295F585746FF53B694EE78A565DD736979A65AB9933AFE69F8CD2A2F038022F28ED489E135A7CE4554F9BBEA85E68DB53CAB255FEC71496F19FA6A0B42F8B3DEE6673C0F318E4497096AD7DC5F52C33
310
EEB55BFE0D504B010214000A0000080000CC70623B3DEE336E79000000790000001B00000000000000000000000000000000006175746F6465736B2D64657369676E2D7061636B6167652E786D6C504B01021400140006080800CC70623BD486FD9CA0000000F40000001300000000000000000000000000B20000005B436F
310
6E74656E745F54797065735D2E786D6C504B01021400140006080800CC70623BD9DDAED0EC0000007C010000080000000000000000000000000083010000636F72652E786D6C504B01021400140006080800CC70623B55019EA25F0000007C000000070000000000000000000000000095020000636E782E786D6C504B0102
310
1400140006080800CC70623BA24EB22D72010000D40300000C00000000000000000000000000190300006662782F636F72652E786D6C504B01021400140006080800CC70623B408A7D3B7C0000009D0000000B00000000000000000000000000B50400006662782F636E782E786D6C504B01021400140006080800CC70623B
310
449FB9BD290100001202000031000000000000000000000000005A0500006662782F36394639363044362D344446342D343946362D394244322D3234314243333846323333332F636F72652E786D6C504B01021400140006080800CC70623BAD7543B64E010000330300003000000000000000000000000000D20600006662
310
782F36394639363044362D344446342D343946362D394244322D3234314243333846323333332F636E782E786D6C504B01021400140006080800CC70623B8D05915C650500003B10000034000000000000000000000000006E0800006662782F36394639363044362D344446342D343946362D394244322D32343142433338
310
46323333332F6F626A656374732E786D6C504B01021400140006080000CC70623B0000000000000000000000003500000000000000000000000000250E00006662782F36394639363044362D344446342D343946362D394244322D3234314243333846323333332F76657274696365732E62696E504B010214001400060808
310
00CC70623BF270F13306000000040000003600000000000000000000000000780E00006662782F36394639363044362D344446342D343946362D394244322D3234314243333846323333332F747269616E676C65732E62696E504B01021400140006080000CC70623B00000000000000000000000037000000000000000000
310
00000000D20E00006662782F36394639363044362D344446342D343946362D394244322D3234314243333846323333332F617474726962757465732E62696E504B01021400140006080800CC70623B08DA0BD190000000410100003600000000000000000000000000270F00006662782F36394639363044362D344446342D
310
343946362D394244322D3234314243333846323333332F6469726563746F72792E786D6C504B01021400140006080800CC70623BCA768048FE000000A00100003B000000000000000000000000000B1000006662782F36394639363044362D344446342D343946362D394244322D3234314243333846323333332F7265736F
310
75726365732F636F72652E786D6C504B0506000000000E000E0080040000621100000000
  0
XRECORD
  5
176
102
{ACAD_REACTORS
330
173
102
}
330
173
100
AcDbXrecord
280
     1
270
     1
271
     1
  0
XRECORD
  5
177
102
{ACAD_REACTORS
330
173
102
}
330
173
100
AcDbXrecord
280
     1
270
     1
271
     1
  0
XRECORD
  5
4B8
102
{ACAD_REACTORS
330
4B7
102
}
330
4B7
100
AcDbXrecord
280
     1
102
DISPLAYNAME
  1
Metric50
102
FLAGS
 90
        0
  0
CELLSTYLEMAP
  5
473
102
{ACAD_REACTORS
330
162
102
}
330
162
100
AcDbCellStyleMap
 90
        3
300
CELLSTYLE
  1
TABLEFORMAT_BEGIN
 90
        5
170
     1
 91
        0
 92
    32768
 62
   257
 93
        1
300
CONTENTFORMAT
  1
CONTENTFORMAT_BEGIN
 90
        0
 91
        0
 92
      512
 93
        0
300

 40
0.0
140
1.0
 94
        5
 62
     0
340
11
144
6.0
309
CONTENTFORMAT_END
171
     1
301
MARGIN
  1
CELLMARGIN_BEGIN
 40
1.5
 40
1.5
 40
1.5
 40
1.5
 40
4.5
 40
4.5
309
CELLMARGIN_END
 94
        6
 95
        1
302
GRIDFORMAT
  1
GRIDFORMAT_BEGIN
 90
        0
 91
        1
 62
     0
 92
       -2
340
14
 93
        0
 40
1.125
309
GRIDFORMAT_END
 95
        2
302
GRIDFORMAT
  1
GRIDFORMAT_BEGIN
 90
        0
 91
        1
 62
     0
 92
       -2
340
14
 93
        0
 40
1.125
309
GRIDFORMAT_END
 95
        4
302
GRIDFORMAT
  1
GRIDFORMAT_BEGIN
 90
        0
 91
        1
 62
     0
 92
       -2
340
14
 93
        0
 40
1.125
309
GRIDFORMAT_END
 95
        8
302
GRIDFORMAT
  1
GRIDFORMAT_BEGIN
 90
        0
 91
        1
 62
     0
 92
       -2
340
14
 93
        0
 40
1.125
309
GRIDFORMAT_END
 95
       16
302
GRIDFORMAT
  1
GRIDFORMAT_BEGIN
 90
        0
 91
        1
 62
     0
 92
       -2
340
14
 93
        0
 40
1.125
309
GRIDFORMAT_END
 95
       32
302
GRIDFORMAT
  1
GRIDFORMAT_BEGIN
 90
        0
 91
        1
 62
     0
 92
       -2
340
14
 93
        0
 40
1.125
309
GRIDFORMAT_END
309
TABLEFORMAT_END
  1
CELLSTYLE_BEGIN
 90
        1
 91
        1
300
_TITLE
309
CELLSTYLE_END
300
CELLSTYLE
  1
TABLEFORMAT_BEGIN
 90
        5
170
     1
 91
        0
 92
        0
 62
   257
 93
        1
300
CONTENTFORMAT
  1
CONTENTFORMAT_BEGIN
 90
        0
 91
        0
 92
      512
 93
        0
300

 40
0.0
140
1.0
 94
        5
 62
     0
340
11
144
4.5
309
CONTENTFORMAT_END
171
     1
301
MARGIN
  1
CELLMARGIN_BEGIN
 40
1.5
 40
1.5
 40
1.5
 40
1.5
 40
4.5
 40
4.5
309
CELLMARGIN_END
 94
        6
 95
        1
302
GRIDFORMAT
  1
GRIDFORMAT_BEGIN
 90
        0
 91
        1
 62
     0
 92
       -2
340
14
 93
        0
 40
1.125
309
GRIDFORMAT_END
 95
        2
302
GRIDFORMAT
  1
GRIDFORMAT_BEGIN
 90
        0
 91
        1
 62
     0
 92
       -2
340
14
 93
        0
 40
1.125
309
GRIDFORMAT_END
 95
        4
302
GRIDFORMAT
  1
GRIDFORMAT_BEGIN
 90
        0
 91
        1
 62
     0
 92
       -2
340
14
 93
        0
 40
1.125
309
GRIDFORMAT_END
 95
        8
302
GRIDFORMAT
  1
GRIDFORMAT_BEGIN
 90
        0
 91
        1
 62
     0
 92
       -2
340
14
 93
        0
 40
1.125
309
GRIDFORMAT_END
 95
       16
302
GRIDFORMAT
  1
GRIDFORMAT_BEGIN
 90
        0
 91
        1
 62
     0
 92
       -2
340
14
 93
        0
 40
1.125
309
GRIDFORMAT_END
 95
       32
302
GRIDFORMAT
  1
GRIDFORMAT_BEGIN
 90
        0
 91
        1
 62
     0
 92
       -2
340
14
 93
        0
 40
1.125
309
GRIDFORMAT_END
309
TABLEFORMAT_END
  1
CELLSTYLE_BEGIN
 90
        2
 91
        1
300
_HEADER
309
CELLSTYLE_END
300
CELLSTYLE
  1
TABLEFORMAT_BEGIN
 90
        5
170
     1
 91
        0
 92
        0
 62
   257
 93
        1
300
CONTENTFORMAT
  1
CONTENTFORMAT_BEGIN
 90
        0
 91
        0
 92
      512
 93
        0
300

 40
0.0
140
1.0
 94
        2
 62
     0
340
11
144
4.5
309
CONTENTFORMAT_END
171
     1
301
MARGIN
  1
CELLMARGIN_BEGIN
 40
1.5
 40
1.5
 40
1.5
 40
1.5
 40
4.5
 40
4.5
309
CELLMARGIN_END
 94
        6
 95
        1
302
GRIDFORMAT
  1
GRIDFORMAT_BEGIN
 90
        0
 91
        1
 62
     0
 92
       -2
340
14
 93
        0
 40
1.125
309
GRIDFORMAT_END
 95
        2
302
GRIDFORMAT
  1
GRIDFORMAT_BEGIN
 90
        0
 91
        1
 62
     0
 92
       -2
340
14
 93
        0
 40
1.125
309
GRIDFORMAT_END
 95
        4
302
GRIDFORMAT
  1
GRIDFORMAT_BEGIN
 90
        0
 91
        1
 62
     0
 92
       -2
340
14
 93
        0
 40
1.125
309
GRIDFORMAT_END
 95
        8
302
GRIDFORMAT
  1
GRIDFORMAT_BEGIN
 90
        0
 91
        1
 62
     0
 92
       -2
340
14
 93
        0
 40
1.125
309
GRIDFORMAT_END
 95
       16
302
GRIDFORMAT
  1
GRIDFORMAT_BEGIN
 90
        0
 91
        1
 62
     0
 92
       -2
340
14
 93
        0
 40
1.125
309
GRIDFORMAT_END
 95
       32
302
GRIDFORMAT
  1
GRIDFORMAT_BEGIN
 90
        0
 91
        1
 62
     0
 92
       -2
340
14
 93
        0
 40
1.125
309
GRIDFORMAT_END
309
TABLEFORMAT_END
  1
CELLSTYLE_BEGIN
 90
        3
 91
        2
300
_DATA
309
CELLSTYLE_END
  0
XRECORD
  5
47F
102
{ACAD_REACTORS
330
162
102
}
330
162
100
AcDbXrecord
280
     1
102
ACAD_ROUNDTRIP_PRE2007_TABLESTYLE
 90
      512
 91
        0
  1

 92
      512
 93
        0
  2

 94
      512
 95
        0
  3

  0
XRECORD
  5
492
102
{ACAD_REACTORS
330
491
102
}
330
491
100
AcDbXrecord
280
     1
102
RTVSPost2010Prop28
280
     1
102
RTVSPost2010PropOp28
 70
     1
102
RTVSPost2010Prop29
280
     1
102
RTVSPost2010PropOp29
 70
     1
102
RTVSPost2010Prop30
280
     0
102
RTVSPost2010PropOp30
 70
     1
102
RTVSPost2010Prop31
280
     0
102
RTVSPost2010PropOp31
 70
     1
102
RTVSPost2010Prop32
280
     0
102
RTVSPost2010PropOp32
 70
     1
102
RTVSPost2010Prop33
280
     0
102
RTVSPost2010PropOp33
 70
     1
102
RTVSPost2010Prop34
280
     0
102
RTVSPost2010PropOp34
 70
     1
102
RTVSPost2010Prop35
280
     0
102
RTVSPost2010PropOp35
 70
     1
102
RTVSPost2010Prop36
280
     0
102
RTVSPost2010PropOp36
 70
     1
102
RTVSPost2010Prop37
 90
       50
102
RTVSPost2010PropOp37
 70
     1
102
RTVSPost2010Prop38
140
0.0
102
RTVSPost2010PropOp38
 70
     1
102
RTVSPost2010Prop39
140
1.0
102
RTVSPost2010PropOp39
 70
     1
102
RTVSPost2010Prop40
 90
        0
102
RTVSPost2010PropOp40
 70
     1
102
RTVSPost2010Prop41ColorIndex
 90
       18
102
RTVSPost2010Prop41ColorRGB
 90
        0
102
RTVSPost2010PropOp41
 70
     1
102
RTVSPost2010Prop42
 90
       50
102
RTVSPost2010PropOp42
 70
     1
102
RTVSPost2010Prop43
 90
        3
102
RTVSPost2010PropOp43
 70
     1
102
RTVSPost2010Prop44ColorIndex
 90
        5
102
RTVSPost2010Prop44ColorRGB
 90
      255
102
RTVSPost2010PropOp44
 70
     1
102
RTVSPost2010Prop45
280
     0
102
RTVSPost2010PropOp45
 70
     1
102
RTVSPost2010Prop46
 90
       50
102
RTVSPost2010PropOp46
 70
     1
102
RTVSPost2010Prop47
 90
       50
102
RTVSPost2010PropOp47
 70
     1
102
RTVSPost2010Prop48
 90
       50
102
RTVSPost2010PropOp48
 70
     1
102
RTVSPost2010Prop49
280
     0
102
RTVSPost2010PropOp49
 70
     1
102
RTVSPost2010Prop50
 90
       50
102
RTVSPost2010PropOp50
 70
     1
102
RTVSPost2010Prop51ColorIndex
 90
      256
102
RTVSPost2010Prop51ColorRGB
 90
-16777216
102
RTVSPost2010PropOp51
 70
     0
102
RTVSPost2010Prop52
140
1.0
102
RTVSPost2010PropOp52
 70
     0
102
RTVSPost2010Prop53
 90
        2
102
RTVSPost2010PropOp53
 70
     1
102
RTVSPost2010Prop54
  1
strokes_ogs.tif
102
RTVSPost2010PropOp54
 70
     1
102
RTVSPost2010Prop55
280
     0
102
RTVSPost2010PropOp55
 70
     1
102
RTVSPost2010Prop56
140
1.0
102
RTVSPost2010PropOp56
 70
     1
102
RTVSPost2010Prop57
140
1.0
102
RTVSPost2010PropOp57
 70
     1
102
RTVSPropertyOp0
 70
     1
102
RTVSPropertyOp1
 70
     1
102
RTVSPropertyOp2
 70
     1
102
RTVSPropertyOp3
 70
     1
102
RTVSPropertyOp4
 70
     1
102
RTVSPropertyOp5
 70
     1
102
RTVSPropertyOp6
 70
     1
102
RTVSPropertyOp7
 70
     1
102
RTVSPropertyOp8
 70
     1
102
RTVSPropertyOp9
 70
     1
102
RTVSPropertyOp10
 70
     1
102
RTVSPropertyOp11
 70
     1
102
RTVSPropertyOp12
 70
     1
102
RTVSPropertyOp13
 70
     1
102
RTVSPropertyOp14
 70
     1
102
RTVSPropertyOp15
 70
     1
102
RTVSPropertyOp16
 70
     1
102
RTVSPropertyOp17
 70
     1
102
RTVSPropertyOp18
 70
     1
102
RTVSPropertyOp19
 70
     1
102
RTVSPropertyOp20
 70
     1
102
RTVSPropertyOp21
 70
     1
102
RTVSPropertyOp22
 70
     1
102
RTVSPropertyOp23
 70
     1
102
RTVSPropertyOp24
 70
     1
102
RTVSPropertyOp25
 70
     1
102
RTVSPropertyOp26
 70
     1
102
RTVSPropertyOp27
 70
     1
102
RTVSPropertyOp28
 70
     1
102
RTVSPropertyOp29
 70
     1
102
RTVSPropertyOp30
 70
     1
102
RTVSPropertyOp31
 70
     1
102
RTVSPropertyOp32
 70
     1
102
RTVSPropertyOp33
 70
     1
102
RTVSPropertyOp34
 70
     1
102
RTVSPropertyOp35
 70
     1
102
RTVSPropertyOp36
 70
     1
102
RTVSPropertyOp37
 70
     1
102
RTVSPropertyOp38
 70
     1
102
RTVSPropertyOp39
 70
     1
102
RTVSPropertyOp40
 70
     1
102
RTVSPropertyOp41
 70
     1
102
RTVSPropertyOp42
 70
     1
102
RTVSPropertyOp43
 70
     1
102
RTVSPropertyOp44
 70
     1
102
RTVSPropertyOp45
 70
     1
102
RTVSPropertyOp46
 70
     1
102
RTVSPropertyOp47
 70
     1
102
RTVSPropertyOp48
 70
     1
102
RTVSPropertyOp49
 70
     1
102
RTVSPropertyOp50
 70
     1
102
RTVSPropertyOp51
 70
     0
102
RTVSPropertyOp52
 70
     0
102
RTVSPropertyOp53
 70
     1
102
RTVSPropertyOp54
 70
     1
102
RTVSPropertyOp55
 70
     1
102
RTVSPropertyOp56
 70
     1
102
RTVSPropertyOp57
 70
     1
102
RTVSPropertyOp58
 70
     1
102
RTVSPropertyOp59
 70
     1
102
RTVSPropertyOp60
 70
     1
102
RTVSPropertyOp61
 70
     1
102
RTVSPropertyOp62
 70
     1
  0
XRECORD
  5
490
102
{ACAD_REACTORS
330
48F
102
}
330
48F
100
AcDbXrecord
280
     1
102
RTVSPost2010Prop28
280
     0
102
RTVSPost2010PropOp28
 70
     1
102
RTVSPost2010Prop29
280
     1
102
RTVSPost2010PropOp29
 70
     1
102
RTVSPost2010Prop30
280
     1
102
RTVSPost2010PropOp30
 70
     1
102
RTVSPost2010Prop31
280
     0
102
RTVSPost2010PropOp31
 70
     1
102
RTVSPost2010Prop32
280
     0
102
RTVSPost2010PropOp32
 70
     1
102
RTVSPost2010Prop33
280
     0
102
RTVSPost2010PropOp33
 70
     1
102
RTVSPost2010Prop34
280
     0
102
RTVSPost2010PropOp34
 70
     1
102
RTVSPost2010Prop35
280
     0
102
RTVSPost2010PropOp35
 70
     1
102
RTVSPost2010Prop36
280
     0
102
RTVSPost2010PropOp36
 70
     1
102
RTVSPost2010Prop37
 90
       50
102
RTVSPost2010PropOp37
 70
     1
102
RTVSPost2010Prop38
140
0.0
102
RTVSPost2010PropOp38
 70
     1
102
RTVSPost2010Prop39
140
1.0
102
RTVSPost2010PropOp39
 70
     1
102
RTVSPost2010Prop40
 90
        0
102
RTVSPost2010PropOp40
 70
     1
102
RTVSPost2010Prop41ColorIndex
 90
       18
102
RTVSPost2010Prop41ColorRGB
 90
        0
102
RTVSPost2010PropOp41
 70
     1
102
RTVSPost2010Prop42
 90
       50
102
RTVSPost2010PropOp42
 70
     1
102
RTVSPost2010Prop43
 90
        3
102
RTVSPost2010PropOp43
 70
     1
102
RTVSPost2010Prop44ColorIndex
 90
        5
102
RTVSPost2010Prop44ColorRGB
 90
      255
102
RTVSPost2010PropOp44
 70
     1
102
RTVSPost2010Prop45
280
     0
102
RTVSPost2010PropOp45
 70
     1
102
RTVSPost2010Prop46
 90
       50
102
RTVSPost2010PropOp46
 70
     1
102
RTVSPost2010Prop47
 90
       50
102
RTVSPost2010PropOp47
 70
     1
102
RTVSPost2010Prop48
 90
       50
102
RTVSPost2010PropOp48
 70
     1
102
RTVSPost2010Prop49
280
     0
102
RTVSPost2010PropOp49
 70
     1
102
RTVSPost2010Prop50
 90
       50
102
RTVSPost2010PropOp50
 70
     1
102
RTVSPost2010Prop51ColorIndex
 90
      256
102
RTVSPost2010Prop51ColorRGB
 90
-16777216
102
RTVSPost2010PropOp51
 70
     0
102
RTVSPost2010Prop52
140
1.0
102
RTVSPost2010PropOp52
 70
     0
102
RTVSPost2010Prop53
 90
        2
102
RTVSPost2010PropOp53
 70
     1
102
RTVSPost2010Prop54
  1
strokes_ogs.tif
102
RTVSPost2010PropOp54
 70
     1
102
RTVSPost2010Prop55
280
     0
102
RTVSPost2010PropOp55
 70
     1
102
RTVSPost2010Prop56
140
1.0
102
RTVSPost2010PropOp56
 70
     1
102
RTVSPost2010Prop57
140
1.0
102
RTVSPost2010PropOp57
 70
     1
102
RTVSPropertyOp0
 70
     1
102
RTVSPropertyOp1
 70
     1
102
RTVSPropertyOp2
 70
     1
102
RTVSPropertyOp3
 70
     1
102
RTVSPropertyOp4
 70
     1
102
RTVSPropertyOp5
 70
     1
102
RTVSPropertyOp6
 70
     1
102
RTVSPropertyOp7
 70
     1
102
RTVSPropertyOp8
 70
     1
102
RTVSPropertyOp9
 70
     1
102
RTVSPropertyOp10
 70
     1
102
RTVSPropertyOp11
 70
     1
102
RTVSPropertyOp12
 70
     1
102
RTVSPropertyOp13
 70
     1
102
RTVSPropertyOp14
 70
     1
102
RTVSPropertyOp15
 70
     1
102
RTVSPropertyOp16
 70
     1
102
RTVSPropertyOp17
 70
     1
102
RTVSPropertyOp18
 70
     1
102
RTVSPropertyOp19
 70
     1
102
RTVSPropertyOp20
 70
     1
102
RTVSPropertyOp21
 70
     1
102
RTVSPropertyOp22
 70
     1
102
RTVSPropertyOp23
 70
     1
102
RTVSPropertyOp24
 70
     1
102
RTVSPropertyOp25
 70
     1
102
RTVSPropertyOp26
 70
     1
102
RTVSPropertyOp27
 70
     1
102
RTVSPropertyOp28
 70
     1
102
RTVSPropertyOp29
 70
     1
102
RTVSPropertyOp30
 70
     1
102
RTVSPropertyOp31
 70
     1
102
RTVSPropertyOp32
 70
     1
102
RTVSPropertyOp33
 70
     1
102
RTVSPropertyOp34
 70
     1
102
RTVSPropertyOp35
 70
     1
102
RTVSPropertyOp36
 70
     1
102
RTVSPropertyOp37
 70
     1
102
RTVSPropertyOp38
 70
     1
102
RTVSPropertyOp39
 70
     1
102
RTVSPropertyOp40
 70
     1
102
RTVSPropertyOp41
 70
     1
102
RTVSPropertyOp42
 70
     1
102
RTVSPropertyOp43
 70
     1
102
RTVSPropertyOp44
 70
     1
102
RTVSPropertyOp45
 70
     1
102
RTVSPropertyOp46
 70
     1
102
RTVSPropertyOp47
 70
     1
102
RTVSPropertyOp48
 70
     1
102
RTVSPropertyOp49
 70
     1
102
RTVSPropertyOp50
 70
     1
102
RTVSPropertyOp51
 70
     0
102
RTVSPropertyOp52
 70
     0
102
RTVSPropertyOp53
 70
     1
102
RTVSPropertyOp54
 70
     1
102
RTVSPropertyOp55
 70
     1
102
RTVSPropertyOp56
 70
     1
102
RTVSPropertyOp57
 70
     1
102
RTVSPropertyOp58
 70
     1
102
RTVSPropertyOp59
 70
     1
102
RTVSPropertyOp60
 70
     1
102
RTVSPropertyOp61
 70
     1
102
RTVSPropertyOp62
 70
     1
  0
XRECORD
  5
49E
102
{ACAD_REACTORS
330
49D
102
}
330
49D
100
AcDbXrecord
280
     1
102
RTVSPost2010Prop28
280
     0
102
RTVSPost2010PropOp28
 70
     1
102
RTVSPost2010Prop29
280
     1
102
RTVSPost2010PropOp29
 70
     1
102
RTVSPost2010Prop30
280
     1
102
RTVSPost2010PropOp30
 70
     1
102
RTVSPost2010Prop31
280
     0
102
RTVSPost2010PropOp31
 70
     1
102
RTVSPost2010Prop32
280
     0
102
RTVSPost2010PropOp32
 70
     1
102
RTVSPost2010Prop33
280
     0
102
RTVSPost2010PropOp33
 70
     1
102
RTVSPost2010Prop34
280
     0
102
RTVSPost2010PropOp34
 70
     1
102
RTVSPost2010Prop35
280
     0
102
RTVSPost2010PropOp35
 70
     1
102
RTVSPost2010Prop36
280
     0
102
RTVSPost2010PropOp36
 70
     1
102
RTVSPost2010Prop37
 90
       50
102
RTVSPost2010PropOp37
 70
     1
102
RTVSPost2010Prop38
140
0.0
102
RTVSPost2010PropOp38
 70
     1
102
RTVSPost2010Prop39
140
1.0
102
RTVSPost2010PropOp39
 70
     1
102
RTVSPost2010Prop40
 90
        0
102
RTVSPost2010PropOp40
 70
     1
102
RTVSPost2010Prop41ColorIndex
 90
       18
102
RTVSPost2010Prop41ColorRGB
 90
        0
102
RTVSPost2010PropOp41
 70
     1
102
RTVSPost2010Prop42
 90
       50
102
RTVSPost2010PropOp42
 70
     1
102
RTVSPost2010Prop43
 90
        3
102
RTVSPost2010PropOp43
 70
     1
102
RTVSPost2010Prop44ColorIndex
 90
        5
102
RTVSPost2010Prop44ColorRGB
 90
      255
102
RTVSPost2010PropOp44
 70
     1
102
RTVSPost2010Prop45
280
     0
102
RTVSPost2010PropOp45
 70
     1
102
RTVSPost2010Prop46
 90
       50
102
RTVSPost2010PropOp46
 70
     1
102
RTVSPost2010Prop47
 90
       50
102
RTVSPost2010PropOp47
 70
     1
102
RTVSPost2010Prop48
 90
       50
102
RTVSPost2010PropOp48
 70
     1
102
RTVSPost2010Prop49
280
     0
102
RTVSPost2010PropOp49
 70
     1
102
RTVSPost2010Prop50
 90
       50
102
RTVSPost2010PropOp50
 70
     1
102
RTVSPost2010Prop51ColorIndex
 90
      256
102
RTVSPost2010Prop51ColorRGB
 90
-16777216
102
RTVSPost2010PropOp51
 70
     0
102
RTVSPost2010Prop52
140
1.0
102
RTVSPost2010PropOp52
 70
     0
102
RTVSPost2010Prop53
 90
        2
102
RTVSPost2010PropOp53
 70
     1
102
RTVSPost2010Prop54
  1
strokes_ogs.tif
102
RTVSPost2010PropOp54
 70
     1
102
RTVSPost2010Prop55
280
     0
102
RTVSPost2010PropOp55
 70
     1
102
RTVSPost2010Prop56
140
1.0
102
RTVSPost2010PropOp56
 70
     1
102
RTVSPost2010Prop57
140
1.0
102
RTVSPost2010PropOp57
 70
     1
102
RTVSPropertyOp0
 70
     1
102
RTVSPropertyOp1
 70
     1
102
RTVSPropertyOp2
 70
     1
102
RTVSPropertyOp3
 70
     1
102
RTVSPropertyOp4
 70
     1
102
RTVSPropertyOp5
 70
     1
102
RTVSPropertyOp6
 70
     1
102
RTVSPropertyOp7
 70
     1
102
RTVSPropertyOp8
 70
     1
102
RTVSPropertyOp9
 70
     1
102
RTVSPropertyOp10
 70
     1
102
RTVSPropertyOp11
 70
     1
102
RTVSPropertyOp12
 70
     1
102
RTVSPropertyOp13
 70
     1
102
RTVSPropertyOp14
 70
     1
102
RTVSPropertyOp15
 70
     1
102
RTVSPropertyOp16
 70
     1
102
RTVSPropertyOp17
 70
     1
102
RTVSPropertyOp18
 70
     1
102
RTVSPropertyOp19
 70
     1
102
RTVSPropertyOp20
 70
     1
102
RTVSPropertyOp21
 70
     1
102
RTVSPropertyOp22
 70
     1
102
RTVSPropertyOp23
 70
     1
102
RTVSPropertyOp24
 70
     1
102
RTVSPropertyOp25
 70
     1
102
RTVSPropertyOp26
 70
     1
102
RTVSPropertyOp27
 70
     1
102
RTVSPropertyOp28
 70
     1
102
RTVSPropertyOp29
 70
     1
102
RTVSPropertyOp30
 70
     1
102
RTVSPropertyOp31
 70
     1
102
RTVSPropertyOp32
 70
     1
102
RTVSPropertyOp33
 70
     1
102
RTVSPropertyOp34
 70
     1
102
RTVSPropertyOp35
 70
     1
102
RTVSPropertyOp36
 70
     1
102
RTVSPropertyOp37
 70
     1
102
RTVSPropertyOp38
 70
     1
102
RTVSPropertyOp39
 70
     1
102
RTVSPropertyOp40
 70
     1
102
RTVSPropertyOp41
 70
     1
102
RTVSPropertyOp42
 70
     1
102
RTVSPropertyOp43
 70
     1
102
RTVSPropertyOp44
 70
     1
102
RTVSPropertyOp45
 70
     1
102
RTVSPropertyOp46
 70
     1
102
RTVSPropertyOp47
 70
     1
102
RTVSPropertyOp48
 70
     1
102
RTVSPropertyOp49
 70
     1
102
RTVSPropertyOp50
 70
     1
102
RTVSPropertyOp51
 70
     0
102
RTVSPropertyOp52
 70
     0
102
RTVSPropertyOp53
 70
     1
102
RTVSPropertyOp54
 70
     1
102
RTVSPropertyOp55
 70
     1
102
RTVSPropertyOp56
 70
     1
102
RTVSPropertyOp57
 70
     1
102
RTVSPropertyOp58
 70
     1
102
RTVSPropertyOp59
 70
     1
102
RTVSPropertyOp60
 70
     1
102
RTVSPropertyOp61
 70
     1
102
RTVSPropertyOp62
 70
     1
  0
XRECORD
  5
4A6
102
{ACAD_REACTORS
330
4A5
102
}
330
4A5
100
AcDbXrecord
280
     1
102
RTVSPost2010Prop28
280
     0
102
RTVSPost2010PropOp28
 70
     1
102
RTVSPost2010Prop29
280
     1
102
RTVSPost2010PropOp29
 70
     1
102
RTVSPost2010Prop30
280
     1
102
RTVSPost2010PropOp30
 70
     1
102
RTVSPost2010Prop31
280
     0
102
RTVSPost2010PropOp31
 70
     1
102
RTVSPost2010Prop32
280
     0
102
RTVSPost2010PropOp32
 70
     1
102
RTVSPost2010Prop33
280
     0
102
RTVSPost2010PropOp33
 70
     1
102
RTVSPost2010Prop34
280
     0
102
RTVSPost2010PropOp34
 70
     1
102
RTVSPost2010Prop35
280
     0
102
RTVSPost2010PropOp35
 70
     1
102
RTVSPost2010Prop36
280
     0
102
RTVSPost2010PropOp36
 70
     1
102
RTVSPost2010Prop37
 90
       50
102
RTVSPost2010PropOp37
 70
     1
102
RTVSPost2010Prop38
140
0.0
102
RTVSPost2010PropOp38
 70
     1
102
RTVSPost2010Prop39
140
1.0
102
RTVSPost2010PropOp39
 70
     1
102
RTVSPost2010Prop40
 90
        0
102
RTVSPost2010PropOp40
 70
     1
102
RTVSPost2010Prop41ColorIndex
 90
       18
102
RTVSPost2010Prop41ColorRGB
 90
        0
102
RTVSPost2010PropOp41
 70
     1
102
RTVSPost2010Prop42
 90
       50
102
RTVSPost2010PropOp42
 70
     1
102
RTVSPost2010Prop43
 90
        3
102
RTVSPost2010PropOp43
 70
     1
102
RTVSPost2010Prop44ColorIndex
 90
        5
102
RTVSPost2010Prop44ColorRGB
 90
      255
102
RTVSPost2010PropOp44
 70
     1
102
RTVSPost2010Prop45
280
     0
102
RTVSPost2010PropOp45
 70
     1
102
RTVSPost2010Prop46
 90
       50
102
RTVSPost2010PropOp46
 70
     1
102
RTVSPost2010Prop47
 90
       50
102
RTVSPost2010PropOp47
 70
     1
102
RTVSPost2010Prop48
 90
       50
102
RTVSPost2010PropOp48
 70
     1
102
RTVSPost2010Prop49
280
     0
102
RTVSPost2010PropOp49
 70
     1
102
RTVSPost2010Prop50
 90
       50
102
RTVSPost2010PropOp50
 70
     1
102
RTVSPost2010Prop51ColorIndex
 90
      256
102
RTVSPost2010Prop51ColorRGB
 90
-16777216
102
RTVSPost2010PropOp51
 70
     0
102
RTVSPost2010Prop52
140
1.0
102
RTVSPost2010PropOp52
 70
     0
102
RTVSPost2010Prop53
 90
        2
102
RTVSPost2010PropOp53
 70
     1
102
RTVSPost2010Prop54
  1
strokes_ogs.tif
102
RTVSPost2010PropOp54
 70
     1
102
RTVSPost2010Prop55
280
     0
102
RTVSPost2010PropOp55
 70
     1
102
RTVSPost2010Prop56
140
1.0
102
RTVSPost2010PropOp56
 70
     1
102
RTVSPost2010Prop57
140
1.0
102
RTVSPost2010PropOp57
 70
     1
102
RTVSPropertyOp0
 70
     1
102
RTVSPropertyOp1
 70
     1
102
RTVSPropertyOp2
 70
     1
102
RTVSPropertyOp3
 70
     1
102
RTVSPropertyOp4
 70
     1
102
RTVSPropertyOp5
 70
     1
102
RTVSPropertyOp6
 70
     1
102
RTVSPropertyOp7
 70
     1
102
RTVSPropertyOp8
 70
     1
102
RTVSPropertyOp9
 70
     1
102
RTVSPropertyOp10
 70
     1
102
RTVSPropertyOp11
 70
     1
102
RTVSPropertyOp12
 70
     1
102
RTVSPropertyOp13
 70
     1
102
RTVSPropertyOp14
 70
     1
102
RTVSPropertyOp15
 70
     1
102
RTVSPropertyOp16
 70
     1
102
RTVSPropertyOp17
 70
     1
102
RTVSPropertyOp18
 70
     1
102
RTVSPropertyOp19
 70
     1
102
RTVSPropertyOp20
 70
     1
102
RTVSPropertyOp21
 70
     1
102
RTVSPropertyOp22
 70
     1
102
RTVSPropertyOp23
 70
     1
102
RTVSPropertyOp24
 70
     1
102
RTVSPropertyOp25
 70
     1
102
RTVSPropertyOp26
 70
     1
102
RTVSPropertyOp27
 70
     1
102
RTVSPropertyOp28
 70
     1
102
RTVSPropertyOp29
 70
     1
102
RTVSPropertyOp30
 70
     1
102
RTVSPropertyOp31
 70
     1
102
RTVSPropertyOp32
 70
     1
102
RTVSPropertyOp33
 70
     1
102
RTVSPropertyOp34
 70
     1
102
RTVSPropertyOp35
 70
     1
102
RTVSPropertyOp36
 70
     1
102
RTVSPropertyOp37
 70
     1
102
RTVSPropertyOp38
 70
     1
102
RTVSPropertyOp39
 70
     1
102
RTVSPropertyOp40
 70
     1
102
RTVSPropertyOp41
 70
     1
102
RTVSPropertyOp42
 70
     1
102
RTVSPropertyOp43
 70
     1
102
RTVSPropertyOp44
 70
     1
102
RTVSPropertyOp45
 70
     1
102
RTVSPropertyOp46
 70
     1
102
RTVSPropertyOp47
 70
     1
102
RTVSPropertyOp48
 70
     1
102
RTVSPropertyOp49
 70
     1
102
RTVSPropertyOp50
 70
     1
102
RTVSPropertyOp51
 70
     0
102
RTVSPropertyOp52
 70
     0
102
RTVSPropertyOp53
 70
     1
102
RTVSPropertyOp54
 70
     1
102
RTVSPropertyOp55
 70
     1
102
RTVSPropertyOp56
 70
     1
102
RTVSPropertyOp57
 70
     1
102
RTVSPropertyOp58
 70
     1
102
RTVSPropertyOp59
 70
     1
102
RTVSPropertyOp60
 70
     1
102
RTVSPropertyOp61
 70
     1
102
RTVSPropertyOp62
 70
     1
  0
XRECORD
  5
498
102
{ACAD_REACTORS
330
497
102
}
330
497
100
AcDbXrecord
280
     1
102
RTVSPost2010Prop28
280
     0
102
RTVSPost2010PropOp28
 70
     1
102
RTVSPost2010Prop29
280
     1
102
RTVSPost2010PropOp29
 70
     1
102
RTVSPost2010Prop30
280
     1
102
RTVSPost2010PropOp30
 70
     1
102
RTVSPost2010Prop31
280
     0
102
RTVSPost2010PropOp31
 70
     1
102
RTVSPost2010Prop32
280
     0
102
RTVSPost2010PropOp32
 70
     1
102
RTVSPost2010Prop33
280
     0
102
RTVSPost2010PropOp33
 70
     1
102
RTVSPost2010Prop34
280
     0
102
RTVSPost2010PropOp34
 70
     1
102
RTVSPost2010Prop35
280
     0
102
RTVSPost2010PropOp35
 70
     1
102
RTVSPost2010Prop36
280
     0
102
RTVSPost2010PropOp36
 70
     1
102
RTVSPost2010Prop37
 90
       50
102
RTVSPost2010PropOp37
 70
     1
102
RTVSPost2010Prop38
140
0.0
102
RTVSPost2010PropOp38
 70
     1
102
RTVSPost2010Prop39
140
1.0
102
RTVSPost2010PropOp39
 70
     1
102
RTVSPost2010Prop40
 90
        0
102
RTVSPost2010PropOp40
 70
     1
102
RTVSPost2010Prop41ColorIndex
 90
       18
102
RTVSPost2010Prop41ColorRGB
 90
        0
102
RTVSPost2010PropOp41
 70
     1
102
RTVSPost2010Prop42
 90
       50
102
RTVSPost2010PropOp42
 70
     1
102
RTVSPost2010Prop43
 90
        3
102
RTVSPost2010PropOp43
 70
     1
102
RTVSPost2010Prop44ColorIndex
 90
        5
102
RTVSPost2010Prop44ColorRGB
 90
      255
102
RTVSPost2010PropOp44
 70
     1
102
RTVSPost2010Prop45
280
     0
102
RTVSPost2010PropOp45
 70
     1
102
RTVSPost2010Prop46
 90
       50
102
RTVSPost2010PropOp46
 70
     1
102
RTVSPost2010Prop47
 90
       50
102
RTVSPost2010PropOp47
 70
     1
102
RTVSPost2010Prop48
 90
       50
102
RTVSPost2010PropOp48
 70
     1
102
RTVSPost2010Prop49
280
     0
102
RTVSPost2010PropOp49
 70
     1
102
RTVSPost2010Prop50
 90
       50
102
RTVSPost2010PropOp50
 70
     1
102
RTVSPost2010Prop51ColorIndex
 90
      256
102
RTVSPost2010Prop51ColorRGB
 90
-16777216
102
RTVSPost2010PropOp51
 70
     0
102
RTVSPost2010Prop52
140
1.0
102
RTVSPost2010PropOp52
 70
     0
102
RTVSPost2010Prop53
 90
        2
102
RTVSPost2010PropOp53
 70
     1
102
RTVSPost2010Prop54
  1
strokes_ogs.tif
102
RTVSPost2010PropOp54
 70
     1
102
RTVSPost2010Prop55
280
     0
102
RTVSPost2010PropOp55
 70
     1
102
RTVSPost2010Prop56
140
1.0
102
RTVSPost2010PropOp56
 70
     1
102
RTVSPost2010Prop57
140
1.0
102
RTVSPost2010PropOp57
 70
     1
102
RTVSPropertyOp0
 70
     1
102
RTVSPropertyOp1
 70
     1
102
RTVSPropertyOp2
 70
     1
102
RTVSPropertyOp3
 70
     1
102
RTVSPropertyOp4
 70
     1
102
RTVSPropertyOp5
 70
     1
102
RTVSPropertyOp6
 70
     1
102
RTVSPropertyOp7
 70
     1
102
RTVSPropertyOp8
 70
     1
102
RTVSPropertyOp9
 70
     1
102
RTVSPropertyOp10
 70
     1
102
RTVSPropertyOp11
 70
     1
102
RTVSPropertyOp12
 70
     1
102
RTVSPropertyOp13
 70
     1
102
RTVSPropertyOp14
 70
     1
102
RTVSPropertyOp15
 70
     1
102
RTVSPropertyOp16
 70
     1
102
RTVSPropertyOp17
 70
     1
102
RTVSPropertyOp18
 70
     1
102
RTVSPropertyOp19
 70
     1
102
RTVSPropertyOp20
 70
     1
102
RTVSPropertyOp21
 70
     1
102
RTVSPropertyOp22
 70
     1
102
RTVSPropertyOp23
 70
     1
102
RTVSPropertyOp24
 70
     1
102
RTVSPropertyOp25
 70
     1
102
RTVSPropertyOp26
 70
     1
102
RTVSPropertyOp27
 70
     1
102
RTVSPropertyOp28
 70
     1
102
RTVSPropertyOp29
 70
     1
102
RTVSPropertyOp30
 70
     1
102
RTVSPropertyOp31
 70
     1
102
RTVSPropertyOp32
 70
     1
102
RTVSPropertyOp33
 70
     1
102
RTVSPropertyOp34
 70
     1
102
RTVSPropertyOp35
 70
     1
102
RTVSPropertyOp36
 70
     1
102
RTVSPropertyOp37
 70
     1
102
RTVSPropertyOp38
 70
     1
102
RTVSPropertyOp39
 70
     1
102
RTVSPropertyOp40
 70
     1
102
RTVSPropertyOp41
 70
     1
102
RTVSPropertyOp42
 70
     1
102
RTVSPropertyOp43
 70
     1
102
RTVSPropertyOp44
 70
     1
102
RTVSPropertyOp45
 70
     1
102
RTVSPropertyOp46
 70
     1
102
RTVSPropertyOp47
 70
     1
102
RTVSPropertyOp48
 70
     1
102
RTVSPropertyOp49
 70
     1
102
RTVSPropertyOp50
 70
     1
102
RTVSPropertyOp51
 70
     0
102
RTVSPropertyOp52
 70
     0
102
RTVSPropertyOp53
 70
     1
102
RTVSPropertyOp54
 70
     1
102
RTVSPropertyOp55
 70
     1
102
RTVSPropertyOp56
 70
     1
102
RTVSPropertyOp57
 70
     1
102
RTVSPropertyOp58
 70
     1
102
RTVSPropertyOp59
 70
     1
102
RTVSPropertyOp60
 70
     1
102
RTVSPropertyOp61
 70
     1
102
RTVSPropertyOp62
 70
     1
  0
XRECORD
  5
49C
102
{ACAD_REACTORS
330
49B
102
}
330
49B
100
AcDbXrecord
280
     1
102
RTVSPost2010Prop28
280
     0
102
RTVSPost2010PropOp28
 70
     1
102
RTVSPost2010Prop29
280
     1
102
RTVSPost2010PropOp29
 70
     1
102
RTVSPost2010Prop30
280
     1
102
RTVSPost2010PropOp30
 70
     1
102
RTVSPost2010Prop31
280
     0
102
RTVSPost2010PropOp31
 70
     1
102
RTVSPost2010Prop32
280
     0
102
RTVSPost2010PropOp32
 70
     1
102
RTVSPost2010Prop33
280
     0
102
RTVSPost2010PropOp33
 70
     1
102
RTVSPost2010Prop34
280
     0
102
RTVSPost2010PropOp34
 70
     1
102
RTVSPost2010Prop35
280
     0
102
RTVSPost2010PropOp35
 70
     1
102
RTVSPost2010Prop36
280
     0
102
RTVSPost2010PropOp36
 70
     1
102
RTVSPost2010Prop37
 90
       50
102
RTVSPost2010PropOp37
 70
     1
102
RTVSPost2010Prop38
140
0.0
102
RTVSPost2010PropOp38
 70
     1
102
RTVSPost2010Prop39
140
1.0
102
RTVSPost2010PropOp39
 70
     1
102
RTVSPost2010Prop40
 90
        0
102
RTVSPost2010PropOp40
 70
     1
102
RTVSPost2010Prop41ColorIndex
 90
       18
102
RTVSPost2010Prop41ColorRGB
 90
        0
102
RTVSPost2010PropOp41
 70
     1
102
RTVSPost2010Prop42
 90
       50
102
RTVSPost2010PropOp42
 70
     1
102
RTVSPost2010Prop43
 90
        3
102
RTVSPost2010PropOp43
 70
     1
102
RTVSPost2010Prop44ColorIndex
 90
        5
102
RTVSPost2010Prop44ColorRGB
 90
      255
102
RTVSPost2010PropOp44
 70
     1
102
RTVSPost2010Prop45
280
     0
102
RTVSPost2010PropOp45
 70
     1
102
RTVSPost2010Prop46
 90
       50
102
RTVSPost2010PropOp46
 70
     1
102
RTVSPost2010Prop47
 90
       50
102
RTVSPost2010PropOp47
 70
     1
102
RTVSPost2010Prop48
 90
       50
102
RTVSPost2010PropOp48
 70
     1
102
RTVSPost2010Prop49
280
     0
102
RTVSPost2010PropOp49
 70
     1
102
RTVSPost2010Prop50
 90
       50
102
RTVSPost2010PropOp50
 70
     1
102
RTVSPost2010Prop51ColorIndex
 90
      256
102
RTVSPost2010Prop51ColorRGB
 90
-16777216
102
RTVSPost2010PropOp51
 70
     0
102
RTVSPost2010Prop52
140
1.0
102
RTVSPost2010PropOp52
 70
     0
102
RTVSPost2010Prop53
 90
        2
102
RTVSPost2010PropOp53
 70
     1
102
RTVSPost2010Prop54
  1
strokes_ogs.tif
102
RTVSPost2010PropOp54
 70
     1
102
RTVSPost2010Prop55
280
     0
102
RTVSPost2010PropOp55
 70
     1
102
RTVSPost2010Prop56
140
1.0
102
RTVSPost2010PropOp56
 70
     1
102
RTVSPost2010Prop57
140
1.0
102
RTVSPost2010PropOp57
 70
     1
102
RTVSPropertyOp0
 70
     1
102
RTVSPropertyOp1
 70
     1
102
RTVSPropertyOp2
 70
     1
102
RTVSPropertyOp3
 70
     1
102
RTVSPropertyOp4
 70
     1
102
RTVSPropertyOp5
 70
     1
102
RTVSPropertyOp6
 70
     1
102
RTVSPropertyOp7
 70
     1
102
RTVSPropertyOp8
 70
     1
102
RTVSPropertyOp9
 70
     1
102
RTVSPropertyOp10
 70
     1
102
RTVSPropertyOp11
 70
     1
102
RTVSPropertyOp12
 70
     1
102
RTVSPropertyOp13
 70
     1
102
RTVSPropertyOp14
 70
     1
102
RTVSPropertyOp15
 70
     1
102
RTVSPropertyOp16
 70
     1
102
RTVSPropertyOp17
 70
     1
102
RTVSPropertyOp18
 70
     1
102
RTVSPropertyOp19
 70
     1
102
RTVSPropertyOp20
 70
     1
102
RTVSPropertyOp21
 70
     1
102
RTVSPropertyOp22
 70
     1
102
RTVSPropertyOp23
 70
     1
102
RTVSPropertyOp24
 70
     1
102
RTVSPropertyOp25
 70
     1
102
RTVSPropertyOp26
 70
     1
102
RTVSPropertyOp27
 70
     1
102
RTVSPropertyOp28
 70
     1
102
RTVSPropertyOp29
 70
     1
102
RTVSPropertyOp30
 70
     1
102
RTVSPropertyOp31
 70
     1
102
RTVSPropertyOp32
 70
     1
102
RTVSPropertyOp33
 70
     1
102
RTVSPropertyOp34
 70
     1
102
RTVSPropertyOp35
 70
     1
102
RTVSPropertyOp36
 70
     1
102
RTVSPropertyOp37
 70
     1
102
RTVSPropertyOp38
 70
     1
102
RTVSPropertyOp39
 70
     1
102
RTVSPropertyOp40
 70
     1
102
RTVSPropertyOp41
 70
     1
102
RTVSPropertyOp42
 70
     1
102
RTVSPropertyOp43
 70
     1
102
RTVSPropertyOp44
 70
     1
102
RTVSPropertyOp45
 70
     1
102
RTVSPropertyOp46
 70
     1
102
RTVSPropertyOp47
 70
     1
102
RTVSPropertyOp48
 70
     1
102
RTVSPropertyOp49
 70
     1
102
RTVSPropertyOp50
 70
     1
102
RTVSPropertyOp51
 70
     0
102
RTVSPropertyOp52
 70
     0
102
RTVSPropertyOp53
 70
     1
102
RTVSPropertyOp54
 70
     1
102
RTVSPropertyOp55
 70
     1
102
RTVSPropertyOp56
 70
     1
102
RTVSPropertyOp57
 70
     1
102
RTVSPropertyOp58
 70
     1
102
RTVSPropertyOp59
 70
     1
102
RTVSPropertyOp60
 70
     1
102
RTVSPropertyOp61
 70
     1
102
RTVSPropertyOp62
 70
     1
  0
XRECORD
  5
4AC
102
{ACAD_REACTORS
330
4AB
102
}
330
4AB
100
AcDbXrecord
280
     1
102
RTVSPost2010Prop28
280
     0
102
RTVSPost2010PropOp28
 70
     1
102
RTVSPost2010Prop29
280
     1
102
RTVSPost2010PropOp29
 70
     1
102
RTVSPost2010Prop30
280
     1
102
RTVSPost2010PropOp30
 70
     1
102
RTVSPost2010Prop31
280
     0
102
RTVSPost2010PropOp31
 70
     1
102
RTVSPost2010Prop32
280
     0
102
RTVSPost2010PropOp32
 70
     1
102
RTVSPost2010Prop33
280
     0
102
RTVSPost2010PropOp33
 70
     1
102
RTVSPost2010Prop34
280
     0
102
RTVSPost2010PropOp34
 70
     1
102
RTVSPost2010Prop35
280
     0
102
RTVSPost2010PropOp35
 70
     1
102
RTVSPost2010Prop36
280
     0
102
RTVSPost2010PropOp36
 70
     1
102
RTVSPost2010Prop37
 90
       50
102
RTVSPost2010PropOp37
 70
     1
102
RTVSPost2010Prop38
140
0.0
102
RTVSPost2010PropOp38
 70
     1
102
RTVSPost2010Prop39
140
1.0
102
RTVSPost2010PropOp39
 70
     1
102
RTVSPost2010Prop40
 90
        0
102
RTVSPost2010PropOp40
 70
     1
102
RTVSPost2010Prop41ColorIndex
 90
       18
102
RTVSPost2010Prop41ColorRGB
 90
        0
102
RTVSPost2010PropOp41
 70
     1
102
RTVSPost2010Prop42
 90
       50
102
RTVSPost2010PropOp42
 70
     1
102
RTVSPost2010Prop43
 90
        3
102
RTVSPost2010PropOp43
 70
     1
102
RTVSPost2010Prop44ColorIndex
 90
        5
102
RTVSPost2010Prop44ColorRGB
 90
      255
102
RTVSPost2010PropOp44
 70
     1
102
RTVSPost2010Prop45
280
     0
102
RTVSPost2010PropOp45
 70
     1
102
RTVSPost2010Prop46
 90
       50
102
RTVSPost2010PropOp46
 70
     1
102
RTVSPost2010Prop47
 90
       50
102
RTVSPost2010PropOp47
 70
     1
102
RTVSPost2010Prop48
 90
       50
102
RTVSPost2010PropOp48
 70
     1
102
RTVSPost2010Prop49
280
     0
102
RTVSPost2010PropOp49
 70
     1
102
RTVSPost2010Prop50
 90
       50
102
RTVSPost2010PropOp50
 70
     1
102
RTVSPost2010Prop51ColorIndex
 90
      256
102
RTVSPost2010Prop51ColorRGB
 90
-16777216
102
RTVSPost2010PropOp51
 70
     0
102
RTVSPost2010Prop52
140
1.0
102
RTVSPost2010PropOp52
 70
     0
102
RTVSPost2010Prop53
 90
        2
102
RTVSPost2010PropOp53
 70
     1
102
RTVSPost2010Prop54
  1
strokes_ogs.tif
102
RTVSPost2010PropOp54
 70
     1
102
RTVSPost2010Prop55
280
     0
102
RTVSPost2010PropOp55
 70
     1
102
RTVSPost2010Prop56
140
1.0
102
RTVSPost2010PropOp56
 70
     1
102
RTVSPost2010Prop57
140
1.0
102
RTVSPost2010PropOp57
 70
     1
102
RTVSPropertyOp0
 70
     0
102
RTVSPropertyOp1
 70
     0
102
RTVSPropertyOp2
 70
     0
102
RTVSPropertyOp3
 70
     0
102
RTVSPropertyOp4
 70
     0
102
RTVSPropertyOp5
 70
     0
102
RTVSPropertyOp6
 70
     0
102
RTVSPropertyOp7
 70
     0
102
RTVSPropertyOp8
 70
     0
102
RTVSPropertyOp9
 70
     0
102
RTVSPropertyOp10
 70
     0
102
RTVSPropertyOp11
 70
     0
102
RTVSPropertyOp12
 70
     0
102
RTVSPropertyOp13
 70
     0
102
RTVSPropertyOp14
 70
     2
102
RTVSPropertyOp15
 70
     0
102
RTVSPropertyOp16
 70
     0
102
RTVSPropertyOp17
 70
     0
102
RTVSPropertyOp18
 70
     0
102
RTVSPropertyOp19
 70
     0
102
RTVSPropertyOp20
 70
     0
102
RTVSPropertyOp21
 70
     0
102
RTVSPropertyOp22
 70
     0
102
RTVSPropertyOp23
 70
     0
102
RTVSPropertyOp24
 70
     0
102
RTVSPropertyOp25
 70
     0
102
RTVSPropertyOp26
 70
     0
102
RTVSPropertyOp27
 70
     0
102
RTVSPropertyOp28
 70
     1
102
RTVSPropertyOp29
 70
     1
102
RTVSPropertyOp30
 70
     1
102
RTVSPropertyOp31
 70
     1
102
RTVSPropertyOp32
 70
     1
102
RTVSPropertyOp33
 70
     1
102
RTVSPropertyOp34
 70
     1
102
RTVSPropertyOp35
 70
     1
102
RTVSPropertyOp36
 70
     1
102
RTVSPropertyOp37
 70
     1
102
RTVSPropertyOp38
 70
     1
102
RTVSPropertyOp39
 70
     1
102
RTVSPropertyOp40
 70
     1
102
RTVSPropertyOp41
 70
     1
102
RTVSPropertyOp42
 70
     1
102
RTVSPropertyOp43
 70
     1
102
RTVSPropertyOp44
 70
     1
102
RTVSPropertyOp45
 70
     1
102
RTVSPropertyOp46
 70
     1
102
RTVSPropertyOp47
 70
     1
102
RTVSPropertyOp48
 70
     1
102
RTVSPropertyOp49
 70
     1
102
RTVSPropertyOp50
 70
     1
102
RTVSPropertyOp51
 70
     0
102
RTVSPropertyOp52
 70
     0
102
RTVSPropertyOp53
 70
     1
102
RTVSPropertyOp54
 70
     1
102
RTVSPropertyOp55
 70
     1
102
RTVSPropertyOp56
 70
     1
102
RTVSPropertyOp57
 70
     1
102
RTVSPropertyOp58
 70
     1
102
RTVSPropertyOp59
 70
     1
102
RTVSPropertyOp60
 70
     1
102
RTVSPropertyOp61
 70
     1
102
RTVSPropertyOp62
 70
     1
  0
XRECORD
  5
4A4
102
{ACAD_REACTORS
330
4A3
102
}
330
4A3
100
AcDbXrecord
280
     1
102
RTVSPost2010Prop28
280
     0
102
RTVSPost2010PropOp28
 70
     1
102
RTVSPost2010Prop29
280
     1
102
RTVSPost2010PropOp29
 70
     1
102
RTVSPost2010Prop30
280
     1
102
RTVSPost2010PropOp30
 70
     1
102
RTVSPost2010Prop31
280
     0
102
RTVSPost2010PropOp31
 70
     1
102
RTVSPost2010Prop32
280
     0
102
RTVSPost2010PropOp32
 70
     1
102
RTVSPost2010Prop33
280
     0
102
RTVSPost2010PropOp33
 70
     1
102
RTVSPost2010Prop34
280
     0
102
RTVSPost2010PropOp34
 70
     1
102
RTVSPost2010Prop35
280
     0
102
RTVSPost2010PropOp35
 70
     1
102
RTVSPost2010Prop36
280
     0
102
RTVSPost2010PropOp36
 70
     1
102
RTVSPost2010Prop37
 90
       50
102
RTVSPost2010PropOp37
 70
     1
102
RTVSPost2010Prop38
140
0.0
102
RTVSPost2010PropOp38
 70
     1
102
RTVSPost2010Prop39
140
1.0
102
RTVSPost2010PropOp39
 70
     1
102
RTVSPost2010Prop40
 90
        0
102
RTVSPost2010PropOp40
 70
     1
102
RTVSPost2010Prop41ColorIndex
 90
       18
102
RTVSPost2010Prop41ColorRGB
 90
        0
102
RTVSPost2010PropOp41
 70
     1
102
RTVSPost2010Prop42
 90
       50
102
RTVSPost2010PropOp42
 70
     1
102
RTVSPost2010Prop43
 90
        3
102
RTVSPost2010PropOp43
 70
     1
102
RTVSPost2010Prop44ColorIndex
 90
        5
102
RTVSPost2010Prop44ColorRGB
 90
      255
102
RTVSPost2010PropOp44
 70
     1
102
RTVSPost2010Prop45
280
     0
102
RTVSPost2010PropOp45
 70
     1
102
RTVSPost2010Prop46
 90
       50
102
RTVSPost2010PropOp46
 70
     1
102
RTVSPost2010Prop47
 90
       50
102
RTVSPost2010PropOp47
 70
     1
102
RTVSPost2010Prop48
 90
       50
102
RTVSPost2010PropOp48
 70
     1
102
RTVSPost2010Prop49
280
     0
102
RTVSPost2010PropOp49
 70
     1
102
RTVSPost2010Prop50
 90
       50
102
RTVSPost2010PropOp50
 70
     1
102
RTVSPost2010Prop51ColorIndex
 90
      256
102
RTVSPost2010Prop51ColorRGB
 90
-16777216
102
RTVSPost2010PropOp51
 70
     0
102
RTVSPost2010Prop52
140
1.0
102
RTVSPost2010PropOp52
 70
     0
102
RTVSPost2010Prop53
 90
        2
102
RTVSPost2010PropOp53
 70
     1
102
RTVSPost2010Prop54
  1
strokes_ogs.tif
102
RTVSPost2010PropOp54
 70
     1
102
RTVSPost2010Prop55
280
     0
102
RTVSPost2010PropOp55
 70
     1
102
RTVSPost2010Prop56
140
1.0
102
RTVSPost2010PropOp56
 70
     1
102
RTVSPost2010Prop57
140
1.0
102
RTVSPost2010PropOp57
 70
     1
102
RTVSPropertyOp0
 70
     1
102
RTVSPropertyOp1
 70
     1
102
RTVSPropertyOp2
 70
     1
102
RTVSPropertyOp3
 70
     1
102
RTVSPropertyOp4
 70
     1
102
RTVSPropertyOp5
 70
     1
102
RTVSPropertyOp6
 70
     1
102
RTVSPropertyOp7
 70
     1
102
RTVSPropertyOp8
 70
     1
102
RTVSPropertyOp9
 70
     1
102
RTVSPropertyOp10
 70
     1
102
RTVSPropertyOp11
 70
     1
102
RTVSPropertyOp12
 70
     1
102
RTVSPropertyOp13
 70
     1
102
RTVSPropertyOp14
 70
     1
102
RTVSPropertyOp15
 70
     1
102
RTVSPropertyOp16
 70
     1
102
RTVSPropertyOp17
 70
     1
102
RTVSPropertyOp18
 70
     1
102
RTVSPropertyOp19
 70
     1
102
RTVSPropertyOp20
 70
     1
102
RTVSPropertyOp21
 70
     1
102
RTVSPropertyOp22
 70
     1
102
RTVSPropertyOp23
 70
     1
102
RTVSPropertyOp24
 70
     1
102
RTVSPropertyOp25
 70
     1
102
RTVSPropertyOp26
 70
     1
102
RTVSPropertyOp27
 70
     1
102
RTVSPropertyOp28
 70
     1
102
RTVSPropertyOp29
 70
     1
102
RTVSPropertyOp30
 70
     1
102
RTVSPropertyOp31
 70
     1
102
RTVSPropertyOp32
 70
     1
102
RTVSPropertyOp33
 70
     1
102
RTVSPropertyOp34
 70
     1
102
RTVSPropertyOp35
 70
     1
102
RTVSPropertyOp36
 70
     1
102
RTVSPropertyOp37
 70
     1
102
RTVSPropertyOp38
 70
     1
102
RTVSPropertyOp39
 70
     1
102
RTVSPropertyOp40
 70
     1
102
RTVSPropertyOp41
 70
     1
102
RTVSPropertyOp42
 70
     1
102
RTVSPropertyOp43
 70
     1
102
RTVSPropertyOp44
 70
     1
102
RTVSPropertyOp45
 70
     1
102
RTVSPropertyOp46
 70
     1
102
RTVSPropertyOp47
 70
     1
102
RTVSPropertyOp48
 70
     1
102
RTVSPropertyOp49
 70
     1
102
RTVSPropertyOp50
 70
     1
102
RTVSPropertyOp51
 70
     0
102
RTVSPropertyOp52
 70
     0
102
RTVSPropertyOp53
 70
     1
102
RTVSPropertyOp54
 70
     1
102
RTVSPropertyOp55
 70
     1
102
RTVSPropertyOp56
 70
     1
102
RTVSPropertyOp57
 70
     1
102
RTVSPropertyOp58
 70
     1
102
RTVSPropertyOp59
 70
     1
102
RTVSPropertyOp60
 70
     1
102
RTVSPropertyOp61
 70
     1
102
RTVSPropertyOp62
 70
     1
  0
XRECORD
  5
488
102
{ACAD_REACTORS
330
487
102
}
330
487
100
AcDbXrecord
280
     1
102
RTVSPost2010Prop28
280
     0
102
RTVSPost2010PropOp28
 70
     1
102
RTVSPost2010Prop29
280
     1
102
RTVSPost2010PropOp29
 70
     1
102
RTVSPost2010Prop30
280
     1
102
RTVSPost2010PropOp30
 70
     1
102
RTVSPost2010Prop31
280
     0
102
RTVSPost2010PropOp31
 70
     1
102
RTVSPost2010Prop32
280
     0
102
RTVSPost2010PropOp32
 70
     1
102
RTVSPost2010Prop33
280
     0
102
RTVSPost2010PropOp33
 70
     1
102
RTVSPost2010Prop34
280
     0
102
RTVSPost2010PropOp34
 70
     1
102
RTVSPost2010Prop35
280
     0
102
RTVSPost2010PropOp35
 70
     1
102
RTVSPost2010Prop36
280
     0
102
RTVSPost2010PropOp36
 70
     1
102
RTVSPost2010Prop37
 90
       50
102
RTVSPost2010PropOp37
 70
     1
102
RTVSPost2010Prop38
140
0.0
102
RTVSPost2010PropOp38
 70
     1
102
RTVSPost2010Prop39
140
1.0
102
RTVSPost2010PropOp39
 70
     1
102
RTVSPost2010Prop40
 90
        0
102
RTVSPost2010PropOp40
 70
     1
102
RTVSPost2010Prop41ColorIndex
 90
       18
102
RTVSPost2010Prop41ColorRGB
 90
        0
102
RTVSPost2010PropOp41
 70
     1
102
RTVSPost2010Prop42
 90
       50
102
RTVSPost2010PropOp42
 70
     1
102
RTVSPost2010Prop43
 90
        3
102
RTVSPost2010PropOp43
 70
     1
102
RTVSPost2010Prop44ColorIndex
 90
        5
102
RTVSPost2010Prop44ColorRGB
 90
      255
102
RTVSPost2010PropOp44
 70
     1
102
RTVSPost2010Prop45
280
     0
102
RTVSPost2010PropOp45
 70
     1
102
RTVSPost2010Prop46
 90
       50
102
RTVSPost2010PropOp46
 70
     1
102
RTVSPost2010Prop47
 90
       50
102
RTVSPost2010PropOp47
 70
     1
102
RTVSPost2010Prop48
 90
       50
102
RTVSPost2010PropOp48
 70
     1
102
RTVSPost2010Prop49
280
     0
102
RTVSPost2010PropOp49
 70
     1
102
RTVSPost2010Prop50
 90
       50
102
RTVSPost2010PropOp50
 70
     1
102
RTVSPost2010Prop51ColorIndex
 90
      256
102
RTVSPost2010Prop51ColorRGB
 90
-16777216
102
RTVSPost2010PropOp51
 70
     0
102
RTVSPost2010Prop52
140
1.0
102
RTVSPost2010PropOp52
 70
     0
102
RTVSPost2010Prop53
 90
        2
102
RTVSPost2010PropOp53
 70
     1
102
RTVSPost2010Prop54
  1
strokes_ogs.tif
102
RTVSPost2010PropOp54
 70
     1
102
RTVSPost2010Prop55
280
     0
102
RTVSPost2010PropOp55
 70
     1
102
RTVSPost2010Prop56
140
1.0
102
RTVSPost2010PropOp56
 70
     1
102
RTVSPost2010Prop57
140
1.0
102
RTVSPost2010PropOp57
 70
     1
102
RTVSPropertyOp0
 70
     1
102
RTVSPropertyOp1
 70
     1
102
RTVSPropertyOp2
 70
     1
102
RTVSPropertyOp3
 70
     1
102
RTVSPropertyOp4
 70
     1
102
RTVSPropertyOp5
 70
     1
102
RTVSPropertyOp6
 70
     1
102
RTVSPropertyOp7
 70
     1
102
RTVSPropertyOp8
 70
     1
102
RTVSPropertyOp9
 70
     1
102
RTVSPropertyOp10
 70
     1
102
RTVSPropertyOp11
 70
     1
102
RTVSPropertyOp12
 70
     1
102
RTVSPropertyOp13
 70
     1
102
RTVSPropertyOp14
 70
     1
102
RTVSPropertyOp15
 70
     1
102
RTVSPropertyOp16
 70
     1
102
RTVSPropertyOp17
 70
     1
102
RTVSPropertyOp18
 70
     1
102
RTVSPropertyOp19
 70
     1
102
RTVSPropertyOp20
 70
     1
102
RTVSPropertyOp21
 70
     1
102
RTVSPropertyOp22
 70
     1
102
RTVSPropertyOp23
 70
     1
102
RTVSPropertyOp24
 70
     1
102
RTVSPropertyOp25
 70
     1
102
RTVSPropertyOp26
 70
     1
102
RTVSPropertyOp27
 70
     1
102
RTVSPropertyOp28
 70
     1
102
RTVSPropertyOp29
 70
     1
102
RTVSPropertyOp30
 70
     1
102
RTVSPropertyOp31
 70
     1
102
RTVSPropertyOp32
 70
     1
102
RTVSPropertyOp33
 70
     1
102
RTVSPropertyOp34
 70
     1
102
RTVSPropertyOp35
 70
     1
102
RTVSPropertyOp36
 70
     1
102
RTVSPropertyOp37
 70
     1
102
RTVSPropertyOp38
 70
     1
102
RTVSPropertyOp39
 70
     1
102
RTVSPropertyOp40
 70
     1
102
RTVSPropertyOp41
 70
     1
102
RTVSPropertyOp42
 70
     1
102
RTVSPropertyOp43
 70
     1
102
RTVSPropertyOp44
 70
     1
102
RTVSPropertyOp45
 70
     1
102
RTVSPropertyOp46
 70
     1
102
RTVSPropertyOp47
 70
     1
102
RTVSPropertyOp48
 70
     1
102
RTVSPropertyOp49
 70
     1
102
RTVSPropertyOp50
 70
     1
102
RTVSPropertyOp51
 70
     0
102
RTVSPropertyOp52
 70
     0
102
RTVSPropertyOp53
 70
     1
102
RTVSPropertyOp54
 70
     1
102
RTVSPropertyOp55
 70
     1
102
RTVSPropertyOp56
 70
     1
102
RTVSPropertyOp57
 70
     1
102
RTVSPropertyOp58
 70
     1
102
RTVSPropertyOp59
 70
     1
102
RTVSPropertyOp60
 70
     1
102
RTVSPropertyOp61
 70
     1
102
RTVSPropertyOp62
 70
     1
  0
XRECORD
  5
48A
102
{ACAD_REACTORS
330
489
102
}
330
489
100
AcDbXrecord
280
     1
102
RTVSPost2010Prop28
280
     0
102
RTVSPost2010PropOp28
 70
     1
102
RTVSPost2010Prop29
280
     1
102
RTVSPost2010PropOp29
 70
     1
102
RTVSPost2010Prop30
280
     1
102
RTVSPost2010PropOp30
 70
     1
102
RTVSPost2010Prop31
280
     0
102
RTVSPost2010PropOp31
 70
     1
102
RTVSPost2010Prop32
280
     0
102
RTVSPost2010PropOp32
 70
     1
102
RTVSPost2010Prop33
280
     0
102
RTVSPost2010PropOp33
 70
     1
102
RTVSPost2010Prop34
280
     0
102
RTVSPost2010PropOp34
 70
     1
102
RTVSPost2010Prop35
280
     0
102
RTVSPost2010PropOp35
 70
     1
102
RTVSPost2010Prop36
280
     0
102
RTVSPost2010PropOp36
 70
     1
102
RTVSPost2010Prop37
 90
       50
102
RTVSPost2010PropOp37
 70
     1
102
RTVSPost2010Prop38
140
0.0
102
RTVSPost2010PropOp38
 70
     1
102
RTVSPost2010Prop39
140
1.0
102
RTVSPost2010PropOp39
 70
     1
102
RTVSPost2010Prop40
 90
        0
102
RTVSPost2010PropOp40
 70
     1
102
RTVSPost2010Prop41ColorIndex
 90
       18
102
RTVSPost2010Prop41ColorRGB
 90
        0
102
RTVSPost2010PropOp41
 70
     1
102
RTVSPost2010Prop42
 90
       50
102
RTVSPost2010PropOp42
 70
     1
102
RTVSPost2010Prop43
 90
        3
102
RTVSPost2010PropOp43
 70
     1
102
RTVSPost2010Prop44ColorIndex
 90
        5
102
RTVSPost2010Prop44ColorRGB
 90
      255
102
RTVSPost2010PropOp44
 70
     1
102
RTVSPost2010Prop45
280
     0
102
RTVSPost2010PropOp45
 70
     1
102
RTVSPost2010Prop46
 90
       50
102
RTVSPost2010PropOp46
 70
     1
102
RTVSPost2010Prop47
 90
       50
102
RTVSPost2010PropOp47
 70
     1
102
RTVSPost2010Prop48
 90
       50
102
RTVSPost2010PropOp48
 70
     1
102
RTVSPost2010Prop49
280
     0
102
RTVSPost2010PropOp49
 70
     1
102
RTVSPost2010Prop50
 90
       50
102
RTVSPost2010PropOp50
 70
     1
102
RTVSPost2010Prop51ColorIndex
 90
      256
102
RTVSPost2010Prop51ColorRGB
 90
-16777216
102
RTVSPost2010PropOp51
 70
     0
102
RTVSPost2010Prop52
140
1.0
102
RTVSPost2010PropOp52
 70
     0
102
RTVSPost2010Prop53
 90
        2
102
RTVSPost2010PropOp53
 70
     1
102
RTVSPost2010Prop54
  1
strokes_ogs.tif
102
RTVSPost2010PropOp54
 70
     1
102
RTVSPost2010Prop55
280
     0
102
RTVSPost2010PropOp55
 70
     1
102
RTVSPost2010Prop56
140
1.0
102
RTVSPost2010PropOp56
 70
     1
102
RTVSPost2010Prop57
140
1.0
102
RTVSPost2010PropOp57
 70
     1
102
RTVSPropertyOp0
 70
     1
102
RTVSPropertyOp1
 70
     1
102
RTVSPropertyOp2
 70
     1
102
RTVSPropertyOp3
 70
     1
102
RTVSPropertyOp4
 70
     1
102
RTVSPropertyOp5
 70
     1
102
RTVSPropertyOp6
 70
     1
102
RTVSPropertyOp7
 70
     1
102
RTVSPropertyOp8
 70
     1
102
RTVSPropertyOp9
 70
     1
102
RTVSPropertyOp10
 70
     1
102
RTVSPropertyOp11
 70
     1
102
RTVSPropertyOp12
 70
     1
102
RTVSPropertyOp13
 70
     1
102
RTVSPropertyOp14
 70
     1
102
RTVSPropertyOp15
 70
     1
102
RTVSPropertyOp16
 70
     1
102
RTVSPropertyOp17
 70
     1
102
RTVSPropertyOp18
 70
     1
102
RTVSPropertyOp19
 70
     1
102
RTVSPropertyOp20
 70
     1
102
RTVSPropertyOp21
 70
     1
102
RTVSPropertyOp22
 70
     1
102
RTVSPropertyOp23
 70
     1
102
RTVSPropertyOp24
 70
     1
102
RTVSPropertyOp25
 70
     1
102
RTVSPropertyOp26
 70
     1
102
RTVSPropertyOp27
 70
     1
102
RTVSPropertyOp28
 70
     1
102
RTVSPropertyOp29
 70
     1
102
RTVSPropertyOp30
 70
     1
102
RTVSPropertyOp31
 70
     1
102
RTVSPropertyOp32
 70
     1
102
RTVSPropertyOp33
 70
     1
102
RTVSPropertyOp34
 70
     1
102
RTVSPropertyOp35
 70
     1
102
RTVSPropertyOp36
 70
     1
102
RTVSPropertyOp37
 70
     1
102
RTVSPropertyOp38
 70
     1
102
RTVSPropertyOp39
 70
     1
102
RTVSPropertyOp40
 70
     1
102
RTVSPropertyOp41
 70
     1
102
RTVSPropertyOp42
 70
     1
102
RTVSPropertyOp43
 70
     1
102
RTVSPropertyOp44
 70
     1
102
RTVSPropertyOp45
 70
     1
102
RTVSPropertyOp46
 70
     1
102
RTVSPropertyOp47
 70
     1
102
RTVSPropertyOp48
 70
     1
102
RTVSPropertyOp49
 70
     1
102
RTVSPropertyOp50
 70
     1
102
RTVSPropertyOp51
 70
     0
102
RTVSPropertyOp52
 70
     0
102
RTVSPropertyOp53
 70
     1
102
RTVSPropertyOp54
 70
     1
102
RTVSPropertyOp55
 70
     1
102
RTVSPropertyOp56
 70
     1
102
RTVSPropertyOp57
 70
     1
102
RTVSPropertyOp58
 70
     1
102
RTVSPropertyOp59
 70
     1
102
RTVSPropertyOp60
 70
     1
102
RTVSPropertyOp61
 70
     1
102
RTVSPropertyOp62
 70
     1
  0
XRECORD
  5
48C
102
{ACAD_REACTORS
330
48B
102
}
330
48B
100
AcDbXrecord
280
     1
102
RTVSPost2010Prop28
280
     0
102
RTVSPost2010PropOp28
 70
     1
102
RTVSPost2010Prop29
280
     1
102
RTVSPost2010PropOp29
 70
     1
102
RTVSPost2010Prop30
280
     1
102
RTVSPost2010PropOp30
 70
     1
102
RTVSPost2010Prop31
280
     0
102
RTVSPost2010PropOp31
 70
     1
102
RTVSPost2010Prop32
280
     0
102
RTVSPost2010PropOp32
 70
     1
102
RTVSPost2010Prop33
280
     0
102
RTVSPost2010PropOp33
 70
     1
102
RTVSPost2010Prop34
280
     0
102
RTVSPost2010PropOp34
 70
     1
102
RTVSPost2010Prop35
280
     0
102
RTVSPost2010PropOp35
 70
     1
102
RTVSPost2010Prop36
280
     0
102
RTVSPost2010PropOp36
 70
     1
102
RTVSPost2010Prop37
 90
       50
102
RTVSPost2010PropOp37
 70
     1
102
RTVSPost2010Prop38
140
0.0
102
RTVSPost2010PropOp38
 70
     1
102
RTVSPost2010Prop39
140
1.0
102
RTVSPost2010PropOp39
 70
     1
102
RTVSPost2010Prop40
 90
        0
102
RTVSPost2010PropOp40
 70
     1
102
RTVSPost2010Prop41ColorIndex
 90
       18
102
RTVSPost2010Prop41ColorRGB
 90
        0
102
RTVSPost2010PropOp41
 70
     1
102
RTVSPost2010Prop42
 90
       50
102
RTVSPost2010PropOp42
 70
     1
102
RTVSPost2010Prop43
 90
        3
102
RTVSPost2010PropOp43
 70
     1
102
RTVSPost2010Prop44ColorIndex
 90
        5
102
RTVSPost2010Prop44ColorRGB
 90
      255
102
RTVSPost2010PropOp44
 70
     1
102
RTVSPost2010Prop45
280
     0
102
RTVSPost2010PropOp45
 70
     1
102
RTVSPost2010Prop46
 90
       50
102
RTVSPost2010PropOp46
 70
     1
102
RTVSPost2010Prop47
 90
       50
102
RTVSPost2010PropOp47
 70
     1
102
RTVSPost2010Prop48
 90
       50
102
RTVSPost2010PropOp48
 70
     1
102
RTVSPost2010Prop49
280
     0
102
RTVSPost2010PropOp49
 70
     1
102
RTVSPost2010Prop50
 90
       50
102
RTVSPost2010PropOp50
 70
     1
102
RTVSPost2010Prop51ColorIndex
 90
      256
102
RTVSPost2010Prop51ColorRGB
 90
-16777216
102
RTVSPost2010PropOp51
 70
     0
102
RTVSPost2010Prop52
140
1.0
102
RTVSPost2010PropOp52
 70
     0
102
RTVSPost2010Prop53
 90
        2
102
RTVSPost2010PropOp53
 70
     1
102
RTVSPost2010Prop54
  1
strokes_ogs.tif
102
RTVSPost2010PropOp54
 70
     1
102
RTVSPost2010Prop55
280
     0
102
RTVSPost2010PropOp55
 70
     1
102
RTVSPost2010Prop56
140
1.0
102
RTVSPost2010PropOp56
 70
     1
102
RTVSPost2010Prop57
140
1.0
102
RTVSPost2010PropOp57
 70
     1
102
RTVSPropertyOp0
 70
     1
102
RTVSPropertyOp1
 70
     1
102
RTVSPropertyOp2
 70
     1
102
RTVSPropertyOp3
 70
     1
102
RTVSPropertyOp4
 70
     1
102
RTVSPropertyOp5
 70
     1
102
RTVSPropertyOp6
 70
     1
102
RTVSPropertyOp7
 70
     1
102
RTVSPropertyOp8
 70
     1
102
RTVSPropertyOp9
 70
     1
102
RTVSPropertyOp10
 70
     1
102
RTVSPropertyOp11
 70
     1
102
RTVSPropertyOp12
 70
     1
102
RTVSPropertyOp13
 70
     1
102
RTVSPropertyOp14
 70
     1
102
RTVSPropertyOp15
 70
     1
102
RTVSPropertyOp16
 70
     1
102
RTVSPropertyOp17
 70
     1
102
RTVSPropertyOp18
 70
     1
102
RTVSPropertyOp19
 70
     1
102
RTVSPropertyOp20
 70
     1
102
RTVSPropertyOp21
 70
     1
102
RTVSPropertyOp22
 70
     1
102
RTVSPropertyOp23
 70
     1
102
RTVSPropertyOp24
 70
     1
102
RTVSPropertyOp25
 70
     1
102
RTVSPropertyOp26
 70
     1
102
RTVSPropertyOp27
 70
     1
102
RTVSPropertyOp28
 70
     1
102
RTVSPropertyOp29
 70
     1
102
RTVSPropertyOp30
 70
     1
102
RTVSPropertyOp31
 70
     1
102
RTVSPropertyOp32
 70
     1
102
RTVSPropertyOp33
 70
     1
102
RTVSPropertyOp34
 70
     1
102
RTVSPropertyOp35
 70
     1
102
RTVSPropertyOp36
 70
     1
102
RTVSPropertyOp37
 70
     1
102
RTVSPropertyOp38
 70
     1
102
RTVSPropertyOp39
 70
     1
102
RTVSPropertyOp40
 70
     1
102
RTVSPropertyOp41
 70
     1
102
RTVSPropertyOp42
 70
     1
102
RTVSPropertyOp43
 70
     1
102
RTVSPropertyOp44
 70
     1
102
RTVSPropertyOp45
 70
     1
102
RTVSPropertyOp46
 70
     1
102
RTVSPropertyOp47
 70
     1
102
RTVSPropertyOp48
 70
     1
102
RTVSPropertyOp49
 70
     1
102
RTVSPropertyOp50
 70
     1
102
RTVSPropertyOp51
 70
     0
102
RTVSPropertyOp52
 70
     0
102
RTVSPropertyOp53
 70
     1
102
RTVSPropertyOp54
 70
     1
102
RTVSPropertyOp55
 70
     1
102
RTVSPropertyOp56
 70
     1
102
RTVSPropertyOp57
 70
     1
102
RTVSPropertyOp58
 70
     1
102
RTVSPropertyOp59
 70
     1
102
RTVSPropertyOp60
 70
     1
102
RTVSPropertyOp61
 70
     1
102
RTVSPropertyOp62
 70
     1
  0
XRECORD
  5
48E
102
{ACAD_REACTORS
330
48D
102
}
330
48D
100
AcDbXrecord
280
     1
102
RTVSPost2010Prop28
280
     0
102
RTVSPost2010PropOp28
 70
     1
102
RTVSPost2010Prop29
280
     1
102
RTVSPost2010PropOp29
 70
     1
102
RTVSPost2010Prop30
280
     1
102
RTVSPost2010PropOp30
 70
     1
102
RTVSPost2010Prop31
280
     0
102
RTVSPost2010PropOp31
 70
     1
102
RTVSPost2010Prop32
280
     0
102
RTVSPost2010PropOp32
 70
     1
102
RTVSPost2010Prop33
280
     0
102
RTVSPost2010PropOp33
 70
     1
102
RTVSPost2010Prop34
280
     0
102
RTVSPost2010PropOp34
 70
     1
102
RTVSPost2010Prop35
280
     0
102
RTVSPost2010PropOp35
 70
     1
102
RTVSPost2010Prop36
280
     0
102
RTVSPost2010PropOp36
 70
     1
102
RTVSPost2010Prop37
 90
       50
102
RTVSPost2010PropOp37
 70
     1
102
RTVSPost2010Prop38
140
0.0
102
RTVSPost2010PropOp38
 70
     1
102
RTVSPost2010Prop39
140
1.0
102
RTVSPost2010PropOp39
 70
     1
102
RTVSPost2010Prop40
 90
        0
102
RTVSPost2010PropOp40
 70
     1
102
RTVSPost2010Prop41ColorIndex
 90
       18
102
RTVSPost2010Prop41ColorRGB
 90
        0
102
RTVSPost2010PropOp41
 70
     1
102
RTVSPost2010Prop42
 90
       50
102
RTVSPost2010PropOp42
 70
     1
102
RTVSPost2010Prop43
 90
        3
102
RTVSPost2010PropOp43
 70
     1
102
RTVSPost2010Prop44ColorIndex
 90
        5
102
RTVSPost2010Prop44ColorRGB
 90
      255
102
RTVSPost2010PropOp44
 70
     1
102
RTVSPost2010Prop45
280
     0
102
RTVSPost2010PropOp45
 70
     1
102
RTVSPost2010Prop46
 90
       50
102
RTVSPost2010PropOp46
 70
     1
102
RTVSPost2010Prop47
 90
       50
102
RTVSPost2010PropOp47
 70
     1
102
RTVSPost2010Prop48
 90
       50
102
RTVSPost2010PropOp48
 70
     1
102
RTVSPost2010Prop49
280
     0
102
RTVSPost2010PropOp49
 70
     1
102
RTVSPost2010Prop50
 90
       50
102
RTVSPost2010PropOp50
 70
     1
102
RTVSPost2010Prop51ColorIndex
 90
      256
102
RTVSPost2010Prop51ColorRGB
 90
-16777216
102
RTVSPost2010PropOp51
 70
     0
102
RTVSPost2010Prop52
140
1.0
102
RTVSPost2010PropOp52
 70
     0
102
RTVSPost2010Prop53
 90
        2
102
RTVSPost2010PropOp53
 70
     1
102
RTVSPost2010Prop54
  1
strokes_ogs.tif
102
RTVSPost2010PropOp54
 70
     1
102
RTVSPost2010Prop55
280
     0
102
RTVSPost2010PropOp55
 70
     1
102
RTVSPost2010Prop56
140
1.0
102
RTVSPost2010PropOp56
 70
     1
102
RTVSPost2010Prop57
140
1.0
102
RTVSPost2010PropOp57
 70
     1
102
RTVSPropertyOp0
 70
     1
102
RTVSPropertyOp1
 70
     1
102
RTVSPropertyOp2
 70
     1
102
RTVSPropertyOp3
 70
     1
102
RTVSPropertyOp4
 70
     1
102
RTVSPropertyOp5
 70
     1
102
RTVSPropertyOp6
 70
     1
102
RTVSPropertyOp7
 70
     1
102
RTVSPropertyOp8
 70
     1
102
RTVSPropertyOp9
 70
     1
102
RTVSPropertyOp10
 70
     1
102
RTVSPropertyOp11
 70
     1
102
RTVSPropertyOp12
 70
     1
102
RTVSPropertyOp13
 70
     1
102
RTVSPropertyOp14
 70
     1
102
RTVSPropertyOp15
 70
     1
102
RTVSPropertyOp16
 70
     1
102
RTVSPropertyOp17
 70
     1
102
RTVSPropertyOp18
 70
     1
102
RTVSPropertyOp19
 70
     1
102
RTVSPropertyOp20
 70
     1
102
RTVSPropertyOp21
 70
     1
102
RTVSPropertyOp22
 70
     1
102
RTVSPropertyOp23
 70
     1
102
RTVSPropertyOp24
 70
     1
102
RTVSPropertyOp25
 70
     1
102
RTVSPropertyOp26
 70
     1
102
RTVSPropertyOp27
 70
     1
102
RTVSPropertyOp28
 70
     1
102
RTVSPropertyOp29
 70
     1
102
RTVSPropertyOp30
 70
     1
102
RTVSPropertyOp31
 70
     1
102
RTVSPropertyOp32
 70
     1
102
RTVSPropertyOp33
 70
     1
102
RTVSPropertyOp34
 70
     1
102
RTVSPropertyOp35
 70
     1
102
RTVSPropertyOp36
 70
     1
102
RTVSPropertyOp37
 70
     1
102
RTVSPropertyOp38
 70
     1
102
RTVSPropertyOp39
 70
     1
102
RTVSPropertyOp40
 70
     1
102
RTVSPropertyOp41
 70
     1
102
RTVSPropertyOp42
 70
     1
102
RTVSPropertyOp43
 70
     1
102
RTVSPropertyOp44
 70
     1
102
RTVSPropertyOp45
 70
     1
102
RTVSPropertyOp46
 70
     1
102
RTVSPropertyOp47
 70
     1
102
RTVSPropertyOp48
 70
     1
102
RTVSPropertyOp49
 70
     1
102
RTVSPropertyOp50
 70
     1
102
RTVSPropertyOp51
 70
     0
102
RTVSPropertyOp52
 70
     0
102
RTVSPropertyOp53
 70
     1
102
RTVSPropertyOp54
 70
     1
102
RTVSPropertyOp55
 70
     1
102
RTVSPropertyOp56
 70
     1
102
RTVSPropertyOp57
 70
     1
102
RTVSPropertyOp58
 70
     1
102
RTVSPropertyOp59
 70
     1
102
RTVSPropertyOp60
 70
     1
102
RTVSPropertyOp61
 70
     1
102
RTVSPropertyOp62
 70
     1
  0
XRECORD
  5
496
102
{ACAD_REACTORS
330
495
102
}
330
495
100
AcDbXrecord
280
     1
102
RTVSPost2010Prop28
280
     0
102
RTVSPost2010PropOp28
 70
     1
102
RTVSPost2010Prop29
280
     1
102
RTVSPost2010PropOp29
 70
     1
102
RTVSPost2010Prop30
280
     1
102
RTVSPost2010PropOp30
 70
     1
102
RTVSPost2010Prop31
280
     0
102
RTVSPost2010PropOp31
 70
     1
102
RTVSPost2010Prop32
280
     0
102
RTVSPost2010PropOp32
 70
     1
102
RTVSPost2010Prop33
280
     0
102
RTVSPost2010PropOp33
 70
     1
102
RTVSPost2010Prop34
280
     0
102
RTVSPost2010PropOp34
 70
     1
102
RTVSPost2010Prop35
280
     0
102
RTVSPost2010PropOp35
 70
     1
102
RTVSPost2010Prop36
280
     0
102
RTVSPost2010PropOp36
 70
     1
102
RTVSPost2010Prop37
 90
       50
102
RTVSPost2010PropOp37
 70
     1
102
RTVSPost2010Prop38
140
0.0
102
RTVSPost2010PropOp38
 70
     1
102
RTVSPost2010Prop39
140
1.0
102
RTVSPost2010PropOp39
 70
     1
102
RTVSPost2010Prop40
 90
        0
102
RTVSPost2010PropOp40
 70
     1
102
RTVSPost2010Prop41ColorIndex
 90
       18
102
RTVSPost2010Prop41ColorRGB
 90
        0
102
RTVSPost2010PropOp41
 70
     1
102
RTVSPost2010Prop42
 90
       50
102
RTVSPost2010PropOp42
 70
     1
102
RTVSPost2010Prop43
 90
        3
102
RTVSPost2010PropOp43
 70
     1
102
RTVSPost2010Prop44ColorIndex
 90
        5
102
RTVSPost2010Prop44ColorRGB
 90
      255
102
RTVSPost2010PropOp44
 70
     1
102
RTVSPost2010Prop45
280
     0
102
RTVSPost2010PropOp45
 70
     1
102
RTVSPost2010Prop46
 90
       50
102
RTVSPost2010PropOp46
 70
     1
102
RTVSPost2010Prop47
 90
       50
102
RTVSPost2010PropOp47
 70
     1
102
RTVSPost2010Prop48
 90
       50
102
RTVSPost2010PropOp48
 70
     1
102
RTVSPost2010Prop49
280
     0
102
RTVSPost2010PropOp49
 70
     1
102
RTVSPost2010Prop50
 90
       50
102
RTVSPost2010PropOp50
 70
     1
102
RTVSPost2010Prop51ColorIndex
 90
      256
102
RTVSPost2010Prop51ColorRGB
 90
-16777216
102
RTVSPost2010PropOp51
 70
     0
102
RTVSPost2010Prop52
140
1.0
102
RTVSPost2010PropOp52
 70
     0
102
RTVSPost2010Prop53
 90
        2
102
RTVSPost2010PropOp53
 70
     1
102
RTVSPost2010Prop54
  1
strokes_ogs.tif
102
RTVSPost2010PropOp54
 70
     1
102
RTVSPost2010Prop55
280
     0
102
RTVSPost2010PropOp55
 70
     1
102
RTVSPost2010Prop56
140
1.0
102
RTVSPost2010PropOp56
 70
     1
102
RTVSPost2010Prop57
140
1.0
102
RTVSPost2010PropOp57
 70
     1
102
RTVSPropertyOp0
 70
     1
102
RTVSPropertyOp1
 70
     1
102
RTVSPropertyOp2
 70
     1
102
RTVSPropertyOp3
 70
     1
102
RTVSPropertyOp4
 70
     1
102
RTVSPropertyOp5
 70
     1
102
RTVSPropertyOp6
 70
     1
102
RTVSPropertyOp7
 70
     1
102
RTVSPropertyOp8
 70
     1
102
RTVSPropertyOp9
 70
     1
102
RTVSPropertyOp10
 70
     1
102
RTVSPropertyOp11
 70
     1
102
RTVSPropertyOp12
 70
     1
102
RTVSPropertyOp13
 70
     1
102
RTVSPropertyOp14
 70
     1
102
RTVSPropertyOp15
 70
     1
102
RTVSPropertyOp16
 70
     1
102
RTVSPropertyOp17
 70
     1
102
RTVSPropertyOp18
 70
     1
102
RTVSPropertyOp19
 70
     1
102
RTVSPropertyOp20
 70
     1
102
RTVSPropertyOp21
 70
     1
102
RTVSPropertyOp22
 70
     1
102
RTVSPropertyOp23
 70
     1
102
RTVSPropertyOp24
 70
     1
102
RTVSPropertyOp25
 70
     1
102
RTVSPropertyOp26
 70
     1
102
RTVSPropertyOp27
 70
     1
102
RTVSPropertyOp28
 70
     1
102
RTVSPropertyOp29
 70
     1
102
RTVSPropertyOp30
 70
     1
102
RTVSPropertyOp31
 70
     1
102
RTVSPropertyOp32
 70
     1
102
RTVSPropertyOp33
 70
     1
102
RTVSPropertyOp34
 70
     1
102
RTVSPropertyOp35
 70
     1
102
RTVSPropertyOp36
 70
     1
102
RTVSPropertyOp37
 70
     1
102
RTVSPropertyOp38
 70
     1
102
RTVSPropertyOp39
 70
     1
102
RTVSPropertyOp40
 70
     1
102
RTVSPropertyOp41
 70
     1
102
RTVSPropertyOp42
 70
     1
102
RTVSPropertyOp43
 70
     1
102
RTVSPropertyOp44
 70
     1
102
RTVSPropertyOp45
 70
     1
102
RTVSPropertyOp46
 70
     1
102
RTVSPropertyOp47
 70
     1
102
RTVSPropertyOp48
 70
     1
102
RTVSPropertyOp49
 70
     1
102
RTVSPropertyOp50
 70
     1
102
RTVSPropertyOp51
 70
     0
102
RTVSPropertyOp52
 70
     0
102
RTVSPropertyOp53
 70
     1
102
RTVSPropertyOp54
 70
     1
102
RTVSPropertyOp55
 70
     1
102
RTVSPropertyOp56
 70
     1
102
RTVSPropertyOp57
 70
     1
102
RTVSPropertyOp58
 70
     1
102
RTVSPropertyOp59
 70
     1
102
RTVSPropertyOp60
 70
     1
102
RTVSPropertyOp61
 70
     1
102
RTVSPropertyOp62
 70
     1
  0
XRECORD
  5
4A8
102
{ACAD_REACTORS
330
4A7
102
}
330
4A7
100
AcDbXrecord
280
     1
102
RTVSPost2010Prop28
280
     0
102
RTVSPost2010PropOp28
 70
     1
102
RTVSPost2010Prop29
280
     1
102
RTVSPost2010PropOp29
 70
     1
102
RTVSPost2010Prop30
280
     1
102
RTVSPost2010PropOp30
 70
     1
102
RTVSPost2010Prop31
280
     0
102
RTVSPost2010PropOp31
 70
     1
102
RTVSPost2010Prop32
280
     0
102
RTVSPost2010PropOp32
 70
     1
102
RTVSPost2010Prop33
280
     0
102
RTVSPost2010PropOp33
 70
     1
102
RTVSPost2010Prop34
280
     0
102
RTVSPost2010PropOp34
 70
     1
102
RTVSPost2010Prop35
280
     0
102
RTVSPost2010PropOp35
 70
     1
102
RTVSPost2010Prop36
280
     0
102
RTVSPost2010PropOp36
 70
     1
102
RTVSPost2010Prop37
 90
       50
102
RTVSPost2010PropOp37
 70
     1
102
RTVSPost2010Prop38
140
0.0
102
RTVSPost2010PropOp38
 70
     1
102
RTVSPost2010Prop39
140
1.0
102
RTVSPost2010PropOp39
 70
     1
102
RTVSPost2010Prop40
 90
        0
102
RTVSPost2010PropOp40
 70
     1
102
RTVSPost2010Prop41ColorIndex
 90
       18
102
RTVSPost2010Prop41ColorRGB
 90
        0
102
RTVSPost2010PropOp41
 70
     1
102
RTVSPost2010Prop42
 90
       50
102
RTVSPost2010PropOp42
 70
     1
102
RTVSPost2010Prop43
 90
        3
102
RTVSPost2010PropOp43
 70
     1
102
RTVSPost2010Prop44ColorIndex
 90
        5
102
RTVSPost2010Prop44ColorRGB
 90
      255
102
RTVSPost2010PropOp44
 70
     1
102
RTVSPost2010Prop45
280
     0
102
RTVSPost2010PropOp45
 70
     1
102
RTVSPost2010Prop46
 90
       50
102
RTVSPost2010PropOp46
 70
     1
102
RTVSPost2010Prop47
 90
       50
102
RTVSPost2010PropOp47
 70
     1
102
RTVSPost2010Prop48
 90
       50
102
RTVSPost2010PropOp48
 70
     1
102
RTVSPost2010Prop49
280
     0
102
RTVSPost2010PropOp49
 70
     1
102
RTVSPost2010Prop50
 90
       50
102
RTVSPost2010PropOp50
 70
     1
102
RTVSPost2010Prop51ColorIndex
 90
      256
102
RTVSPost2010Prop51ColorRGB
 90
-16777216
102
RTVSPost2010PropOp51
 70
     0
102
RTVSPost2010Prop52
140
1.0
102
RTVSPost2010PropOp52
 70
     0
102
RTVSPost2010Prop53
 90
        2
102
RTVSPost2010PropOp53
 70
     1
102
RTVSPost2010Prop54
  1
strokes_ogs.tif
102
RTVSPost2010PropOp54
 70
     1
102
RTVSPost2010Prop55
280
     0
102
RTVSPost2010PropOp55
 70
     1
102
RTVSPost2010Prop56
140
1.0
102
RTVSPost2010PropOp56
 70
     1
102
RTVSPost2010Prop57
140
1.0
102
RTVSPost2010PropOp57
 70
     1
102
RTVSPropertyOp0
 70
     0
102
RTVSPropertyOp1
 70
     0
102
RTVSPropertyOp2
 70
     0
102
RTVSPropertyOp3
 70
     0
102
RTVSPropertyOp4
 70
     0
102
RTVSPropertyOp5
 70
     0
102
RTVSPropertyOp6
 70
     0
102
RTVSPropertyOp7
 70
     0
102
RTVSPropertyOp8
 70
     0
102
RTVSPropertyOp9
 70
     0
102
RTVSPropertyOp10
 70
     0
102
RTVSPropertyOp11
 70
     0
102
RTVSPropertyOp12
 70
     0
102
RTVSPropertyOp13
 70
     0
102
RTVSPropertyOp14
 70
     2
102
RTVSPropertyOp15
 70
     0
102
RTVSPropertyOp16
 70
     0
102
RTVSPropertyOp17
 70
     0
102
RTVSPropertyOp18
 70
     0
102
RTVSPropertyOp19
 70
     0
102
RTVSPropertyOp20
 70
     0
102
RTVSPropertyOp21
 70
     0
102
RTVSPropertyOp22
 70
     0
102
RTVSPropertyOp23
 70
     0
102
RTVSPropertyOp24
 70
     0
102
RTVSPropertyOp25
 70
     0
102
RTVSPropertyOp26
 70
     0
102
RTVSPropertyOp27
 70
     0
102
RTVSPropertyOp28
 70
     1
102
RTVSPropertyOp29
 70
     1
102
RTVSPropertyOp30
 70
     1
102
RTVSPropertyOp31
 70
     1
102
RTVSPropertyOp32
 70
     1
102
RTVSPropertyOp33
 70
     1
102
RTVSPropertyOp34
 70
     1
102
RTVSPropertyOp35
 70
     1
102
RTVSPropertyOp36
 70
     1
102
RTVSPropertyOp37
 70
     1
102
RTVSPropertyOp38
 70
     1
102
RTVSPropertyOp39
 70
     1
102
RTVSPropertyOp40
 70
     1
102
RTVSPropertyOp41
 70
     1
102
RTVSPropertyOp42
 70
     1
102
RTVSPropertyOp43
 70
     1
102
RTVSPropertyOp44
 70
     1
102
RTVSPropertyOp45
 70
     1
102
RTVSPropertyOp46
 70
     1
102
RTVSPropertyOp47
 70
     1
102
RTVSPropertyOp48
 70
     1
102
RTVSPropertyOp49
 70
     1
102
RTVSPropertyOp50
 70
     1
102
RTVSPropertyOp51
 70
     0
102
RTVSPropertyOp52
 70
     0
102
RTVSPropertyOp53
 70
     1
102
RTVSPropertyOp54
 70
     1
102
RTVSPropertyOp55
 70
     1
102
RTVSPropertyOp56
 70
     1
102
RTVSPropertyOp57
 70
     1
102
RTVSPropertyOp58
 70
     1
102
RTVSPropertyOp59
 70
     1
102
RTVSPropertyOp60
 70
     1
102
RTVSPropertyOp61
 70
     1
102
RTVSPropertyOp62
 70
     1
  0
XRECORD
  5
4A2
102
{ACAD_REACTORS
330
4A1
102
}
330
4A1
100
AcDbXrecord
280
     1
102
RTVSPost2010Prop28
280
     0
102
RTVSPost2010PropOp28
 70
     1
102
RTVSPost2010Prop29
280
     1
102
RTVSPost2010PropOp29
 70
     1
102
RTVSPost2010Prop30
280
     1
102
RTVSPost2010PropOp30
 70
     1
102
RTVSPost2010Prop31
280
     0
102
RTVSPost2010PropOp31
 70
     1
102
RTVSPost2010Prop32
280
     0
102
RTVSPost2010PropOp32
 70
     1
102
RTVSPost2010Prop33
280
     0
102
RTVSPost2010PropOp33
 70
     1
102
RTVSPost2010Prop34
280
     0
102
RTVSPost2010PropOp34
 70
     1
102
RTVSPost2010Prop35
280
     0
102
RTVSPost2010PropOp35
 70
     1
102
RTVSPost2010Prop36
280
     0
102
RTVSPost2010PropOp36
 70
     1
102
RTVSPost2010Prop37
 90
       50
102
RTVSPost2010PropOp37
 70
     1
102
RTVSPost2010Prop38
140
0.0
102
RTVSPost2010PropOp38
 70
     1
102
RTVSPost2010Prop39
140
1.0
102
RTVSPost2010PropOp39
 70
     1
102
RTVSPost2010Prop40
 90
        0
102
RTVSPost2010PropOp40
 70
     1
102
RTVSPost2010Prop41ColorIndex
 90
       18
102
RTVSPost2010Prop41ColorRGB
 90
        0
102
RTVSPost2010PropOp41
 70
     1
102
RTVSPost2010Prop42
 90
       50
102
RTVSPost2010PropOp42
 70
     1
102
RTVSPost2010Prop43
 90
        3
102
RTVSPost2010PropOp43
 70
     1
102
RTVSPost2010Prop44ColorIndex
 90
        5
102
RTVSPost2010Prop44ColorRGB
 90
      255
102
RTVSPost2010PropOp44
 70
     1
102
RTVSPost2010Prop45
280
     0
102
RTVSPost2010PropOp45
 70
     1
102
RTVSPost2010Prop46
 90
       50
102
RTVSPost2010PropOp46
 70
     1
102
RTVSPost2010Prop47
 90
       50
102
RTVSPost2010PropOp47
 70
     1
102
RTVSPost2010Prop48
 90
       50
102
RTVSPost2010PropOp48
 70
     1
102
RTVSPost2010Prop49
280
     0
102
RTVSPost2010PropOp49
 70
     1
102
RTVSPost2010Prop50
 90
       50
102
RTVSPost2010PropOp50
 70
     1
102
RTVSPost2010Prop51ColorIndex
 90
      256
102
RTVSPost2010Prop51ColorRGB
 90
-16777216
102
RTVSPost2010PropOp51
 70
     0
102
RTVSPost2010Prop52
140
1.0
102
RTVSPost2010PropOp52
 70
     0
102
RTVSPost2010Prop53
 90
        2
102
RTVSPost2010PropOp53
 70
     1
102
RTVSPost2010Prop54
  1
strokes_ogs.tif
102
RTVSPost2010PropOp54
 70
     1
102
RTVSPost2010Prop55
280
     0
102
RTVSPost2010PropOp55
 70
     1
102
RTVSPost2010Prop56
140
1.0
102
RTVSPost2010PropOp56
 70
     1
102
RTVSPost2010Prop57
140
1.0
102
RTVSPost2010PropOp57
 70
     1
102
RTVSPropertyOp0
 70
     1
102
RTVSPropertyOp1
 70
     1
102
RTVSPropertyOp2
 70
     1
102
RTVSPropertyOp3
 70
     1
102
RTVSPropertyOp4
 70
     1
102
RTVSPropertyOp5
 70
     1
102
RTVSPropertyOp6
 70
     1
102
RTVSPropertyOp7
 70
     1
102
RTVSPropertyOp8
 70
     1
102
RTVSPropertyOp9
 70
     1
102
RTVSPropertyOp10
 70
     1
102
RTVSPropertyOp11
 70
     1
102
RTVSPropertyOp12
 70
     1
102
RTVSPropertyOp13
 70
     1
102
RTVSPropertyOp14
 70
     1
102
RTVSPropertyOp15
 70
     1
102
RTVSPropertyOp16
 70
     1
102
RTVSPropertyOp17
 70
     1
102
RTVSPropertyOp18
 70
     1
102
RTVSPropertyOp19
 70
     1
102
RTVSPropertyOp20
 70
     1
102
RTVSPropertyOp21
 70
     1
102
RTVSPropertyOp22
 70
     1
102
RTVSPropertyOp23
 70
     1
102
RTVSPropertyOp24
 70
     1
102
RTVSPropertyOp25
 70
     1
102
RTVSPropertyOp26
 70
     1
102
RTVSPropertyOp27
 70
     1
102
RTVSPropertyOp28
 70
     1
102
RTVSPropertyOp29
 70
     1
102
RTVSPropertyOp30
 70
     1
102
RTVSPropertyOp31
 70
     1
102
RTVSPropertyOp32
 70
     1
102
RTVSPropertyOp33
 70
     1
102
RTVSPropertyOp34
 70
     1
102
RTVSPropertyOp35
 70
     1
102
RTVSPropertyOp36
 70
     1
102
RTVSPropertyOp37
 70
     1
102
RTVSPropertyOp38
 70
     1
102
RTVSPropertyOp39
 70
     1
102
RTVSPropertyOp40
 70
     1
102
RTVSPropertyOp41
 70
     1
102
RTVSPropertyOp42
 70
     1
102
RTVSPropertyOp43
 70
     1
102
RTVSPropertyOp44
 70
     1
102
RTVSPropertyOp45
 70
     1
102
RTVSPropertyOp46
 70
     1
102
RTVSPropertyOp47
 70
     1
102
RTVSPropertyOp48
 70
     1
102
RTVSPropertyOp49
 70
     1
102
RTVSPropertyOp50
 70
     1
102
RTVSPropertyOp51
 70
     0
102
RTVSPropertyOp52
 70
     0
102
RTVSPropertyOp53
 70
     1
102
RTVSPropertyOp54
 70
     1
102
RTVSPropertyOp55
 70
     1
102
RTVSPropertyOp56
 70
     1
102
RTVSPropertyOp57
 70
     1
102
RTVSPropertyOp58
 70
     1
102
RTVSPropertyOp59
 70
     1
102
RTVSPropertyOp60
 70
     1
102
RTVSPropertyOp61
 70
     1
102
RTVSPropertyOp62
 70
     1
  0
XRECORD
  5
4AA
102
{ACAD_REACTORS
330
4A9
102
}
330
4A9
100
AcDbXrecord
280
     1
102
RTVSPost2010Prop28
280
     0
102
RTVSPost2010PropOp28
 70
     1
102
RTVSPost2010Prop29
280
     1
102
RTVSPost2010PropOp29
 70
     1
102
RTVSPost2010Prop30
280
     1
102
RTVSPost2010PropOp30
 70
     1
102
RTVSPost2010Prop31
280
     0
102
RTVSPost2010PropOp31
 70
     1
102
RTVSPost2010Prop32
280
     0
102
RTVSPost2010PropOp32
 70
     1
102
RTVSPost2010Prop33
280
     0
102
RTVSPost2010PropOp33
 70
     1
102
RTVSPost2010Prop34
280
     0
102
RTVSPost2010PropOp34
 70
     1
102
RTVSPost2010Prop35
280
     0
102
RTVSPost2010PropOp35
 70
     1
102
RTVSPost2010Prop36
280
     0
102
RTVSPost2010PropOp36
 70
     1
102
RTVSPost2010Prop37
 90
       50
102
RTVSPost2010PropOp37
 70
     1
102
RTVSPost2010Prop38
140
0.0
102
RTVSPost2010PropOp38
 70
     1
102
RTVSPost2010Prop39
140
1.0
102
RTVSPost2010PropOp39
 70
     1
102
RTVSPost2010Prop40
 90
        0
102
RTVSPost2010PropOp40
 70
     1
102
RTVSPost2010Prop41ColorIndex
 90
       18
102
RTVSPost2010Prop41ColorRGB
 90
        0
102
RTVSPost2010PropOp41
 70
     1
102
RTVSPost2010Prop42
 90
       50
102
RTVSPost2010PropOp42
 70
     1
102
RTVSPost2010Prop43
 90
        3
102
RTVSPost2010PropOp43
 70
     1
102
RTVSPost2010Prop44ColorIndex
 90
        5
102
RTVSPost2010Prop44ColorRGB
 90
      255
102
RTVSPost2010PropOp44
 70
     1
102
RTVSPost2010Prop45
280
     0
102
RTVSPost2010PropOp45
 70
     1
102
RTVSPost2010Prop46
 90
       50
102
RTVSPost2010PropOp46
 70
     1
102
RTVSPost2010Prop47
 90
       50
102
RTVSPost2010PropOp47
 70
     1
102
RTVSPost2010Prop48
 90
       50
102
RTVSPost2010PropOp48
 70
     1
102
RTVSPost2010Prop49
280
     0
102
RTVSPost2010PropOp49
 70
     1
102
RTVSPost2010Prop50
 90
       50
102
RTVSPost2010PropOp50
 70
     1
102
RTVSPost2010Prop51ColorIndex
 90
      256
102
RTVSPost2010Prop51ColorRGB
 90
-16777216
102
RTVSPost2010PropOp51
 70
     0
102
RTVSPost2010Prop52
140
1.0
102
RTVSPost2010PropOp52
 70
     0
102
RTVSPost2010Prop53
 90
        2
102
RTVSPost2010PropOp53
 70
     1
102
RTVSPost2010Prop54
  1
strokes_ogs.tif
102
RTVSPost2010PropOp54
 70
     1
102
RTVSPost2010Prop55
280
     0
102
RTVSPost2010PropOp55
 70
     1
102
RTVSPost2010Prop56
140
1.0
102
RTVSPost2010PropOp56
 70
     1
102
RTVSPost2010Prop57
140
1.0
102
RTVSPost2010PropOp57
 70
     1
102
RTVSPropertyOp0
 70
     0
102
RTVSPropertyOp1
 70
     0
102
RTVSPropertyOp2
 70
     0
102
RTVSPropertyOp3
 70
     0
102
RTVSPropertyOp4
 70
     0
102
RTVSPropertyOp5
 70
     0
102
RTVSPropertyOp6
 70
     0
102
RTVSPropertyOp7
 70
     0
102
RTVSPropertyOp8
 70
     0
102
RTVSPropertyOp9
 70
     0
102
RTVSPropertyOp10
 70
     0
102
RTVSPropertyOp11
 70
     0
102
RTVSPropertyOp12
 70
     0
102
RTVSPropertyOp13
 70
     0
102
RTVSPropertyOp14
 70
     2
102
RTVSPropertyOp15
 70
     0
102
RTVSPropertyOp16
 70
     0
102
RTVSPropertyOp17
 70
     0
102
RTVSPropertyOp18
 70
     0
102
RTVSPropertyOp19
 70
     0
102
RTVSPropertyOp20
 70
     0
102
RTVSPropertyOp21
 70
     0
102
RTVSPropertyOp22
 70
     0
102
RTVSPropertyOp23
 70
     0
102
RTVSPropertyOp24
 70
     0
102
RTVSPropertyOp25
 70
     0
102
RTVSPropertyOp26
 70
     0
102
RTVSPropertyOp27
 70
     0
102
RTVSPropertyOp28
 70
     1
102
RTVSPropertyOp29
 70
     1
102
RTVSPropertyOp30
 70
     1
102
RTVSPropertyOp31
 70
     1
102
RTVSPropertyOp32
 70
     1
102
RTVSPropertyOp33
 70
     1
102
RTVSPropertyOp34
 70
     1
102
RTVSPropertyOp35
 70
     1
102
RTVSPropertyOp36
 70
     1
102
RTVSPropertyOp37
 70
     1
102
RTVSPropertyOp38
 70
     1
102
RTVSPropertyOp39
 70
     1
102
RTVSPropertyOp40
 70
     1
102
RTVSPropertyOp41
 70
     1
102
RTVSPropertyOp42
 70
     1
102
RTVSPropertyOp43
 70
     1
102
RTVSPropertyOp44
 70
     1
102
RTVSPropertyOp45
 70
     1
102
RTVSPropertyOp46
 70
     1
102
RTVSPropertyOp47
 70
     1
102
RTVSPropertyOp48
 70
     1
102
RTVSPropertyOp49
 70
     1
102
RTVSPropertyOp50
 70
     1
102
RTVSPropertyOp51
 70
     0
102
RTVSPropertyOp52
 70
     0
102
RTVSPropertyOp53
 70
     1
102
RTVSPropertyOp54
 70
     1
102
RTVSPropertyOp55
 70
     1
102
RTVSPropertyOp56
 70
     1
102
RTVSPropertyOp57
 70
     1
102
RTVSPropertyOp58
 70
     1
102
RTVSPropertyOp59
 70
     1
102
RTVSPropertyOp60
 70
     1
102
RTVSPropertyOp61
 70
     1
102
RTVSPropertyOp62
 70
     1
  0
XRECORD
  5
49A
102
{ACAD_REACTORS
330
499
102
}
330
499
100
AcDbXrecord
280
     1
102
RTVSPost2010Prop28
280
     0
102
RTVSPost2010PropOp28
 70
     1
102
RTVSPost2010Prop29
280
     1
102
RTVSPost2010PropOp29
 70
     1
102
RTVSPost2010Prop30
280
     1
102
RTVSPost2010PropOp30
 70
     1
102
RTVSPost2010Prop31
280
     0
102
RTVSPost2010PropOp31
 70
     1
102
RTVSPost2010Prop32
280
     0
102
RTVSPost2010PropOp32
 70
     1
102
RTVSPost2010Prop33
280
     0
102
RTVSPost2010PropOp33
 70
     1
102
RTVSPost2010Prop34
280
     0
102
RTVSPost2010PropOp34
 70
     1
102
RTVSPost2010Prop35
280
     0
102
RTVSPost2010PropOp35
 70
     1
102
RTVSPost2010Prop36
280
     0
102
RTVSPost2010PropOp36
 70
     1
102
RTVSPost2010Prop37
 90
       50
102
RTVSPost2010PropOp37
 70
     1
102
RTVSPost2010Prop38
140
0.0
102
RTVSPost2010PropOp38
 70
     1
102
RTVSPost2010Prop39
140
1.0
102
RTVSPost2010PropOp39
 70
     1
102
RTVSPost2010Prop40
 90
        0
102
RTVSPost2010PropOp40
 70
     1
102
RTVSPost2010Prop41ColorIndex
 90
       18
102
RTVSPost2010Prop41ColorRGB
 90
        0
102
RTVSPost2010PropOp41
 70
     1
102
RTVSPost2010Prop42
 90
       50
102
RTVSPost2010PropOp42
 70
     1
102
RTVSPost2010Prop43
 90
        3
102
RTVSPost2010PropOp43
 70
     1
102
RTVSPost2010Prop44ColorIndex
 90
        5
102
RTVSPost2010Prop44ColorRGB
 90
      255
102
RTVSPost2010PropOp44
 70
     1
102
RTVSPost2010Prop45
280
     0
102
RTVSPost2010PropOp45
 70
     1
102
RTVSPost2010Prop46
 90
       50
102
RTVSPost2010PropOp46
 70
     1
102
RTVSPost2010Prop47
 90
       50
102
RTVSPost2010PropOp47
 70
     1
102
RTVSPost2010Prop48
 90
       50
102
RTVSPost2010PropOp48
 70
     1
102
RTVSPost2010Prop49
280
     0
102
RTVSPost2010PropOp49
 70
     1
102
RTVSPost2010Prop50
 90
       50
102
RTVSPost2010PropOp50
 70
     1
102
RTVSPost2010Prop51ColorIndex
 90
      256
102
RTVSPost2010Prop51ColorRGB
 90
-16777216
102
RTVSPost2010PropOp51
 70
     0
102
RTVSPost2010Prop52
140
1.0
102
RTVSPost2010PropOp52
 70
     0
102
RTVSPost2010Prop53
 90
        2
102
RTVSPost2010PropOp53
 70
     1
102
RTVSPost2010Prop54
  1
strokes_ogs.tif
102
RTVSPost2010PropOp54
 70
     1
102
RTVSPost2010Prop55
280
     0
102
RTVSPost2010PropOp55
 70
     1
102
RTVSPost2010Prop56
140
1.0
102
RTVSPost2010PropOp56
 70
     1
102
RTVSPost2010Prop57
140
1.0
102
RTVSPost2010PropOp57
 70
     1
102
RTVSPropertyOp0
 70
     1
102
RTVSPropertyOp1
 70
     1
102
RTVSPropertyOp2
 70
     1
102
RTVSPropertyOp3
 70
     1
102
RTVSPropertyOp4
 70
     1
102
RTVSPropertyOp5
 70
     1
102
RTVSPropertyOp6
 70
     1
102
RTVSPropertyOp7
 70
     1
102
RTVSPropertyOp8
 70
     1
102
RTVSPropertyOp9
 70
     1
102
RTVSPropertyOp10
 70
     1
102
RTVSPropertyOp11
 70
     1
102
RTVSPropertyOp12
 70
     1
102
RTVSPropertyOp13
 70
     1
102
RTVSPropertyOp14
 70
     1
102
RTVSPropertyOp15
 70
     1
102
RTVSPropertyOp16
 70
     1
102
RTVSPropertyOp17
 70
     1
102
RTVSPropertyOp18
 70
     1
102
RTVSPropertyOp19
 70
     1
102
RTVSPropertyOp20
 70
     1
102
RTVSPropertyOp21
 70
     1
102
RTVSPropertyOp22
 70
     1
102
RTVSPropertyOp23
 70
     1
102
RTVSPropertyOp24
 70
     1
102
RTVSPropertyOp25
 70
     1
102
RTVSPropertyOp26
 70
     1
102
RTVSPropertyOp27
 70
     1
102
RTVSPropertyOp28
 70
     1
102
RTVSPropertyOp29
 70
     1
102
RTVSPropertyOp30
 70
     1
102
RTVSPropertyOp31
 70
     1
102
RTVSPropertyOp32
 70
     1
102
RTVSPropertyOp33
 70
     1
102
RTVSPropertyOp34
 70
     1
102
RTVSPropertyOp35
 70
     1
102
RTVSPropertyOp36
 70
     1
102
RTVSPropertyOp37
 70
     1
102
RTVSPropertyOp38
 70
     1
102
RTVSPropertyOp39
 70
     1
102
RTVSPropertyOp40
 70
     1
102
RTVSPropertyOp41
 70
     1
102
RTVSPropertyOp42
 70
     1
102
RTVSPropertyOp43
 70
     1
102
RTVSPropertyOp44
 70
     1
102
RTVSPropertyOp45
 70
     1
102
RTVSPropertyOp46
 70
     1
102
RTVSPropertyOp47
 70
     1
102
RTVSPropertyOp48
 70
     1
102
RTVSPropertyOp49
 70
     1
102
RTVSPropertyOp50
 70
     1
102
RTVSPropertyOp51
 70
     0
102
RTVSPropertyOp52
 70
     0
102
RTVSPropertyOp53
 70
     1
102
RTVSPropertyOp54
 70
     1
102
RTVSPropertyOp55
 70
     1
102
RTVSPropertyOp56
 70
     1
102
RTVSPropertyOp57
 70
     1
102
RTVSPropertyOp58
 70
     1
102
RTVSPropertyOp59
 70
     1
102
RTVSPropertyOp60
 70
     1
102
RTVSPropertyOp61
 70
     1
102
RTVSPropertyOp62
 70
     1
  0
XRECORD
  5
4B6
102
{ACAD_REACTORS
330
4B5
102
}
330
4B5
100
AcDbXrecord
280
     1
102
RTVSPost2010Prop28
280
     0
102
RTVSPost2010PropOp28
 70
     1
102
RTVSPost2010Prop29
280
     1
102
RTVSPost2010PropOp29
 70
     1
102
RTVSPost2010Prop30
280
     1
102
RTVSPost2010PropOp30
 70
     1
102
RTVSPost2010Prop31
280
     0
102
RTVSPost2010PropOp31
 70
     1
102
RTVSPost2010Prop32
280
     0
102
RTVSPost2010PropOp32
 70
     1
102
RTVSPost2010Prop33
280
     0
102
RTVSPost2010PropOp33
 70
     1
102
RTVSPost2010Prop34
280
     0
102
RTVSPost2010PropOp34
 70
     1
102
RTVSPost2010Prop35
280
     0
102
RTVSPost2010PropOp35
 70
     1
102
RTVSPost2010Prop36
280
     0
102
RTVSPost2010PropOp36
 70
     1
102
RTVSPost2010Prop37
 90
       50
102
RTVSPost2010PropOp37
 70
     1
102
RTVSPost2010Prop38
140
0.0
102
RTVSPost2010PropOp38
 70
     1
102
RTVSPost2010Prop39
140
1.0
102
RTVSPost2010PropOp39
 70
     1
102
RTVSPost2010Prop40
 90
        0
102
RTVSPost2010PropOp40
 70
     1
102
RTVSPost2010Prop41ColorIndex
 90
       18
102
RTVSPost2010Prop41ColorRGB
 90
        0
102
RTVSPost2010PropOp41
 70
     1
102
RTVSPost2010Prop42
 90
       50
102
RTVSPost2010PropOp42
 70
     1
102
RTVSPost2010Prop43
 90
        3
102
RTVSPost2010PropOp43
 70
     1
102
RTVSPost2010Prop44ColorIndex
 90
        5
102
RTVSPost2010Prop44ColorRGB
 90
      255
102
RTVSPost2010PropOp44
 70
     1
102
RTVSPost2010Prop45
280
     0
102
RTVSPost2010PropOp45
 70
     1
102
RTVSPost2010Prop46
 90
       50
102
RTVSPost2010PropOp46
 70
     1
102
RTVSPost2010Prop47
 90
       50
102
RTVSPost2010PropOp47
 70
     1
102
RTVSPost2010Prop48
 90
       50
102
RTVSPost2010PropOp48
 70
     1
102
RTVSPost2010Prop49
280
     0
102
RTVSPost2010PropOp49
 70
     1
102
RTVSPost2010Prop50
 90
       50
102
RTVSPost2010PropOp50
 70
     1
102
RTVSPost2010Prop51ColorIndex
 90
      256
102
RTVSPost2010Prop51ColorRGB
 90
-16777216
102
RTVSPost2010PropOp51
 70
     0
102
RTVSPost2010Prop52
140
1.0
102
RTVSPost2010PropOp52
 70
     0
102
RTVSPost2010Prop53
 90
        2
102
RTVSPost2010PropOp53
 70
     1
102
RTVSPost2010Prop54
  1
strokes_ogs.tif
102
RTVSPost2010PropOp54
 70
     1
102
RTVSPost2010Prop55
280
     0
102
RTVSPost2010PropOp55
 70
     1
102
RTVSPost2010Prop56
140
1.0
102
RTVSPost2010PropOp56
 70
     1
102
RTVSPost2010Prop57
140
1.0
102
RTVSPost2010PropOp57
 70
     1
102
RTVSPropertyOp0
 70
     1
102
RTVSPropertyOp1
 70
     1
102
RTVSPropertyOp2
 70
     1
102
RTVSPropertyOp3
 70
     1
102
RTVSPropertyOp4
 70
     1
102
RTVSPropertyOp5
 70
     1
102
RTVSPropertyOp6
 70
     1
102
RTVSPropertyOp7
 70
     1
102
RTVSPropertyOp8
 70
     1
102
RTVSPropertyOp9
 70
     1
102
RTVSPropertyOp10
 70
     1
102
RTVSPropertyOp11
 70
     1
102
RTVSPropertyOp12
 70
     1
102
RTVSPropertyOp13
 70
     1
102
RTVSPropertyOp14
 70
     1
102
RTVSPropertyOp15
 70
     1
102
RTVSPropertyOp16
 70
     1
102
RTVSPropertyOp17
 70
     1
102
RTVSPropertyOp18
 70
     1
102
RTVSPropertyOp19
 70
     1
102
RTVSPropertyOp20
 70
     1
102
RTVSPropertyOp21
 70
     1
102
RTVSPropertyOp22
 70
     1
102
RTVSPropertyOp23
 70
     1
102
RTVSPropertyOp24
 70
     1
102
RTVSPropertyOp25
 70
     1
102
RTVSPropertyOp26
 70
     1
102
RTVSPropertyOp27
 70
     1
102
RTVSPropertyOp28
 70
     1
102
RTVSPropertyOp29
 70
     1
102
RTVSPropertyOp30
 70
     1
102
RTVSPropertyOp31
 70
     1
102
RTVSPropertyOp32
 70
     1
102
RTVSPropertyOp33
 70
     1
102
RTVSPropertyOp34
 70
     1
102
RTVSPropertyOp35
 70
     1
102
RTVSPropertyOp36
 70
     1
102
RTVSPropertyOp37
 70
     1
102
RTVSPropertyOp38
 70
     1
102
RTVSPropertyOp39
 70
     1
102
RTVSPropertyOp40
 70
     1
102
RTVSPropertyOp41
 70
     1
102
RTVSPropertyOp42
 70
     1
102
RTVSPropertyOp43
 70
     1
102
RTVSPropertyOp44
 70
     1
102
RTVSPropertyOp45
 70
     1
102
RTVSPropertyOp46
 70
     1
102
RTVSPropertyOp47
 70
     1
102
RTVSPropertyOp48
 70
     1
102
RTVSPropertyOp49
 70
     1
102
RTVSPropertyOp50
 70
     1
102
RTVSPropertyOp51
 70
     0
102
RTVSPropertyOp52
 70
     0
102
RTVSPropertyOp53
 70
     1
102
RTVSPropertyOp54
 70
     1
102
RTVSPropertyOp55
 70
     1
102
RTVSPropertyOp56
 70
     1
102
RTVSPropertyOp57
 70
     1
102
RTVSPropertyOp58
 70
     1
102
RTVSPropertyOp59
 70
     1
102
RTVSPropertyOp60
 70
     1
102
RTVSPropertyOp61
 70
     1
102
RTVSPropertyOp62
 70
     1
  0
XRECORD
  5
4B4
102
{ACAD_REACTORS
330
4B3
102
}
330
4B3
100
AcDbXrecord
280
     1
102
RTVSPost2010Prop28
280
     0
102
RTVSPost2010PropOp28
 70
     1
102
RTVSPost2010Prop29
280
     1
102
RTVSPost2010PropOp29
 70
     1
102
RTVSPost2010Prop30
280
     1
102
RTVSPost2010PropOp30
 70
     1
102
RTVSPost2010Prop31
280
     0
102
RTVSPost2010PropOp31
 70
     1
102
RTVSPost2010Prop32
280
     0
102
RTVSPost2010PropOp32
 70
     1
102
RTVSPost2010Prop33
280
     0
102
RTVSPost2010PropOp33
 70
     1
102
RTVSPost2010Prop34
280
     0
102
RTVSPost2010PropOp34
 70
     1
102
RTVSPost2010Prop35
280
     0
102
RTVSPost2010PropOp35
 70
     1
102
RTVSPost2010Prop36
280
     0
102
RTVSPost2010PropOp36
 70
     1
102
RTVSPost2010Prop37
 90
       50
102
RTVSPost2010PropOp37
 70
     1
102
RTVSPost2010Prop38
140
0.0
102
RTVSPost2010PropOp38
 70
     1
102
RTVSPost2010Prop39
140
1.0
102
RTVSPost2010PropOp39
 70
     1
102
RTVSPost2010Prop40
 90
        0
102
RTVSPost2010PropOp40
 70
     1
102
RTVSPost2010Prop41ColorIndex
 90
       18
102
RTVSPost2010Prop41ColorRGB
 90
        0
102
RTVSPost2010PropOp41
 70
     1
102
RTVSPost2010Prop42
 90
       50
102
RTVSPost2010PropOp42
 70
     1
102
RTVSPost2010Prop43
 90
        3
102
RTVSPost2010PropOp43
 70
     1
102
RTVSPost2010Prop44ColorIndex
 90
        5
102
RTVSPost2010Prop44ColorRGB
 90
      255
102
RTVSPost2010PropOp44
 70
     1
102
RTVSPost2010Prop45
280
     0
102
RTVSPost2010PropOp45
 70
     1
102
RTVSPost2010Prop46
 90
       50
102
RTVSPost2010PropOp46
 70
     1
102
RTVSPost2010Prop47
 90
       50
102
RTVSPost2010PropOp47
 70
     1
102
RTVSPost2010Prop48
 90
       50
102
RTVSPost2010PropOp48
 70
     1
102
RTVSPost2010Prop49
280
     0
102
RTVSPost2010PropOp49
 70
     1
102
RTVSPost2010Prop50
 90
       50
102
RTVSPost2010PropOp50
 70
     1
102
RTVSPost2010Prop51ColorIndex
 90
      256
102
RTVSPost2010Prop51ColorRGB
 90
-16777216
102
RTVSPost2010PropOp51
 70
     0
102
RTVSPost2010Prop52
140
1.0
102
RTVSPost2010PropOp52
 70
     0
102
RTVSPost2010Prop53
 90
        2
102
RTVSPost2010PropOp53
 70
     1
102
RTVSPost2010Prop54
  1
strokes_ogs.tif
102
RTVSPost2010PropOp54
 70
     1
102
RTVSPost2010Prop55
280
     0
102
RTVSPost2010PropOp55
 70
     1
102
RTVSPost2010Prop56
140
1.0
102
RTVSPost2010PropOp56
 70
     1
102
RTVSPost2010Prop57
140
1.0
102
RTVSPost2010PropOp57
 70
     1
102
RTVSPropertyOp0
 70
     1
102
RTVSPropertyOp1
 70
     1
102
RTVSPropertyOp2
 70
     1
102
RTVSPropertyOp3
 70
     1
102
RTVSPropertyOp4
 70
     1
102
RTVSPropertyOp5
 70
     1
102
RTVSPropertyOp6
 70
     1
102
RTVSPropertyOp7
 70
     1
102
RTVSPropertyOp8
 70
     1
102
RTVSPropertyOp9
 70
     1
102
RTVSPropertyOp10
 70
     1
102
RTVSPropertyOp11
 70
     1
102
RTVSPropertyOp12
 70
     1
102
RTVSPropertyOp13
 70
     1
102
RTVSPropertyOp14
 70
     1
102
RTVSPropertyOp15
 70
     1
102
RTVSPropertyOp16
 70
     1
102
RTVSPropertyOp17
 70
     1
102
RTVSPropertyOp18
 70
     1
102
RTVSPropertyOp19
 70
     1
102
RTVSPropertyOp20
 70
     1
102
RTVSPropertyOp21
 70
     1
102
RTVSPropertyOp22
 70
     1
102
RTVSPropertyOp23
 70
     1
102
RTVSPropertyOp24
 70
     1
102
RTVSPropertyOp25
 70
     1
102
RTVSPropertyOp26
 70
     1
102
RTVSPropertyOp27
 70
     1
102
RTVSPropertyOp28
 70
     1
102
RTVSPropertyOp29
 70
     1
102
RTVSPropertyOp30
 70
     1
102
RTVSPropertyOp31
 70
     1
102
RTVSPropertyOp32
 70
     1
102
RTVSPropertyOp33
 70
     1
102
RTVSPropertyOp34
 70
     1
102
RTVSPropertyOp35
 70
     1
102
RTVSPropertyOp36
 70
     1
102
RTVSPropertyOp37
 70
     1
102
RTVSPropertyOp38
 70
     1
102
RTVSPropertyOp39
 70
     1
102
RTVSPropertyOp40
 70
     1
102
RTVSPropertyOp41
 70
     1
102
RTVSPropertyOp42
 70
     1
102
RTVSPropertyOp43
 70
     1
102
RTVSPropertyOp44
 70
     1
102
RTVSPropertyOp45
 70
     1
102
RTVSPropertyOp46
 70
     1
102
RTVSPropertyOp47
 70
     1
102
RTVSPropertyOp48
 70
     1
102
RTVSPropertyOp49
 70
     1
102
RTVSPropertyOp50
 70
     1
102
RTVSPropertyOp51
 70
     0
102
RTVSPropertyOp52
 70
     0
102
RTVSPropertyOp53
 70
     1
102
RTVSPropertyOp54
 70
     1
102
RTVSPropertyOp55
 70
     1
102
RTVSPropertyOp56
 70
     1
102
RTVSPropertyOp57
 70
     1
102
RTVSPropertyOp58
 70
     1
102
RTVSPropertyOp59
 70
     1
102
RTVSPropertyOp60
 70
     1
102
RTVSPropertyOp61
 70
     1
102
RTVSPropertyOp62
 70
     1
  0
XRECORD
  5
4AE
102
{ACAD_REACTORS
330
4AD
102
}
330
4AD
100
AcDbXrecord
280
     1
102
RTVSPost2010Prop28
280
     0
102
RTVSPost2010PropOp28
 70
     1
102
RTVSPost2010Prop29
280
     1
102
RTVSPost2010PropOp29
 70
     1
102
RTVSPost2010Prop30
280
     1
102
RTVSPost2010PropOp30
 70
     1
102
RTVSPost2010Prop31
280
     0
102
RTVSPost2010PropOp31
 70
     1
102
RTVSPost2010Prop32
280
     0
102
RTVSPost2010PropOp32
 70
     1
102
RTVSPost2010Prop33
280
     0
102
RTVSPost2010PropOp33
 70
     1
102
RTVSPost2010Prop34
280
     0
102
RTVSPost2010PropOp34
 70
     1
102
RTVSPost2010Prop35
280
     0
102
RTVSPost2010PropOp35
 70
     1
102
RTVSPost2010Prop36
280
     0
102
RTVSPost2010PropOp36
 70
     1
102
RTVSPost2010Prop37
 90
       50
102
RTVSPost2010PropOp37
 70
     1
102
RTVSPost2010Prop38
140
0.0
102
RTVSPost2010PropOp38
 70
     1
102
RTVSPost2010Prop39
140
1.0
102
RTVSPost2010PropOp39
 70
     1
102
RTVSPost2010Prop40
 90
        0
102
RTVSPost2010PropOp40
 70
     1
102
RTVSPost2010Prop41ColorIndex
 90
       18
102
RTVSPost2010Prop41ColorRGB
 90
        0
102
RTVSPost2010PropOp41
 70
     1
102
RTVSPost2010Prop42
 90
       50
102
RTVSPost2010PropOp42
 70
     1
102
RTVSPost2010Prop43
 90
        3
102
RTVSPost2010PropOp43
 70
     1
102
RTVSPost2010Prop44ColorIndex
 90
        5
102
RTVSPost2010Prop44ColorRGB
 90
      255
102
RTVSPost2010PropOp44
 70
     1
102
RTVSPost2010Prop45
280
     0
102
RTVSPost2010PropOp45
 70
     1
102
RTVSPost2010Prop46
 90
       50
102
RTVSPost2010PropOp46
 70
     1
102
RTVSPost2010Prop47
 90
       50
102
RTVSPost2010PropOp47
 70
     1
102
RTVSPost2010Prop48
 90
       50
102
RTVSPost2010PropOp48
 70
     1
102
RTVSPost2010Prop49
280
     0
102
RTVSPost2010PropOp49
 70
     1
102
RTVSPost2010Prop50
 90
       50
102
RTVSPost2010PropOp50
 70
     1
102
RTVSPost2010Prop51ColorIndex
 90
      256
102
RTVSPost2010Prop51ColorRGB
 90
-16777216
102
RTVSPost2010PropOp51
 70
     0
102
RTVSPost2010Prop52
140
1.0
102
RTVSPost2010PropOp52
 70
     0
102
RTVSPost2010Prop53
 90
        2
102
RTVSPost2010PropOp53
 70
     1
102
RTVSPost2010Prop54
  1
strokes_ogs.tif
102
RTVSPost2010PropOp54
 70
     1
102
RTVSPost2010Prop55
280
     0
102
RTVSPost2010PropOp55
 70
     1
102
RTVSPost2010Prop56
140
1.0
102
RTVSPost2010PropOp56
 70
     1
102
RTVSPost2010Prop57
140
1.0
102
RTVSPost2010PropOp57
 70
     1
102
RTVSPropertyOp0
 70
     1
102
RTVSPropertyOp1
 70
     1
102
RTVSPropertyOp2
 70
     1
102
RTVSPropertyOp3
 70
     1
102
RTVSPropertyOp4
 70
     1
102
RTVSPropertyOp5
 70
     1
102
RTVSPropertyOp6
 70
     1
102
RTVSPropertyOp7
 70
     1
102
RTVSPropertyOp8
 70
     1
102
RTVSPropertyOp9
 70
     1
102
RTVSPropertyOp10
 70
     1
102
RTVSPropertyOp11
 70
     1
102
RTVSPropertyOp12
 70
     1
102
RTVSPropertyOp13
 70
     1
102
RTVSPropertyOp14
 70
     1
102
RTVSPropertyOp15
 70
     1
102
RTVSPropertyOp16
 70
     1
102
RTVSPropertyOp17
 70
     1
102
RTVSPropertyOp18
 70
     1
102
RTVSPropertyOp19
 70
     1
102
RTVSPropertyOp20
 70
     1
102
RTVSPropertyOp21
 70
     1
102
RTVSPropertyOp22
 70
     1
102
RTVSPropertyOp23
 70
     1
102
RTVSPropertyOp24
 70
     1
102
RTVSPropertyOp25
 70
     1
102
RTVSPropertyOp26
 70
     1
102
RTVSPropertyOp27
 70
     1
102
RTVSPropertyOp28
 70
     1
102
RTVSPropertyOp29
 70
     1
102
RTVSPropertyOp30
 70
     1
102
RTVSPropertyOp31
 70
     1
102
RTVSPropertyOp32
 70
     1
102
RTVSPropertyOp33
 70
     1
102
RTVSPropertyOp34
 70
     1
102
RTVSPropertyOp35
 70
     1
102
RTVSPropertyOp36
 70
     1
102
RTVSPropertyOp37
 70
     1
102
RTVSPropertyOp38
 70
     1
102
RTVSPropertyOp39
 70
     1
102
RTVSPropertyOp40
 70
     1
102
RTVSPropertyOp41
 70
     1
102
RTVSPropertyOp42
 70
     1
102
RTVSPropertyOp43
 70
     1
102
RTVSPropertyOp44
 70
     1
102
RTVSPropertyOp45
 70
     1
102
RTVSPropertyOp46
 70
     1
102
RTVSPropertyOp47
 70
     1
102
RTVSPropertyOp48
 70
     1
102
RTVSPropertyOp49
 70
     1
102
RTVSPropertyOp50
 70
     1
102
RTVSPropertyOp51
 70
     0
102
RTVSPropertyOp52
 70
     0
102
RTVSPropertyOp53
 70
     1
102
RTVSPropertyOp54
 70
     1
102
RTVSPropertyOp55
 70
     1
102
RTVSPropertyOp56
 70
     1
102
RTVSPropertyOp57
 70
     1
102
RTVSPropertyOp58
 70
     1
102
RTVSPropertyOp59
 70
     1
102
RTVSPropertyOp60
 70
     1
102
RTVSPropertyOp61
 70
     1
102
RTVSPropertyOp62
 70
     1
  0
XRECORD
  5
4B0
102
{ACAD_REACTORS
330
4AF
102
}
330
4AF
100
AcDbXrecord
280
     1
102
RTVSPost2010Prop28
280
     0
102
RTVSPost2010PropOp28
 70
     1
102
RTVSPost2010Prop29
280
     1
102
RTVSPost2010PropOp29
 70
     1
102
RTVSPost2010Prop30
280
     1
102
RTVSPost2010PropOp30
 70
     1
102
RTVSPost2010Prop31
280
     0
102
RTVSPost2010PropOp31
 70
     1
102
RTVSPost2010Prop32
280
     0
102
RTVSPost2010PropOp32
 70
     1
102
RTVSPost2010Prop33
280
     0
102
RTVSPost2010PropOp33
 70
     1
102
RTVSPost2010Prop34
280
     0
102
RTVSPost2010PropOp34
 70
     1
102
RTVSPost2010Prop35
280
     0
102
RTVSPost2010PropOp35
 70
     1
102
RTVSPost2010Prop36
280
     0
102
RTVSPost2010PropOp36
 70
     1
102
RTVSPost2010Prop37
 90
       50
102
RTVSPost2010PropOp37
 70
     1
102
RTVSPost2010Prop38
140
0.0
102
RTVSPost2010PropOp38
 70
     1
102
RTVSPost2010Prop39
140
1.0
102
RTVSPost2010PropOp39
 70
     1
102
RTVSPost2010Prop40
 90
        0
102
RTVSPost2010PropOp40
 70
     1
102
RTVSPost2010Prop41ColorIndex
 90
       18
102
RTVSPost2010Prop41ColorRGB
 90
        0
102
RTVSPost2010PropOp41
 70
     1
102
RTVSPost2010Prop42
 90
       50
102
RTVSPost2010PropOp42
 70
     1
102
RTVSPost2010Prop43
 90
        3
102
RTVSPost2010PropOp43
 70
     1
102
RTVSPost2010Prop44ColorIndex
 90
        5
102
RTVSPost2010Prop44ColorRGB
 90
      255
102
RTVSPost2010PropOp44
 70
     1
102
RTVSPost2010Prop45
280
     0
102
RTVSPost2010PropOp45
 70
     1
102
RTVSPost2010Prop46
 90
       50
102
RTVSPost2010PropOp46
 70
     1
102
RTVSPost2010Prop47
 90
       50
102
RTVSPost2010PropOp47
 70
     1
102
RTVSPost2010Prop48
 90
       50
102
RTVSPost2010PropOp48
 70
     1
102
RTVSPost2010Prop49
280
     0
102
RTVSPost2010PropOp49
 70
     1
102
RTVSPost2010Prop50
 90
       50
102
RTVSPost2010PropOp50
 70
     1
102
RTVSPost2010Prop51ColorIndex
 90
      256
102
RTVSPost2010Prop51ColorRGB
 90
-16777216
102
RTVSPost2010PropOp51
 70
     0
102
RTVSPost2010Prop52
140
1.0
102
RTVSPost2010PropOp52
 70
     0
102
RTVSPost2010Prop53
 90
        2
102
RTVSPost2010PropOp53
 70
     1
102
RTVSPost2010Prop54
  1
strokes_ogs.tif
102
RTVSPost2010PropOp54
 70
     1
102
RTVSPost2010Prop55
280
     0
102
RTVSPost2010PropOp55
 70
     1
102
RTVSPost2010Prop56
140
1.0
102
RTVSPost2010PropOp56
 70
     1
102
RTVSPost2010Prop57
140
1.0
102
RTVSPost2010PropOp57
 70
     1
102
RTVSPropertyOp0
 70
     1
102
RTVSPropertyOp1
 70
     1
102
RTVSPropertyOp2
 70
     1
102
RTVSPropertyOp3
 70
     1
102
RTVSPropertyOp4
 70
     1
102
RTVSPropertyOp5
 70
     1
102
RTVSPropertyOp6
 70
     1
102
RTVSPropertyOp7
 70
     1
102
RTVSPropertyOp8
 70
     1
102
RTVSPropertyOp9
 70
     1
102
RTVSPropertyOp10
 70
     1
102
RTVSPropertyOp11
 70
     1
102
RTVSPropertyOp12
 70
     1
102
RTVSPropertyOp13
 70
     1
102
RTVSPropertyOp14
 70
     1
102
RTVSPropertyOp15
 70
     1
102
RTVSPropertyOp16
 70
     1
102
RTVSPropertyOp17
 70
     1
102
RTVSPropertyOp18
 70
     1
102
RTVSPropertyOp19
 70
     1
102
RTVSPropertyOp20
 70
     1
102
RTVSPropertyOp21
 70
     1
102
RTVSPropertyOp22
 70
     1
102
RTVSPropertyOp23
 70
     1
102
RTVSPropertyOp24
 70
     1
102
RTVSPropertyOp25
 70
     1
102
RTVSPropertyOp26
 70
     1
102
RTVSPropertyOp27
 70
     1
102
RTVSPropertyOp28
 70
     1
102
RTVSPropertyOp29
 70
     1
102
RTVSPropertyOp30
 70
     1
102
RTVSPropertyOp31
 70
     1
102
RTVSPropertyOp32
 70
     1
102
RTVSPropertyOp33
 70
     1
102
RTVSPropertyOp34
 70
     1
102
RTVSPropertyOp35
 70
     1
102
RTVSPropertyOp36
 70
     1
102
RTVSPropertyOp37
 70
     1
102
RTVSPropertyOp38
 70
     1
102
RTVSPropertyOp39
 70
     1
102
RTVSPropertyOp40
 70
     1
102
RTVSPropertyOp41
 70
     1
102
RTVSPropertyOp42
 70
     1
102
RTVSPropertyOp43
 70
     1
102
RTVSPropertyOp44
 70
     1
102
RTVSPropertyOp45
 70
     1
102
RTVSPropertyOp46
 70
     1
102
RTVSPropertyOp47
 70
     1
102
RTVSPropertyOp48
 70
     1
102
RTVSPropertyOp49
 70
     1
102
RTVSPropertyOp50
 70
     1
102
RTVSPropertyOp51
 70
     0
102
RTVSPropertyOp52
 70
     0
102
RTVSPropertyOp53
 70
     1
102
RTVSPropertyOp54
 70
     1
102
RTVSPropertyOp55
 70
     1
102
RTVSPropertyOp56
 70
     1
102
RTVSPropertyOp57
 70
     1
102
RTVSPropertyOp58
 70
     1
102
RTVSPropertyOp59
 70
     1
102
RTVSPropertyOp60
 70
     1
102
RTVSPropertyOp61
 70
     1
102
RTVSPropertyOp62
 70
     1
  0
XRECORD
  5
4A0
102
{ACAD_REACTORS
330
49F
102
}
330
49F
100
AcDbXrecord
280
     1
102
RTVSPost2010Prop28
280
     0
102
RTVSPost2010PropOp28
 70
     1
102
RTVSPost2010Prop29
280
     1
102
RTVSPost2010PropOp29
 70
     1
102
RTVSPost2010Prop30
280
     1
102
RTVSPost2010PropOp30
 70
     1
102
RTVSPost2010Prop31
280
     0
102
RTVSPost2010PropOp31
 70
     1
102
RTVSPost2010Prop32
280
     0
102
RTVSPost2010PropOp32
 70
     1
102
RTVSPost2010Prop33
280
     0
102
RTVSPost2010PropOp33
 70
     1
102
RTVSPost2010Prop34
280
     0
102
RTVSPost2010PropOp34
 70
     1
102
RTVSPost2010Prop35
280
     0
102
RTVSPost2010PropOp35
 70
     1
102
RTVSPost2010Prop36
280
     0
102
RTVSPost2010PropOp36
 70
     1
102
RTVSPost2010Prop37
 90
       50
102
RTVSPost2010PropOp37
 70
     1
102
RTVSPost2010Prop38
140
0.0
102
RTVSPost2010PropOp38
 70
     1
102
RTVSPost2010Prop39
140
1.0
102
RTVSPost2010PropOp39
 70
     1
102
RTVSPost2010Prop40
 90
        0
102
RTVSPost2010PropOp40
 70
     1
102
RTVSPost2010Prop41ColorIndex
 90
       18
102
RTVSPost2010Prop41ColorRGB
 90
        0
102
RTVSPost2010PropOp41
 70
     1
102
RTVSPost2010Prop42
 90
       50
102
RTVSPost2010PropOp42
 70
     1
102
RTVSPost2010Prop43
 90
        3
102
RTVSPost2010PropOp43
 70
     1
102
RTVSPost2010Prop44ColorIndex
 90
        5
102
RTVSPost2010Prop44ColorRGB
 90
      255
102
RTVSPost2010PropOp44
 70
     1
102
RTVSPost2010Prop45
280
     0
102
RTVSPost2010PropOp45
 70
     1
102
RTVSPost2010Prop46
 90
       50
102
RTVSPost2010PropOp46
 70
     1
102
RTVSPost2010Prop47
 90
       50
102
RTVSPost2010PropOp47
 70
     1
102
RTVSPost2010Prop48
 90
       50
102
RTVSPost2010PropOp48
 70
     1
102
RTVSPost2010Prop49
280
     0
102
RTVSPost2010PropOp49
 70
     1
102
RTVSPost2010Prop50
 90
       50
102
RTVSPost2010PropOp50
 70
     1
102
RTVSPost2010Prop51ColorIndex
 90
      256
102
RTVSPost2010Prop51ColorRGB
 90
-16777216
102
RTVSPost2010PropOp51
 70
     0
102
RTVSPost2010Prop52
140
1.0
102
RTVSPost2010PropOp52
 70
     0
102
RTVSPost2010Prop53
 90
        2
102
RTVSPost2010PropOp53
 70
     1
102
RTVSPost2010Prop54
  1
strokes_ogs.tif
102
RTVSPost2010PropOp54
 70
     1
102
RTVSPost2010Prop55
280
     0
102
RTVSPost2010PropOp55
 70
     1
102
RTVSPost2010Prop56
140
1.0
102
RTVSPost2010PropOp56
 70
     1
102
RTVSPost2010Prop57
140
1.0
102
RTVSPost2010PropOp57
 70
     1
102
RTVSPropertyOp0
 70
     1
102
RTVSPropertyOp1
 70
     1
102
RTVSPropertyOp2
 70
     1
102
RTVSPropertyOp3
 70
     1
102
RTVSPropertyOp4
 70
     1
102
RTVSPropertyOp5
 70
     1
102
RTVSPropertyOp6
 70
     1
102
RTVSPropertyOp7
 70
     1
102
RTVSPropertyOp8
 70
     1
102
RTVSPropertyOp9
 70
     1
102
RTVSPropertyOp10
 70
     1
102
RTVSPropertyOp11
 70
     1
102
RTVSPropertyOp12
 70
     1
102
RTVSPropertyOp13
 70
     1
102
RTVSPropertyOp14
 70
     1
102
RTVSPropertyOp15
 70
     1
102
RTVSPropertyOp16
 70
     1
102
RTVSPropertyOp17
 70
     1
102
RTVSPropertyOp18
 70
     1
102
RTVSPropertyOp19
 70
     1
102
RTVSPropertyOp20
 70
     1
102
RTVSPropertyOp21
 70
     1
102
RTVSPropertyOp22
 70
     1
102
RTVSPropertyOp23
 70
     1
102
RTVSPropertyOp24
 70
     1
102
RTVSPropertyOp25
 70
     1
102
RTVSPropertyOp26
 70
     1
102
RTVSPropertyOp27
 70
     1
102
RTVSPropertyOp28
 70
     1
102
RTVSPropertyOp29
 70
     1
102
RTVSPropertyOp30
 70
     1
102
RTVSPropertyOp31
 70
     1
102
RTVSPropertyOp32
 70
     1
102
RTVSPropertyOp33
 70
     1
102
RTVSPropertyOp34
 70
     1
102
RTVSPropertyOp35
 70
     1
102
RTVSPropertyOp36
 70
     1
102
RTVSPropertyOp37
 70
     1
102
RTVSPropertyOp38
 70
     1
102
RTVSPropertyOp39
 70
     1
102
RTVSPropertyOp40
 70
     1
102
RTVSPropertyOp41
 70
     1
102
RTVSPropertyOp42
 70
     1
102
RTVSPropertyOp43
 70
     1
102
RTVSPropertyOp44
 70
     1
102
RTVSPropertyOp45
 70
     1
102
RTVSPropertyOp46
 70
     1
102
RTVSPropertyOp47
 70
     1
102
RTVSPropertyOp48
 70
     1
102
RTVSPropertyOp49
 70
     1
102
RTVSPropertyOp50
 70
     1
102
RTVSPropertyOp51
 70
     0
102
RTVSPropertyOp52
 70
     0
102
RTVSPropertyOp53
 70
     1
102
RTVSPropertyOp54
 70
     1
102
RTVSPropertyOp55
 70
     1
102
RTVSPropertyOp56
 70
     1
102
RTVSPropertyOp57
 70
     1
102
RTVSPropertyOp58
 70
     1
102
RTVSPropertyOp59
 70
     1
102
RTVSPropertyOp60
 70
     1
102
RTVSPropertyOp61
 70
     1
102
RTVSPropertyOp62
 70
     1
  0
XRECORD
  5
494
102
{ACAD_REACTORS
330
493
102
}
330
493
100
AcDbXrecord
280
     1
102
RTVSPost2010Prop28
280
     0
102
RTVSPost2010PropOp28
 70
     1
102
RTVSPost2010Prop29
280
     1
102
RTVSPost2010PropOp29
 70
     1
102
RTVSPost2010Prop30
280
     1
102
RTVSPost2010PropOp30
 70
     1
102
RTVSPost2010Prop31
280
     0
102
RTVSPost2010PropOp31
 70
     1
102
RTVSPost2010Prop32
280
     0
102
RTVSPost2010PropOp32
 70
     1
102
RTVSPost2010Prop33
280
     0
102
RTVSPost2010PropOp33
 70
     1
102
RTVSPost2010Prop34
280
     0
102
RTVSPost2010PropOp34
 70
     1
102
RTVSPost2010Prop35
280
     0
102
RTVSPost2010PropOp35
 70
     1
102
RTVSPost2010Prop36
280
     0
102
RTVSPost2010PropOp36
 70
     1
102
RTVSPost2010Prop37
 90
       50
102
RTVSPost2010PropOp37
 70
     1
102
RTVSPost2010Prop38
140
0.0
102
RTVSPost2010PropOp38
 70
     1
102
RTVSPost2010Prop39
140
1.0
102
RTVSPost2010PropOp39
 70
     1
102
RTVSPost2010Prop40
 90
        0
102
RTVSPost2010PropOp40
 70
     1
102
RTVSPost2010Prop41ColorIndex
 90
       18
102
RTVSPost2010Prop41ColorRGB
 90
        0
102
RTVSPost2010PropOp41
 70
     1
102
RTVSPost2010Prop42
 90
       50
102
RTVSPost2010PropOp42
 70
     1
102
RTVSPost2010Prop43
 90
        3
102
RTVSPost2010PropOp43
 70
     1
102
RTVSPost2010Prop44ColorIndex
 90
        5
102
RTVSPost2010Prop44ColorRGB
 90
      255
102
RTVSPost2010PropOp44
 70
     1
102
RTVSPost2010Prop45
280
     0
102
RTVSPost2010PropOp45
 70
     1
102
RTVSPost2010Prop46
 90
       50
102
RTVSPost2010PropOp46
 70
     1
102
RTVSPost2010Prop47
 90
       50
102
RTVSPost2010PropOp47
 70
     1
102
RTVSPost2010Prop48
 90
       50
102
RTVSPost2010PropOp48
 70
     1
102
RTVSPost2010Prop49
280
     0
102
RTVSPost2010PropOp49
 70
     1
102
RTVSPost2010Prop50
 90
       50
102
RTVSPost2010PropOp50
 70
     1
102
RTVSPost2010Prop51ColorIndex
 90
      256
102
RTVSPost2010Prop51ColorRGB
 90
-16777216
102
RTVSPost2010PropOp51
 70
     0
102
RTVSPost2010Prop52
140
1.0
102
RTVSPost2010PropOp52
 70
     0
102
RTVSPost2010Prop53
 90
        2
102
RTVSPost2010PropOp53
 70
     1
102
RTVSPost2010Prop54
  1
strokes_ogs.tif
102
RTVSPost2010PropOp54
 70
     1
102
RTVSPost2010Prop55
280
     0
102
RTVSPost2010PropOp55
 70
     1
102
RTVSPost2010Prop56
140
1.0
102
RTVSPost2010PropOp56
 70
     1
102
RTVSPost2010Prop57
140
1.0
102
RTVSPost2010PropOp57
 70
     1
102
RTVSPropertyOp0
 70
     1
102
RTVSPropertyOp1
 70
     1
102
RTVSPropertyOp2
 70
     1
102
RTVSPropertyOp3
 70
     1
102
RTVSPropertyOp4
 70
     1
102
RTVSPropertyOp5
 70
     1
102
RTVSPropertyOp6
 70
     1
102
RTVSPropertyOp7
 70
     1
102
RTVSPropertyOp8
 70
     1
102
RTVSPropertyOp9
 70
     1
102
RTVSPropertyOp10
 70
     1
102
RTVSPropertyOp11
 70
     1
102
RTVSPropertyOp12
 70
     1
102
RTVSPropertyOp13
 70
     1
102
RTVSPropertyOp14
 70
     1
102
RTVSPropertyOp15
 70
     1
102
RTVSPropertyOp16
 70
     1
102
RTVSPropertyOp17
 70
     1
102
RTVSPropertyOp18
 70
     1
102
RTVSPropertyOp19
 70
     1
102
RTVSPropertyOp20
 70
     1
102
RTVSPropertyOp21
 70
     1
102
RTVSPropertyOp22
 70
     1
102
RTVSPropertyOp23
 70
     1
102
RTVSPropertyOp24
 70
     1
102
RTVSPropertyOp25
 70
     1
102
RTVSPropertyOp26
 70
     1
102
RTVSPropertyOp27
 70
     1
102
RTVSPropertyOp28
 70
     1
102
RTVSPropertyOp29
 70
     1
102
RTVSPropertyOp30
 70
     1
102
RTVSPropertyOp31
 70
     1
102
RTVSPropertyOp32
 70
     1
102
RTVSPropertyOp33
 70
     1
102
RTVSPropertyOp34
 70
     1
102
RTVSPropertyOp35
 70
     1
102
RTVSPropertyOp36
 70
     1
102
RTVSPropertyOp37
 70
     1
102
RTVSPropertyOp38
 70
     1
102
RTVSPropertyOp39
 70
     1
102
RTVSPropertyOp40
 70
     1
102
RTVSPropertyOp41
 70
     1
102
RTVSPropertyOp42
 70
     1
102
RTVSPropertyOp43
 70
     1
102
RTVSPropertyOp44
 70
     1
102
RTVSPropertyOp45
 70
     1
102
RTVSPropertyOp46
 70
     1
102
RTVSPropertyOp47
 70
     1
102
RTVSPropertyOp48
 70
     1
102
RTVSPropertyOp49
 70
     1
102
RTVSPropertyOp50
 70
     1
102
RTVSPropertyOp51
 70
     0
102
RTVSPropertyOp52
 70
     0
102
RTVSPropertyOp53
 70
     1
102
RTVSPropertyOp54
 70
     1
102
RTVSPropertyOp55
 70
     1
102
RTVSPropertyOp56
 70
     1
102
RTVSPropertyOp57
 70
     1
102
RTVSPropertyOp58
 70
     1
102
RTVSPropertyOp59
 70
     1
102
RTVSPropertyOp60
 70
     1
102
RTVSPropertyOp61
 70
     1
102
RTVSPropertyOp62
 70
     1
  0
XRECORD
  5
4B2
102
{ACAD_REACTORS
330
4B1
102
}
330
4B1
100
AcDbXrecord
280
     1
102
RTVSPost2010Prop28
280
     0
102
RTVSPost2010PropOp28
 70
     1
102
RTVSPost2010Prop29
280
     1
102
RTVSPost2010PropOp29
 70
     1
102
RTVSPost2010Prop30
280
     1
102
RTVSPost2010PropOp30
 70
     1
102
RTVSPost2010Prop31
280
     0
102
RTVSPost2010PropOp31
 70
     1
102
RTVSPost2010Prop32
280
     0
102
RTVSPost2010PropOp32
 70
     1
102
RTVSPost2010Prop33
280
     0
102
RTVSPost2010PropOp33
 70
     1
102
RTVSPost2010Prop34
280
     0
102
RTVSPost2010PropOp34
 70
     1
102
RTVSPost2010Prop35
280
     0
102
RTVSPost2010PropOp35
 70
     1
102
RTVSPost2010Prop36
280
     0
102
RTVSPost2010PropOp36
 70
     1
102
RTVSPost2010Prop37
 90
       50
102
RTVSPost2010PropOp37
 70
     1
102
RTVSPost2010Prop38
140
0.0
102
RTVSPost2010PropOp38
 70
     1
102
RTVSPost2010Prop39
140
1.0
102
RTVSPost2010PropOp39
 70
     1
102
RTVSPost2010Prop40
 90
        0
102
RTVSPost2010PropOp40
 70
     1
102
RTVSPost2010Prop41ColorIndex
 90
       18
102
RTVSPost2010Prop41ColorRGB
 90
        0
102
RTVSPost2010PropOp41
 70
     1
102
RTVSPost2010Prop42
 90
       50
102
RTVSPost2010PropOp42
 70
     1
102
RTVSPost2010Prop43
 90
        3
102
RTVSPost2010PropOp43
 70
     1
102
RTVSPost2010Prop44ColorIndex
 90
        5
102
RTVSPost2010Prop44ColorRGB
 90
      255
102
RTVSPost2010PropOp44
 70
     1
102
RTVSPost2010Prop45
280
     0
102
RTVSPost2010PropOp45
 70
     1
102
RTVSPost2010Prop46
 90
       50
102
RTVSPost2010PropOp46
 70
     1
102
RTVSPost2010Prop47
 90
       50
102
RTVSPost2010PropOp47
 70
     1
102
RTVSPost2010Prop48
 90
       50
102
RTVSPost2010PropOp48
 70
     1
102
RTVSPost2010Prop49
280
     0
102
RTVSPost2010PropOp49
 70
     1
102
RTVSPost2010Prop50
 90
       50
102
RTVSPost2010PropOp50
 70
     1
102
RTVSPost2010Prop51ColorIndex
 90
      256
102
RTVSPost2010Prop51ColorRGB
 90
-16777216
102
RTVSPost2010PropOp51
 70
     0
102
RTVSPost2010Prop52
140
1.0
102
RTVSPost2010PropOp52
 70
     0
102
RTVSPost2010Prop53
 90
        2
102
RTVSPost2010PropOp53
 70
     1
102
RTVSPost2010Prop54
  1
strokes_ogs.tif
102
RTVSPost2010PropOp54
 70
     1
102
RTVSPost2010Prop55
280
     0
102
RTVSPost2010PropOp55
 70
     1
102
RTVSPost2010Prop56
140
1.0
102
RTVSPost2010PropOp56
 70
     1
102
RTVSPost2010Prop57
140
1.0
102
RTVSPost2010PropOp57
 70
     1
102
RTVSPropertyOp0
 70
     1
102
RTVSPropertyOp1
 70
     1
102
RTVSPropertyOp2
 70
     1
102
RTVSPropertyOp3
 70
     1
102
RTVSPropertyOp4
 70
     1
102
RTVSPropertyOp5
 70
     1
102
RTVSPropertyOp6
 70
     1
102
RTVSPropertyOp7
 70
     1
102
RTVSPropertyOp8
 70
     1
102
RTVSPropertyOp9
 70
     1
102
RTVSPropertyOp10
 70
     1
102
RTVSPropertyOp11
 70
     1
102
RTVSPropertyOp12
 70
     1
102
RTVSPropertyOp13
 70
     1
102
RTVSPropertyOp14
 70
     1
102
RTVSPropertyOp15
 70
     1
102
RTVSPropertyOp16
 70
     1
102
RTVSPropertyOp17
 70
     1
102
RTVSPropertyOp18
 70
     1
102
RTVSPropertyOp19
 70
     1
102
RTVSPropertyOp20
 70
     1
102
RTVSPropertyOp21
 70
     1
102
RTVSPropertyOp22
 70
     1
102
RTVSPropertyOp23
 70
     1
102
RTVSPropertyOp24
 70
     1
102
RTVSPropertyOp25
 70
     1
102
RTVSPropertyOp26
 70
     1
102
RTVSPropertyOp27
 70
     1
102
RTVSPropertyOp28
 70
     1
102
RTVSPropertyOp29
 70
     1
102
RTVSPropertyOp30
 70
     1
102
RTVSPropertyOp31
 70
     1
102
RTVSPropertyOp32
 70
     1
102
RTVSPropertyOp33
 70
     1
102
RTVSPropertyOp34
 70
     1
102
RTVSPropertyOp35
 70
     1
102
RTVSPropertyOp36
 70
     1
102
RTVSPropertyOp37
 70
     1
102
RTVSPropertyOp38
 70
     1
102
RTVSPropertyOp39
 70
     1
102
RTVSPropertyOp40
 70
     1
102
RTVSPropertyOp41
 70
     1
102
RTVSPropertyOp42
 70
     1
102
RTVSPropertyOp43
 70
     1
102
RTVSPropertyOp44
 70
     1
102
RTVSPropertyOp45
 70
     1
102
RTVSPropertyOp46
 70
     1
102
RTVSPropertyOp47
 70
     1
102
RTVSPropertyOp48
 70
     1
102
RTVSPropertyOp49
 70
     1
102
RTVSPropertyOp50
 70
     1
102
RTVSPropertyOp51
 70
     0
102
RTVSPropertyOp52
 70
     0
102
RTVSPropertyOp53
 70
     1
102
RTVSPropertyOp54
 70
     1
102
RTVSPropertyOp55
 70
     1
102
RTVSPropertyOp56
 70
     1
102
RTVSPropertyOp57
 70
     1
102
RTVSPropertyOp58
 70
     1
102
RTVSPropertyOp59
 70
     1
102
RTVSPropertyOp60
 70
     1
102
RTVSPropertyOp61
 70
     1
102
RTVSPropertyOp62
 70
     1
  0
ENDSEC
  0
EOF
