  0
SECTION
  2
HEADER
  9
$ACADVER
  1
AC1027
  9
$ACADMAINTVER
 70
    57
  9
$DWGCODEPAGE
  3
ANSI_1252
  9
$AUTHOR
  1
M.Capuano
  9
$LASTSAVEDBY
  1
SJouini
  9
$CUSTOMPROPERTYTAG
  1
Responsabile
  9
$CUSTOMPROPERTY
  1

  9
$CUSTOMPROPERTYTAG
  1
Società
  9
$CUSTOMPROPERTY
  1

  9
$CUSTOMPROPERTYTAG
  1
Categoria
  9
$CUSTOMPROPERTY
  1

  9
$CUSTOMPROPERTYTAG
  1
Numero parte
  9
$CUSTOMPROPERTY
  1
18.100.00
  9
$CUSTOMPROPERTYTAG
  1
Descrizione
  9
$CUSTOMPROPERTY
  1

  9
$CUSTOMPROPERTYTAG
  1
Progetto
  9
$CUSTOMPROPERTY
  1

  9
$CUSTOMPROPERTYTAG
  1
Progettista
  9
$CUSTOMPROPERTY
  1
M.Capuano
  9
$CUSTOMPROPERTYTAG
  1
Ingegnere
  9
$CUSTOMPROPERTY
  1

  9
$CUSTOMPROPERTYTAG
  1
Autorità
  9
$CUSTOMPROPERTY
  1

  9
$CUSTOMPROPERTYTAG
  1
Centro gestione costi
  9
$CUSTOMPROPERTY
  1

  9
$CUSTOMPROPERTYTAG
  1
Fornitore
  9
$CUSTOMPROPERTY
  1

  9
$CUSTOMPROPERTYTAG
  1
Stato utente
  9
$CUSTOMPROPERTY
  1

  9
$CUSTOMPROPERTYTAG
  1
Stato progetto
  9
$CUSTOMPROPERTY
  1
In corso
  9
$CUSTOMPROPERTYTAG
  1
Verificato da
  9
$CUSTOMPROPERTY
  1

  9
$CUSTOMPROPERTYTAG
  1
Progett. approvata da
  9
$CUSTOMPROPERTY
  1

  9
$CUSTOMPROPERTYTAG
  1
Prod. approvata da
  9
$CUSTOMPROPERTY
  1

  9
$CUSTOMPROPERTYTAG
  1
PESO
  9
$CUSTOMPROPERTY
  1

  9
$CUSTOMPROPERTYTAG
  1
RIF_ORDINE
  9
$CUSTOMPROPERTY
  1

  9
$CUSTOMPROPERTYTAG
  1
DIM1
  9
$CUSTOMPROPERTY
  1

  9
$CUSTOMPROPERTYTAG
  1
DESCRIZIONE2
  9
$CUSTOMPROPERTY
  1

  9
$CUSTOMPROPERTYTAG
  1
DESCRIZIONE3
  9
$CUSTOMPROPERTY
  1

  9
$CUSTOMPROPERTYTAG
  1
POS.
  9
$CUSTOMPROPERTY
  1

  9
$CUSTOMPROPERTYTAG
  1
TRATTAMENTI
  9
$CUSTOMPROPERTY
  1

  9
$CUSTOMPROPERTYTAG
  1
DISEGN_REV
  9
$CUSTOMPROPERTY
  1

  9
$CUSTOMPROPERTYTAG
  1
DIMENSIONI_DIM1-DIM2
  9
$CUSTOMPROPERTY
  1

  9
$CUSTOMPROPERTYTAG
  1
DISEGNATORE
  9
$CUSTOMPROPERTY
  1

  9
$CUSTOMPROPERTYTAG
  1
SPECIFICHE_TAGLIO
  9
$CUSTOMPROPERTY
  1

  9
$CUSTOMPROPERTYTAG
  1
DISEGNO
  9
$CUSTOMPROPERTY
  1

  9
$CUSTOMPROPERTYTAG
  1
FILE
  9
$CUSTOMPROPERTY
  1

  9
$CUSTOMPROPERTYTAG
  1
NOTE
  9
$CUSTOMPROPERTY
  1

  9
$CUSTOMPROPERTYTAG
  1
DATA
  9
$CUSTOMPROPERTY
  1

  9
$CUSTOMPROPERTYTAG
  1
DATA_REV
  9
$CUSTOMPROPERTY
  1

  9
$CUSTOMPROPERTYTAG
  1
MOD_REV
  9
$CUSTOMPROPERTY
  1

  9
$CUSTOMPROPERTYTAG
  1
REV
  9
$CUSTOMPROPERTY
  1

  9
$CUSTOMPROPERTYTAG
  1
DIM2
  9
$CUSTOMPROPERTY
  1

  9
$CUSTOMPROPERTYTAG
  1
QTA
  9
$CUSTOMPROPERTY
  1

  9
$CUSTOMPROPERTYTAG
  1
UM
  9
$CUSTOMPROPERTY
  1
NR
  9
$CUSTOMPROPERTYTAG
  1
MATERIALE
  9
$CUSTOMPROPERTY
  1

  9
$CUSTOMPROPERTYTAG
  1
CODICE
  9
$CUSTOMPROPERTY
  1

  9
$CUSTOMPROPERTYTAG
  1
Scala
  9
$CUSTOMPROPERTY
  1
1:1
  9
$REQUIREDVERSIONS
160
                 0
  9
$INSBASE
 10
0.0
 20
0.0
 30
0.0
  9
$EXTMIN
 10
0.0
 20
0.1499999999999609
 30
0.0
  9
$EXTMAX
 10
219.8903409376419
 20
296.85
 30
0.0
  9
$LIMMIN
 10
0.0
 20
0.0
  9
$LIMMAX
 10
210.0
 20
297.0
  9
$ORTHOMODE
 70
     1
  9
$REGENMODE
 70
     1
  9
$FILLMODE
 70
     1
  9
$QTEXTMODE
 70
     0
  9
$MIRRTEXT
 70
     0
  9
$LTSCALE
 40
1.0
  9
$ATTMODE
 70
     1
  9
$TEXTSIZE
 40
3.0
  9
$TRACEWID
 40
0.05
  9
$TEXTSTYLE
  7
ROMANS
  9
$CLAYER
  8
P-0000
  9
$CELTYPE
  6
CONTINUOUS
  9
$CECOLOR
 62
     7
  9
$CELTSCALE
 40
1.0
  9
$DISPSILH
 70
     0
  9
$DIMSCALE
 40
1.0
  9
$DIMASZ
 40
2.0
  9
$DIMEXO
 40
1.0
  9
$DIMDLI
 40
10.0
  9
$DIMRND
 40
0.0
  9
$DIMDLE
 40
0.0
  9
$DIMEXE
 40
1.5
  9
$DIMTP
 40
0.0
  9
$DIMTM
 40
0.0
  9
$DIMTXT
 40
2.0
  9
$DIMCEN
 40
2.0
  9
$DIMTSZ
 40
0.0
  9
$DIMTOL
 70
     0
  9
$DIMLIM
 70
     0
  9
$DIMTIH
 70
     0
  9
$DIMTOH
 70
     0
  9
$DIMSE1
 70
     0
  9
$DIMSE2
 70
     0
  9
$DIMTAD
 70
     1
  9
$DIMZIN
 70
     8
  9
$DIMBLK
  1

  9
$DIMASO
 70
     1
  9
$DIMSHO
 70
     1
  9
$DIMPOST
  1

  9
$DIMAPOST
  1

  9
$DIMALT
 70
     0
  9
$DIMALTD
 70
     2
  9
$DIMALTF
 40
25.4
  9
$DIMLFAC
 40
1.0
  9
$DIMTOFL
 70
     1
  9
$DIMTVP
 40
0.0
  9
$DIMTIX
 70
     0
  9
$DIMSOXD
 70
     0
  9
$DIMSAH
 70
     0
  9
$DIMBLK1
  1

  9
$DIMBLK2
  1

  9
$DIMSTYLE
  2
ACADTOP
  9
$DIMCLRD
 70
     2
  9
$DIMCLRE
 70
     2
  9
$DIMCLRT
 70
     1
  9
$DIMTFAC
 40
0.6
  9
$DIMGAP
 40
1.0
  9
$DIMJUST
 70
     0
  9
$DIMSD1
 70
     0
  9
$DIMSD2
 70
     0
  9
$DIMTOLJ
 70
     1
  9
$DIMTZIN
 70
     8
  9
$DIMALTZ
 70
     0
  9
$DIMALTTZ
 70
     0
  9
$DIMUPT
 70
     0
  9
$DIMDEC
 70
     2
  9
$DIMTDEC
 70
     2
  9
$DIMALTU
 70
     2
  9
$DIMALTTD
 70
     2
  9
$DIMTXSTY
  7
Stile_Quota
  9
$DIMAUNIT
 70
     0
  9
$DIMADEC
 70
     1
  9
$DIMALTRND
 40
0.0
  9
$DIMAZIN
 70
     2
  9
$DIMDSEP
 70
    46
  9
$DIMATFIT
 70
     0
  9
$DIMFRAC
 70
     0
  9
$DIMLDRBLK
  1

  9
$DIMLUNIT
 70
     2
  9
$DIMLWD
 70
    -2
  9
$DIMLWE
 70
    -2
  9
$DIMTMOVE
 70
     0
  9
$DIMFXL
 40
1.0
  9
$DIMFXLON
 70
     0
  9
$DIMJOGANG
 40
0.7853981633974483
  9
$DIMTFILL
 70
     0
  9
$DIMTFILLCLR
 70
     0
  9
$DIMARCSYM
 70
     0
  9
$DIMLTYPE
  6

  9
$DIMLTEX1
  6

  9
$DIMLTEX2
  6

  9
$DIMTXTDIRECTION
 70
     0
  9
$LUNITS
 70
     2
  9
$LUPREC
 70
     3
  9
$SKETCHINC
 40
0.1
  9
$FILLETRAD
 40
0.5
  9
$AUNITS
 70
     0
  9
$AUPREC
 70
     3
  9
$MENU
  1
.
  9
$ELEVATION
 40
0.0
  9
$PELEVATION
 40
0.0
  9
$THICKNESS
 40
0.0
  9
$LIMCHECK
 70
     0
  9
$CHAMFERA
 40
0.5
  9
$CHAMFERB
 40
0.5
  9
$CHAMFERC
 40
1.0
  9
$CHAMFERD
 40
0.0
  9
$SKPOLY
 70
     1
  9
$TDCREATE
 40
2451886.470175463
  9
$TDUCREATE
 40
2451886.428508796
  9
$TDUPDATE
 40
2457065.716918276
  9
$TDUUPDATE
 40
2457065.675251609
  9
$TDINDWG
 40
0.3038623495
  9
$TDUSRTIMER
 40
0.3038623495
  9
$USRTIMER
 70
     1
  9
$ANGBASE
 50
0.0
  9
$ANGDIR
 70
     0
  9
$PDMODE
 70
     0
  9
$PDSIZE
 40
0.0
  9
$PLINEWID
 40
0.0
  9
$SPLFRAME
 70
     0
  9
$SPLINETYPE
 70
     6
  9
$SPLINESEGS
 70
     8
  9
$HANDSEED
  5
B2F
  9
$SURFTAB1
 70
     6
  9
$SURFTAB2
 70
     6
  9
$SURFTYPE
 70
     6
  9
$SURFU
 70
     6
  9
$SURFV
 70
     6
  9
$UCSBASE
  2

  9
$UCSNAME
  2

  9
$UCSORG
 10
0.0
 20
0.0
 30
0.0
  9
$UCSXDIR
 10
1.0
 20
0.0
 30
0.0
  9
$UCSYDIR
 10
0.0
 20
1.0
 30
0.0
  9
$UCSORTHOREF
  2

  9
$UCSORTHOVIEW
 70
     0
  9
$UCSORGTOP
 10
0.0
 20
0.0
 30
0.0
  9
$UCSORGBOTTOM
 10
0.0
 20
0.0
 30
0.0
  9
$UCSORGLEFT
 10
0.0
 20
0.0
 30
0.0
  9
$UCSORGRIGHT
 10
0.0
 20
0.0
 30
0.0
  9
$UCSORGFRONT
 10
0.0
 20
0.0
 30
0.0
  9
$UCSORGBACK
 10
0.0
 20
0.0
 30
0.0
  9
$PUCSBASE
  2

  9
$PUCSNAME
  2

  9
$PUCSORG
 10
0.0
 20
0.0
 30
0.0
  9
$PUCSXDIR
 10
1.0
 20
0.0
 30
0.0
  9
$PUCSYDIR
 10
0.0
 20
1.0
 30
0.0
  9
$PUCSORTHOREF
  2

  9
$PUCSORTHOVIEW
 70
     0
  9
$PUCSORGTOP
 10
0.0
 20
0.0
 30
0.0
  9
$PUCSORGBOTTOM
 10
0.0
 20
0.0
 30
0.0
  9
$PUCSORGLEFT
 10
0.0
 20
0.0
 30
0.0
  9
$PUCSORGRIGHT
 10
0.0
 20
0.0
 30
0.0
  9
$PUCSORGFRONT
 10
0.0
 20
0.0
 30
0.0
  9
$PUCSORGBACK
 10
0.0
 20
0.0
 30
0.0
  9
$USERI1
 70
     0
  9
$USERI2
 70
     0
  9
$USERI3
 70
     0
  9
$USERI4
 70
     0
  9
$USERI5
 70
     0
  9
$USERR1
 40
0.0
  9
$USERR2
 40
0.0
  9
$USERR3
 40
0.0
  9
$USERR4
 40
0.0
  9
$USERR5
 40
0.0
  9
$WORLDVIEW
 70
     1
  9
$SHADEDGE
 70
     3
  9
$SHADEDIF
 70
    70
  9
$TILEMODE
 70
     1
  9
$MAXACTVP
 70
    48
  9
$PINSBASE
 10
0.0
 20
0.0
 30
0.0
  9
$PLIMCHECK
 70
     0
  9
$PEXTMIN
 10
0.0
 20
0.0
 30
0.0
  9
$PEXTMAX
 10
210.0
 20
297.0
 30
0.0
  9
$PLIMMIN
 10
0.0
 20
0.0
  9
$PLIMMAX
 10
210.0
 20
297.0
  9
$UNITMODE
 70
     0
  9
$VISRETAIN
 70
     1
  9
$PLINEGEN
 70
     0
  9
$PSLTSCALE
 70
     1
  9
$TREEDEPTH
 70
  3020
  9
$CMLSTYLE
  2
STANDARD
  9
$CMLJUST
 70
     0
  9
$CMLSCALE
 40
1.0
  9
$PROXYGRAPHICS
 70
     1
  9
$MEASUREMENT
 70
     1
  9
$CELWEIGHT
370
    -1
  9
$ENDCAPS
280
     0
  9
$JOINSTYLE
280
     0
  9
$LWDISPLAY
290
     0
  9
$INSUNITS
 70
     4
  9
$HYPERLINKBASE
  1

  9
$STYLESHEET
  1

  9
$XEDIT
290
     1
  9
$CEPSNTYPE
380
     0
  9
$PSTYLEMODE
290
     1
  9
$FINGERPRINTGUID
  2
{2BC13366-CC32-11D4-9A33-0050DA45A434}
  9
$VERSIONGUID
  2
{8A9AA25D-07D6-4DEB-A711-D8BF0252F597}
  9
$EXTNAMES
290
     1
  9
$PSVPSCALE
 40
0.0
  9
$OLESTARTUP
290
     0
  9
$SORTENTS
280
   127
  9
$INDEXCTL
280
     0
  9
$HIDETEXT
280
     0
  9
$XCLIPFRAME
280
     2
  9
$HALOGAP
280
     0
  9
$OBSCOLOR
 70
   257
  9
$OBSLTYPE
280
     0
  9
$INTERSECTIONDISPLAY
280
     0
  9
$INTERSECTIONCOLOR
 70
   257
  9
$DIMASSOC
280
     1
  9
$PROJECTNAME
  1

  9
$CAMERADISPLAY
290
     0
  9
$LENSLENGTH
 40
50.0
  9
$CAMERAHEIGHT
 40
0.0
  9
$STEPSPERSEC
 40
2.0
  9
$STEPSIZE
 40
6.0
  9
$3DDWFPREC
 40
2.0
  9
$PSOLWIDTH
 40
0.25
  9
$PSOLHEIGHT
 40
4.0
  9
$LOFTANG1
 40
1.570796326794896
  9
$LOFTANG2
 40
1.570796326794896
  9
$LOFTMAG1
 40
0.0
  9
$LOFTMAG2
 40
0.0
  9
$LOFTPARAM
 70
     7
  9
$LOFTNORMALS
280
     1
  9
$LATITUDE
 40
37.795
  9
$LONGITUDE
 40
-122.394
  9
$NORTHDIRECTION
 40
0.0
  9
$TIMEZONE
 70
 -8000
  9
$LIGHTGLYPHDISPLAY
280
     1
  9
$TILEMODELIGHTSYNCH
280
     1
  9
$CMATERIAL
347
2B1
  9
$SOLIDHIST
280
     0
  9
$SHOWHIST
280
     1
  9
$DWFFRAME
280
     2
  9
$DGNFRAME
280
     0
  9
$REALWORLDSCALE
290
     1
  9
$INTERFERECOLOR
 62
     1
  9
$INTERFEREOBJVS
345
2BE
  9
$INTERFEREVPVS
346
A1C
  9
$CSHADOW
280
     0
  9
$SHADOWPLANELOCATION
 40
0.0
  0
ENDSEC
  0
SECTION
  2
CLASSES
  0
CLASS
  1
DICTIONARYVAR
  2
AcDbDictionaryVar
  3
ObjectDBX Classes
 90
        0
 91
       14
280
     0
281
     0
  0
CLASS
  1
ACDBDICTIONARYWDFLT
  2
AcDbDictionaryWithDefault
  3
ObjectDBX Classes
 90
        0
 91
        1
280
     0
281
     0
  0
CLASS
  1
PLOTSETTINGS
  2
AcDbPlotSettings
  3
ObjectDBX Classes
 90
        0
 91
       13
280
     0
281
     0
  0
CLASS
  1
MATERIAL
  2
AcDbMaterial
  3
ObjectDBX Classes
 90
     1153
 91
        3
280
     0
281
     0
  0
CLASS
  1
VISUALSTYLE
  2
AcDbVisualStyle
  3
ObjectDBX Classes
 90
     4095
 91
       26
280
     0
281
     0
  0
CLASS
  1
TABLESTYLE
  2
AcDbTableStyle
  3
ObjectDBX Classes
 90
     4095
 91
        5
280
     0
281
     0
  0
CLASS
  1
SCALE
  2
AcDbScale
  3
ObjectDBX Classes
 90
     1153
 91
       33
280
     0
281
     0
  0
CLASS
  1
MLEADERSTYLE
  2
AcDbMLeaderStyle
  3
ACDB_MLEADERSTYLE_CLASS
 90
     4095
 91
        2
280
     0
281
     0
  0
CLASS
  1
CELLSTYLEMAP
  2
AcDbCellStyleMap
  3
ObjectDBX Classes
 90
     1152
 91
       18
280
     0
281
     0
  0
CLASS
  1
DIMASSOC
  2
AcDbDimAssoc
  3
"AcDbDimAssoc|Product Desc:     AcDim ARX App For Dimension|Company:          Autodesk, Inc.|WEB Address:      www.autodesk.com"
 90
        0
 91
        0
280
     0
281
     0
  0
CLASS
  1
ACDBSECTIONVIEWSTYLE
  2
AcDbSectionViewStyle
  3
ObjectDBX Classes
 90
     1025
 91
        1
280
     0
281
     0
  0
CLASS
  1
ACDBDETAILVIEWSTYLE
  2
AcDbDetailViewStyle
  3
ObjectDBX Classes
 90
     1025
 91
        1
280
     0
281
     0
  0
CLASS
  1
ACDBQSCATEGORY
  2
AcQsCategory
  3
categories
 90
     1024
 91
        1
280
     0
281
     0
  0
CLASS
  1
ACDBQSPALLSTYLE
  2
AcQsPallStyle
  3
pallcart
 90
     1024
 91
        1
280
     0
281
     0
  0
ENDSEC
  0
SECTION
  2
TABLES
  0
TABLE
  2
VPORT
  5
12
102
{ACAD_XDICTIONARY
360
300
102
}
330
0
100
AcDbSymbolTable
 70
     1
  0
VPORT
  5
2AE
330
12
100
AcDbSymbolTableRecord
100
AcDbViewportTableRecord
  2
*Active
 70
     0
 10
0.0
 20
0.0
 11
1.0
 21
1.0
 12
257.8019058594867
 22
137.4842148080787
 13
0.0
 23
0.0
 14
1.0
 24
1.0
 15
1.0
 25
1.0
 16
0.0
 26
0.0
 36
1.0
 17
0.0
 27
0.0
 37
0.0
 40
298.2610189106894
 41
2.387001477104874
 42
50.0
 43
0.0
 44
0.0
 50
0.0
 51
0.0
 71
     0
 72
   100
 73
     1
 74
     0
 75
     0
 76
     0
 77
     0
 78
     0
281
     0
 65
     1
110
0.0
120
0.0
130
0.0
111
1.0
121
0.0
131
0.0
112
0.0
122
1.0
132
0.0
 79
     0
146
0.0
348
2BA
 60
     3
 61
     5
292
     1
282
     1
141
0.0
142
0.0
 63
   250
421
  3355443
1001
ACAD_NAV_VCDISPLAY
1070
     3
  0
ENDTAB
  0
TABLE
  2
LTYPE
  5
D
330
0
100
AcDbSymbolTable
 70
     5
  0
LTYPE
  5
E
330
D
100
AcDbSymbolTableRecord
100
AcDbLinetypeTableRecord
  2
BYBLOCK
 70
     0
  3

 72
    65
 73
     0
 40
0.0
  0
LTYPE
  5
F
330
D
100
AcDbSymbolTableRecord
100
AcDbLinetypeTableRecord
  2
BYLAYER
 70
     0
  3

 72
    65
 73
     0
 40
0.0
  0
LTYPE
  5
5
330
D
100
AcDbSymbolTableRecord
100
AcDbLinetypeTableRecord
  2
CONTINUOUS
 70
     0
  3
Solid line
 72
    65
 73
     0
 40
0.0
  0
LTYPE
  5
3E
330
D
100
AcDbSymbolTableRecord
100
AcDbLinetypeTableRecord
  2
ASSI
 70
     0
  3
-.-.-.-.-.-.-.-.-.-.-.-.-.-.-.-.-.-.-.-.-.-.-.-
 72
    65
 73
     4
 40
16.0
 49
10.0
 74
     0
 49
-2.0
 74
     0
 49
2.0
 74
     0
 49
-2.0
 74
     0
  0
LTYPE
  5
3F
330
D
100
AcDbSymbolTableRecord
100
AcDbLinetypeTableRecord
  2
INGOMBRI
 70
     0
  3
--..--..--..--..--..--..--..--..--..--..--..--
 72
    65
 73
     6
 40
20.0
 49
10.0
 74
     0
 49
-2.0
 74
     0
 49
2.0
 74
     0
 49
-2.0
 74
     0
 49
2.0
 74
     0
 49
-2.0
 74
     0
  0
LTYPE
  5
40
330
D
100
AcDbSymbolTableRecord
100
AcDbLinetypeTableRecord
  2
TRATTEGGIO
 70
     0
  3
- - - - - - - - - - - - - - - - - - - - - -
 72
    65
 73
     2
 40
5.5
 49
4.0
 74
     0
 49
-1.5
 74
     0
  0
LTYPE
  5
277
330
D
100
AcDbSymbolTableRecord
100
AcDbLinetypeTableRecord
  2
PUNTO
 70
     0
  3
Punto . . . . . . . . . . . . . . . . . . . . .
 72
    65
 73
     2
 40
6.349999999999999
 49
0.0
 74
     0
 49
-6.349999999999999
 74
     0
  0
ENDTAB
  0
TABLE
  2
LAYER
  5
A
102
{ACAD_XDICTIONARY
360
A50
102
}
330
0
100
AcDbSymbolTable
 70
    21
  0
LAYER
  5
4
102
{ACAD_XDICTIONARY
360
37B
102
}
330
A
100
AcDbSymbolTableRecord
100
AcDbLayerTableRecord
  2
0
 70
     0
 62
     7
  6
CONTINUOUS
370
    -3
390
44
347
2B3
348
0
  0
LAYER
  5
6E7
102
{ACAD_XDICTIONARY
360
A56
102
}
330
A
100
AcDbSymbolTableRecord
100
AcDbLayerTableRecord
  2
ASSI
 70
     0
 62
     2
420
 16776960
  6
CONTINUOUS
370
     5
390
44
347
2B3
348
0
  0
LAYER
  5
6E8
102
{ACAD_XDICTIONARY
360
A58
102
}
330
A
100
AcDbSymbolTableRecord
100
AcDbLayerTableRecord
  2
CAMPITURE
 70
     0
 62
     4
420
    65535
  6
CONTINUOUS
370
    15
390
44
347
2B3
348
0
  0
LAYER
  5
6E9
102
{ACAD_XDICTIONARY
360
A5A
102
}
330
A
100
AcDbSymbolTableRecord
100
AcDbLayerTableRecord
  2
CARTIGLIO
 70
     0
 62
     7
  6
CONTINUOUS
370
    30
390
44
347
2B3
348
0
  0
LAYER
  5
6EA
102
{ACAD_XDICTIONARY
360
A5C
102
}
330
A
100
AcDbSymbolTableRecord
100
AcDbLayerTableRecord
  2
CARTIGLIO SOTTILE
 70
     0
 62
     3
420
    65280
  6
CONTINUOUS
370
    15
390
44
347
2B3
348
0
  0
LAYER
  5
6EB
102
{ACAD_XDICTIONARY
360
A5E
102
}
330
A
100
AcDbSymbolTableRecord
100
AcDbLayerTableRecord
  2
CARTIGLIO SOTTILE 2
 70
     0
 62
     1
420
 16711680
  6
CONTINUOUS
370
    15
390
44
347
2B3
348
0
  0
LAYER
  5
6EC
102
{ACAD_XDICTIONARY
360
A60
102
}
330
A
100
AcDbSymbolTableRecord
100
AcDbLayerTableRecord
  2
CARTIGLIO SOTTILE 3
 70
     0
 62
     2
420
 16776960
  6
CONTINUOUS
370
     5
390
44
347
2B3
348
0
  0
LAYER
  5
6EF
102
{ACAD_XDICTIONARY
360
A62
102
}
330
A
100
AcDbSymbolTableRecord
100
AcDbLayerTableRecord
  2
GEOMETRIA SCHIZZO
 70
     0
 62
     4
420
    65535
  6
CONTINUOUS
370
    20
390
44
347
2B3
348
0
  0
LAYER
  5
6F5
102
{ACAD_XDICTIONARY
360
A64
102
}
330
A
100
AcDbSymbolTableRecord
100
AcDbLayerTableRecord
  2
LOGO
 70
     0
 62
     7
  6
CONTINUOUS
370
    30
390
44
347
2B3
348
0
  0
LAYER
  5
701
102
{ACAD_XDICTIONARY
360
A66
102
}
330
A
100
AcDbSymbolTableRecord
100
AcDbLayerTableRecord
  2
SQUADRATURA
 70
     0
 62
     7
  6
CONTINUOUS
370
    30
390
44
347
2B3
348
0
  0
LAYER
  5
702
102
{ACAD_XDICTIONARY
360
A68
102
}
330
A
100
AcDbSymbolTableRecord
100
AcDbLayerTableRecord
  2
SQUADRATURA SOTTILE
 70
     0
 62
     3
420
    65280
  6
CONTINUOUS
370
    15
390
44
347
2B3
348
0
  0
LAYER
  5
703
102
{ACAD_XDICTIONARY
360
A6A
102
}
330
A
100
AcDbSymbolTableRecord
100
AcDbLayerTableRecord
  2
SQUADRATURA SOTTILE 2
 70
     0
 62
     1
420
 16711680
  6
CONTINUOUS
370
     9
390
44
347
2B3
348
0
  0
LAYER
  5
705
102
{ACAD_XDICTIONARY
360
A6C
102
}
330
A
100
AcDbSymbolTableRecord
100
AcDbLayerTableRecord
  2
TESTI CARTIGLIO
 70
     0
 62
     7
  6
CONTINUOUS
370
    30
390
44
347
2B3
348
0
  0
LAYER
  5
706
102
{ACAD_XDICTIONARY
360
A6E
102
}
330
A
100
AcDbSymbolTableRecord
100
AcDbLayerTableRecord
  2
TESTI CARTIGLIO SOTTILE
 70
     0
 62
     1
420
 16711680
  6
CONTINUOUS
370
     9
390
44
347
2B3
348
0
  0
LAYER
  5
708
102
{ACAD_XDICTIONARY
360
A70
102
}
330
A
100
AcDbSymbolTableRecord
100
AcDbLayerTableRecord
  2
TESTO NORMALE
 70
     0
 62
     7
  6
CONTINUOUS
370
    30
390
44
347
2B3
348
0
  0
LAYER
  5
A39
102
{ACAD_XDICTIONARY
360
A72
102
}
330
A
100
AcDbSymbolTableRecord
100
AcDbLayerTableRecord
  2
P-0000
 70
     0
 62
     7
  6
CONTINUOUS
370
    -3
390
44
347
2B3
348
0
1001
AcAecLayerStandard
1000

1000
18.100.00
  0
LAYER
  5
A40
330
A
100
AcDbSymbolTableRecord
100
AcDbLayerTableRecord
  2
Defpoints
 70
     0
 62
     7
  6
CONTINUOUS
290
     0
370
    -3
390
44
347
2B3
348
0
  0
ENDTAB
  0
TABLE
  2
STYLE
  5
B
330
0
100
AcDbSymbolTable
 70
    32
  0
STYLE
  5
C
330
B
100
AcDbSymbolTableRecord
100
AcDbTextStyleTableRecord
  2
STANDARD
 70
     0
 40
0.0
 41
0.8
 50
0.0
 71
     0
 42
0.2
  3
romans.shx
  4

  0
STYLE
  5
1B
330
B
100
AcDbSymbolTableRecord
100
AcDbTextStyleTableRecord
  2
ROMANS
 70
     0
 40
0.0
 41
0.8
 50
0.0
 71
     0
 42
3.0
  3
ROMANS.shx
  4

  0
STYLE
  5
25
330
B
100
AcDbSymbolTableRecord
100
AcDbTextStyleTableRecord
  2

 70
     1
 40
0.0
 41
1.0
 50
0.0
 71
     0
 42
0.2
  3
ltypeshp.shx
  4

  0
STYLE
  5
35C
330
B
100
AcDbSymbolTableRecord
100
AcDbTextStyleTableRecord
  2
Stile_Quota
 70
     0
 40
0.0
 41
1.0
 50
0.0
 71
     0
 42
3.0
  3

  4

1001
ACAD
1000
Bodoni MT
1071
 16777234
  0
STYLE
  5
635
330
B
100
AcDbSymbolTableRecord
100
AcDbTextStyleTableRecord
  2
Stile_Quota_FISSO
 70
     0
 40
20.0
 41
1.0
 50
0.0
 71
     0
 42
3.0
  3

  4

1001
ACAD
1000
Bodoni MT
1071
 16777234
  0
STYLE
  5
70C
330
B
100
AcDbSymbolTableRecord
100
AcDbTextStyleTableRecord
  2
QUOTE
 70
     0
 40
0.0
 41
1.0
 50
0.0
 71
     0
 42
3.0
  3

  4

1001
ACAD
1000
Bodoni MT
1071
 16777472
  0
STYLE
  5
70D
330
B
100
AcDbSymbolTableRecord
100
AcDbTextStyleTableRecord
  2
SS-CART
 70
     0
 40
0.0
 41
1.0
 50
0.0
 71
     0
 42
3.0
  3
sanss___.ttf
  4

1001
ACAD
1000
SansSerif
1071
      256
  0
STYLE
  5
70E
330
B
100
AcDbSymbolTableRecord
100
AcDbTextStyleTableRecord
  2
Standard_87
 70
     0
 40
0.0
 41
1.0
 50
0.0
 71
     0
 42
3.0
  3
monotxt.shx
  4

  0
STYLE
  5
70F
330
B
100
AcDbSymbolTableRecord
100
AcDbTextStyleTableRecord
  2
Stile_Cart
 70
     0
 40
0.0
 41
1.0
 50
0.0
 71
     0
 42
3.0
  3
times.ttf
  4

1001
ACAD
1000
Times New Roman
1071
      256
  0
STYLE
  5
710
330
B
100
AcDbSymbolTableRecord
100
AcDbTextStyleTableRecord
  2
STYLE1_63
 70
     0
 40
0.0
 41
1.0
 50
0.0
 71
     0
 42
3.0
  3
eurr____.ttf
  4

1001
ACAD
1000
EuroRoman
1071
      256
  0
STYLE
  5
711
330
B
100
AcDbSymbolTableRecord
100
AcDbTextStyleTableRecord
  2
STYLE1_82
 70
     0
 40
0.0
 41
1.0
 50
0.0
 71
     0
 42
3.0
  3
eurr____.ttf
  4

1001
ACAD
1000
EuroRoman
1071
      256
  0
STYLE
  5
712
330
B
100
AcDbSymbolTableRecord
100
AcDbTextStyleTableRecord
  2
STYLE1_83
 70
     0
 40
0.0
 41
1.0
 50
0.0
 71
     0
 42
3.0
  3
eurr____.ttf
  4

1001
ACAD
1000
EuroRoman
1071
      256
  0
STYLE
  5
713
330
B
100
AcDbSymbolTableRecord
100
AcDbTextStyleTableRecord
  2
STYLE1_85
 70
     0
 40
0.0
 41
1.0
 50
0.0
 71
     0
 42
3.0
  3
eurr____.ttf
  4

1001
ACAD
1000
EuroRoman
1071
      256
  0
STYLE
  5
714
330
B
100
AcDbSymbolTableRecord
100
AcDbTextStyleTableRecord
  2
STYLE1_94
 70
     0
 40
0.0
 41
1.0
 50
0.0
 71
     0
 42
3.0
  3
eurr____.ttf
  4

1001
ACAD
1000
EuroRoman
1071
      256
  0
STYLE
  5
715
330
B
100
AcDbSymbolTableRecord
100
AcDbTextStyleTableRecord
  2
STYLE1_97
 70
     0
 40
0.0
 41
1.0
 50
0.0
 71
     0
 42
3.0
  3
eurr____.ttf
  4

1001
ACAD
1000
EuroRoman
1071
      256
  0
STYLE
  5
716
330
B
100
AcDbSymbolTableRecord
100
AcDbTextStyleTableRecord
  2
TESTO EVIDENZIATO
 70
     0
 40
0.0
 41
1.0
 50
0.0
 71
     0
 42
3.0
  3
sanss___.ttf
  4

1001
ACAD
1000
SansSerif
1071
      256
  0
STYLE
  5
717
330
B
100
AcDbSymbolTableRecord
100
AcDbTextStyleTableRecord
  2
TESTO EVIDENZIATO PER TABELLE
 70
     0
 40
0.0
 41
1.0
 50
0.0
 71
     0
 42
3.0
  3
sanss___.ttf
  4

1001
ACAD
1000
SansSerif
1071
      256
  0
STYLE
  5
718
330
B
100
AcDbSymbolTableRecord
100
AcDbTextStyleTableRecord
  2
TESTO NORMALE
 70
     0
 40
0.0
 41
1.0
 50
0.0
 71
     0
 42
3.0
  3
sanss___.ttf
  4

1001
ACAD
1000
SansSerif
1071
      256
  0
STYLE
  5
719
330
B
100
AcDbSymbolTableRecord
100
AcDbTextStyleTableRecord
  2
TESTO NORMALE PER TABELLE
 70
     0
 40
0.0
 41
0.899999976158142
 50
0.0
 71
     0
 42
3.0
  3
times.ttf
  4

1001
ACAD
1000
Times New Roman
1071
      256
  0
STYLE
  5
71A
330
B
100
AcDbSymbolTableRecord
100
AcDbTextStyleTableRecord
  2
TESTO PALLINATURA
 70
     0
 40
0.0
 41
1.0
 50
0.0
 71
     0
 42
3.0
  3
times.ttf
  4

1001
ACAD
1000
Times New Roman
1071
      256
  0
STYLE
  5
71B
330
B
100
AcDbSymbolTableRecord
100
AcDbTextStyleTableRecord
  2
TESTO RUGOSITA
 70
     0
 40
0.0
 41
1.0
 50
0.0
 71
     0
 42
3.0
  3
sanss___.ttf
  4

1001
ACAD
1000
SansSerif
1071
      256
  0
STYLE
  5
71C
330
B
100
AcDbSymbolTableRecord
100
AcDbTextStyleTableRecord
  2
TESTO TITOLO TABELLE
 70
     0
 40
0.0
 41
0.899999976158142
 50
0.0
 71
     0
 42
3.0
  3
sanss___.ttf
  4

1001
ACAD
1000
SansSerif
1071
      256
  0
STYLE
  5
71D
330
B
100
AcDbSymbolTableRecord
100
AcDbTextStyleTableRecord
  2
TESTO TOLL GEOMETRICHE
 70
     0
 40
0.0
 41
1.0
 50
0.0
 71
     0
 42
3.0
  3
sanss___.ttf
  4

1001
ACAD
1000
SansSerif
1071
      256
  0
STYLE
  5
71E
330
B
100
AcDbSymbolTableRecord
100
AcDbTextStyleTableRecord
  2
TESTO TOLLERANZE
 70
     0
 40
0.0
 41
1.0
 50
0.0
 71
     0
 42
3.0
  3
BOD_R.TTF
  4

1001
ACAD
1000
Bodoni MT
1071
      256
  0
STYLE
  5
885
330
B
100
AcDbSymbolTableRecord
100
AcDbTextStyleTableRecord
  2
Stile testo67
 70
     0
 40
0.0
 41
1.100000023841857
 50
0.0
 71
     0
 42
3.0
  3
eurr____.ttf
  4

1001
ACAD
1000
EuroRoman
1071
      256
  0
STYLE
  5
8A8
330
B
100
AcDbSymbolTableRecord
100
AcDbTextStyleTableRecord
  2
Stile testo102
 70
     0
 40
0.0
 41
1.0
 50
0.0
 71
     0
 42
3.0
  3
times.ttf
  4

1001
ACAD
1000
Times New Roman
1071
      256
  0
STYLE
  5
8AB
330
B
100
AcDbSymbolTableRecord
100
AcDbTextStyleTableRecord
  2
Stile testo71
 70
     0
 40
0.0
 41
1.0
 50
0.0
 71
     0
 42
3.0
  3
times.ttf
  4

1001
ACAD
1000
Times New Roman
1071
      256
  0
STYLE
  5
8AF
330
B
100
AcDbSymbolTableRecord
100
AcDbTextStyleTableRecord
  2
Stile testo75
 70
     0
 40
0.0
 41
1.0
 50
0.0
 71
     0
 42
3.0
  3
times.ttf
  4

1001
ACAD
1000
Times New Roman
1071
      256
  0
STYLE
  5
8B4
330
B
100
AcDbSymbolTableRecord
100
AcDbTextStyleTableRecord
  2
Stile testo78
 70
     0
 40
0.0
 41
1.0
 50
0.0
 71
     0
 42
3.0
  3
times.ttf
  4

1001
ACAD
1000
Times New Roman
1071
      256
  0
STYLE
  5
8B7
330
B
100
AcDbSymbolTableRecord
100
AcDbTextStyleTableRecord
  2
Stile testo103
 70
     0
 40
0.0
 41
1.0
 50
0.0
 71
     0
 42
3.0
  3
times.ttf
  4

1001
ACAD
1000
Times New Roman
1071
      256
  0
STYLE
  5
8BC
330
B
100
AcDbSymbolTableRecord
100
AcDbTextStyleTableRecord
  2
Stile testo68
 70
     0
 40
0.0
 41
1.0
 50
0.0
 71
     0
 42
3.0
  3
times.ttf
  4

1001
ACAD
1000
Times New Roman
1071
      256
  0
STYLE
  5
A41
330
B
100
AcDbSymbolTableRecord
100
AcDbTextStyleTableRecord
  2
SS-TABPALL
 70
     0
 40
0.0
 41
1.0
 50
0.0
 71
     0
 42
3.0
  3
times.ttf
  4

1001
ACAD
1000
Times New Roman
1071
       18
  0
ENDTAB
  0
TABLE
  2
VIEW
  5
10
330
0
100
AcDbSymbolTable
 70
     0
  0
ENDTAB
  0
TABLE
  2
UCS
  5
11
330
0
100
AcDbSymbolTable
 70
     0
  0
ENDTAB
  0
TABLE
  2
APPID
  5
14
330
0
100
AcDbSymbolTable
 70
    11
  0
APPID
  5
15
330
14
100
AcDbSymbolTableRecord
100
AcDbRegAppTableRecord
  2
ACAD
 70
     0
  0
APPID
  5
53
330
14
100
AcDbSymbolTableRecord
100
AcDbRegAppTableRecord
  2
TOP
 70
     0
  0
APPID
  5
356
330
14
100
AcDbSymbolTableRecord
100
AcDbRegAppTableRecord
  2
ACAD_MLEADERVER
 70
     0
  0
APPID
  5
35A
330
14
100
AcDbSymbolTableRecord
100
AcDbRegAppTableRecord
  2
ACAD_DSTYLE_DIMJAG
 70
     0
  0
APPID
  5
35B
330
14
100
AcDbSymbolTableRecord
100
AcDbRegAppTableRecord
  2
ACAD_DSTYLE_DIMTALN
 70
     0
  0
APPID
  5
35D
330
14
100
AcDbSymbolTableRecord
100
AcDbRegAppTableRecord
  2
AcadAnnoPO
 70
     0
  0
APPID
  5
374
330
14
100
AcDbSymbolTableRecord
100
AcDbRegAppTableRecord
  2
ACAD_EXEMPT_FROM_CAD_STANDARDS
 70
     0
  0
APPID
  5
38F
330
14
100
AcDbSymbolTableRecord
100
AcDbRegAppTableRecord
  2
ACAD_PSEXT
 70
     0
  0
APPID
  5
3BC
330
14
100
AcDbSymbolTableRecord
100
AcDbRegAppTableRecord
  2
ACAD_DSTYLE_DIMBREAK
 70
     0
  0
APPID
  5
A3A
330
14
100
AcDbSymbolTableRecord
100
AcDbRegAppTableRecord
  2
AcAecLayerStandard
 70
     0
  0
APPID
  5
A42
330
14
100
AcDbSymbolTableRecord
100
AcDbRegAppTableRecord
  2
ACAD_NAV_VCDISPLAY
 70
     0
  0
ENDTAB
  0
TABLE
  2
DIMSTYLE
  5
16
330
0
100
AcDbSymbolTable
 70
     6
100
AcDbDimStyleTable
 71
     3
340
1D
340
3BD
340
3BE
  0
DIMSTYLE
105
1D
330
16
100
AcDbSymbolTableRecord
100
AcDbDimStyleTableRecord
  2
ACADTOP
 70
     0
 41
2.0
 42
1.0
 43
10.0
 44
1.5
 73
     0
 74
     0
 77
     1
 78
     8
 79
     2
140
2.0
141
2.0
146
0.6
147
1.0
172
     1
176
     2
177
     2
178
     1
179
     1
271
     2
272
     2
284
     8
289
     0
340
35C
1001
ACAD_DSTYLE_DIMJAG
1070
   388
1040
1.5
1001
ACAD_DSTYLE_DIMTALN
1070
   392
1070
     0
  0
DIMSTYLE
105
3BD
330
16
100
AcDbSymbolTableRecord
100
AcDbDimStyleTableRecord
  2
DIERRE_LUNG-ALT
 70
     0
 41
3.0
 42
1.0
 43
10.0
 44
1.5
 73
     0
 74
     0
 75
     1
 76
     1
 78
     8
 79
     2
140
20.0
141
2.0
146
0.6
147
1.0
172
     1
176
     3
177
     3
178
    30
179
     1
271
     1
272
     1
281
     1
282
     1
284
     8
340
635
1001
ACAD_DSTYLE_DIMBREAK
1070
   391
1040
3.75
1001
ACAD_DSTYLE_DIMJAG
1070
   388
1040
1.5
1001
ACAD_DSTYLE_DIMTALN
1070
   392
1070
     0
  0
DIMSTYLE
105
3BE
330
16
100
AcDbSymbolTableRecord
100
AcDbDimStyleTableRecord
  2
DIERRE_LARG
 70
     0
 41
3.0
 42
1.0
 43
10.0
 44
1.5
 73
     0
 74
     0
 75
     1
 76
     1
 78
     8
 79
     2
140
20.0
141
2.0
146
0.6
147
1.0
172
     1
176
     4
177
     4
178
     4
179
     1
271
     1
272
     1
281
     1
282
     1
284
     8
340
635
1001
ACAD_DSTYLE_DIMBREAK
1070
   391
1040
3.75
1001
ACAD_DSTYLE_DIMJAG
1070
   388
1040
1.5
1001
ACAD_DSTYLE_DIMTALN
1070
   392
1070
     0
  0
DIMSTYLE
105
73B
330
16
100
AcDbSymbolTableRecord
100
AcDbDimStyleTableRecord
  2
PALLINATURA
 70
     0
 41
0.75
340
C
342
73C
  0
DIMSTYLE
105
743
330
16
100
AcDbSymbolTableRecord
100
AcDbDimStyleTableRecord
  2
PALLINATURA GRANDE
 70
     0
 41
3.0
340
C
342
73C
  0
DIMSTYLE
105
744
330
16
100
AcDbSymbolTableRecord
100
AcDbDimStyleTableRecord
  2
RIFERIMENTO
 70
     0
 41
2.0
340
C
342
73C
  0
ENDTAB
  0
TABLE
  2
BLOCK_RECORD
  5
1
330
0
100
AcDbSymbolTable
 70
     7
  0
BLOCK_RECORD
  5
2
330
1
100
AcDbSymbolTableRecord
100
AcDbBlockTableRecord
  2
*MODEL_SPACE
340
47
 70
     0
280
     1
281
     0
  0
BLOCK_RECORD
  5
7
330
1
100
AcDbSymbolTableRecord
100
AcDbBlockTableRecord
  2
*PAPER_SPACE
340
48
 70
     0
280
     1
281
     0
  0
BLOCK_RECORD
  5
71F
330
1
100
AcDbSymbolTableRecord
100
AcDbBlockTableRecord
  2
Filled-1
340
0
 70
     0
280
     1
281
     0
  0
BLOCK_RECORD
  5
72D
330
1
100
AcDbSymbolTableRecord
100
AcDbBlockTableRecord
  2
Filled-2
340
0
 70
     0
280
     1
281
     0
  0
BLOCK_RECORD
  5
73C
330
1
100
AcDbSymbolTableRecord
100
AcDbBlockTableRecord
  2
_Closed
340
0
 70
     0
280
     1
281
     0
  0
BLOCK_RECORD
  5
745
330
1
100
AcDbSymbolTableRecord
100
AcDbBlockTableRecord
  2
__
340
0
 70
     0
280
     1
281
     0
  0
BLOCK_RECORD
  5
74D
330
1
100
AcDbSymbolTableRecord
100
AcDbBlockTableRecord
  2
Bordi Standard
340
0
 70
     0
280
     1
281
     0
  0
BLOCK_RECORD
  5
76B
330
1
100
AcDbSymbolTableRecord
100
AcDbBlockTableRecord
  2
Cartigli DIERRE
340
0
 70
     0
280
     1
281
     0
  0
ENDTAB
  0
ENDSEC
  0
SECTION
  2
BLOCKS
  0
BLOCK
  5
3
330
2
100
AcDbEntity
  8
0
100
AcDbBlockBegin
  2
*MODEL_SPACE
 70
     0
 10
0.0
 20
0.0
 30
0.0
  3
*MODEL_SPACE
  1

  0
ENDBLK
  5
6
330
2
100
AcDbEntity
  8
0
100
AcDbBlockEnd
  0
BLOCK
  5
8
330
7
100
AcDbEntity
 67
     1
  8
0
100
AcDbBlockBegin
  2
*PAPER_SPACE
 70
     0
 10
0.0
 20
0.0
 30
0.0
  3
*PAPER_SPACE
  1

  0
ENDBLK
  5
9
330
7
100
AcDbEntity
 67
     1
  8
0
100
AcDbBlockEnd
  0
BLOCK
  5
720
330
71F
100
AcDbEntity
  8
0
 62
     7
100
AcDbBlockBegin
  2
Filled-1
 70
     0
 10
0.0
 20
0.0
 30
0.0
  3
Filled-1
  1

  0
LINE
  5
722
330
71F
100
AcDbEntity
  8
0
 62
     0
100
AcDbLine
 10
-1.0
 20
0.0
 30
0.0
 11
0.0
 21
0.0
 31
0.0
  0
POLYLINE
  5
723
330
71F
100
AcDbEntity
  8
0
 62
     0
100
AcDb2dPolyline
 66
     1
 10
0.0
 20
0.0
 30
0.0
 70
   128
  0
VERTEX
  5
724
330
723
100
AcDbEntity
  8
0
 62
     0
100
AcDbVertex
100
AcDb2dVertex
 10
-1.0
 20
-0.125
 30
0.0
  0
VERTEX
  5
725
330
723
100
AcDbEntity
  8
0
 62
     0
100
AcDbVertex
100
AcDb2dVertex
 10
0.0
 20
0.0
 30
0.0
  0
VERTEX
  5
727
330
723
100
AcDbEntity
  8
0
 62
     0
100
AcDbVertex
100
AcDb2dVertex
 10
-1.0
 20
0.125
 30
0.0
  0
VERTEX
  5
728
330
723
100
AcDbEntity
  8
0
 62
     0
100
AcDbVertex
100
AcDb2dVertex
 10
-1.0
 20
-0.125
 30
0.0
  0
SEQEND
  5
726
330
723
100
AcDbEntity
  8
0
 62
     0
  0
SOLID
  5
729
330
71F
100
AcDbEntity
  8
0
  6
Continuous
 62
     0
100
AcDbTrace
 10
-1.0
 20
-0.125
 30
0.0
 11
0.0
 21
0.0
 31
0.0
 12
-1.0
 22
0.125
 32
0.0
 13
-1.0
 23
-0.125
 33
0.0
  0
LINE
  5
72A
330
71F
100
AcDbEntity
  8
0
 62
     0
100
AcDbLine
 10
-1.0
 20
-0.125
 30
0.0
 11
0.0
 21
0.0
 31
0.0
  0
LINE
  5
72B
330
71F
100
AcDbEntity
  8
0
 62
     0
100
AcDbLine
 10
0.0
 20
0.0
 30
0.0
 11
-1.0
 21
0.125
 31
0.0
  0
LINE
  5
72C
330
71F
100
AcDbEntity
  8
0
 62
     0
100
AcDbLine
 10
-1.0
 20
0.125
 30
0.0
 11
-1.0
 21
-0.125
 31
0.0
  0
ENDBLK
  5
721
330
71F
100
AcDbEntity
  8
0
 62
     7
100
AcDbBlockEnd
  0
BLOCK
  5
72E
330
72D
100
AcDbEntity
  8
0
 62
     7
100
AcDbBlockBegin
  2
Filled-2
 70
     0
 10
0.0
 20
0.0
 30
0.0
  3
Filled-2
  1

  0
LINE
  5
730
330
72D
100
AcDbEntity
  8
0
 62
     0
100
AcDbLine
 10
-1.0
 20
0.0
 30
0.0
 11
0.0
 21
0.0
 31
0.0
  0
POLYLINE
  5
731
330
72D
100
AcDbEntity
  8
0
 62
     0
100
AcDb2dPolyline
 66
     1
 10
0.0
 20
0.0
 30
0.0
 70
   128
  0
VERTEX
  5
732
330
731
100
AcDbEntity
  8
0
 62
     0
100
AcDbVertex
100
AcDb2dVertex
 10
-1.0
 20
-0.25
 30
0.0
  0
VERTEX
  5
733
330
731
100
AcDbEntity
  8
0
 62
     0
100
AcDbVertex
100
AcDb2dVertex
 10
0.0
 20
0.0
 30
0.0
  0
VERTEX
  5
735
330
731
100
AcDbEntity
  8
0
 62
     0
100
AcDbVertex
100
AcDb2dVertex
 10
-1.0
 20
0.25
 30
0.0
  0
VERTEX
  5
736
330
731
100
AcDbEntity
  8
0
 62
     0
100
AcDbVertex
100
AcDb2dVertex
 10
-1.0
 20
-0.25
 30
0.0
  0
SEQEND
  5
734
330
731
100
AcDbEntity
  8
0
 62
     0
  0
SOLID
  5
737
330
72D
100
AcDbEntity
  8
0
  6
Continuous
 62
     0
100
AcDbTrace
 10
-1.0
 20
-0.25
 30
0.0
 11
0.0
 21
0.0
 31
0.0
 12
-1.0
 22
0.25
 32
0.0
 13
-1.0
 23
-0.25
 33
0.0
  0
LINE
  5
738
330
72D
100
AcDbEntity
  8
0
 62
     0
100
AcDbLine
 10
-1.0
 20
-0.25
 30
0.0
 11
0.0
 21
0.0
 31
0.0
  0
LINE
  5
739
330
72D
100
AcDbEntity
  8
0
 62
     0
100
AcDbLine
 10
0.0
 20
0.0
 30
0.0
 11
-1.0
 21
0.25
 31
0.0
  0
LINE
  5
73A
330
72D
100
AcDbEntity
  8
0
 62
     0
100
AcDbLine
 10
-1.0
 20
0.25
 30
0.0
 11
-1.0
 21
-0.25
 31
0.0
  0
ENDBLK
  5
72F
330
72D
100
AcDbEntity
  8
0
 62
     7
100
AcDbBlockEnd
  0
BLOCK
  5
741
330
73C
100
AcDbEntity
  8
0
 62
     7
100
AcDbBlockBegin
  2
_Closed
 70
     0
 10
0.0
 20
0.0
 30
0.0
  3
_Closed
  1

  0
LINE
  5
73D
330
73C
100
AcDbEntity
  8
0
  6
ByBlock
 62
     0
370
    -2
100
AcDbLine
 10
-1.0
 20
0.1666666666666666
 30
0.0
 11
0.0
 21
0.0
 31
0.0
  0
LINE
  5
73E
330
73C
100
AcDbEntity
  8
0
  6
ByBlock
 62
     0
370
    -2
100
AcDbLine
 10
0.0
 20
0.0
 30
0.0
 11
-1.0
 21
-0.1666666666666666
 31
0.0
  0
LINE
  5
73F
330
73C
100
AcDbEntity
  8
0
  6
ByBlock
 62
     0
370
    -2
100
AcDbLine
 10
-1.0
 20
0.1666666666666666
 30
0.0
 11
-1.0
 21
-0.1666666666666666
 31
0.0
  0
LINE
  5
740
330
73C
100
AcDbEntity
  8
0
  6
ByBlock
 62
     0
370
    -2
100
AcDbLine
 10
0.0
 20
0.0
 30
0.0
 11
-1.0
 21
0.0
 31
0.0
  0
ENDBLK
  5
742
330
73C
100
AcDbEntity
  8
0
 62
     7
100
AcDbBlockEnd
  0
BLOCK
  5
746
330
745
100
AcDbEntity
  8
0
 62
     7
100
AcDbBlockBegin
  2
__
 70
     0
 10
0.0
 20
0.0
 30
0.0
  3
__
  1

  0
HATCH
  5
749
330
745
100
AcDbEntity
  8
CAMPITURE
100
AcDbHatch
 10
0.0
 20
0.0
 30
0.0
210
0.0
220
0.0
230
1.0
  2
SOLID
 70
     1
 71
     0
 91
        1
 92
        1
 93
        1
 72
     2
 10
0.0
 20
0.0
 40
0.7500000000000001
 50
0.0
 51
360.0
 73
     1
 97
        0
 75
     0
 76
     1
 98
        1
 10
0.0
 20
0.0
450
        0
451
        0
460
0.0
461
0.0
452
        0
462
0.0
453
        0
470

  0
CIRCLE
  5
74A
330
745
100
AcDbEntity
  8
GEOMETRIA SCHIZZO
100
AcDbCircle
 10
0.0
 20
0.0
 30
0.0
 40
0.7500000000000001
  0
MTEXT
  5
74B
330
745
100
AcDbEntity
  8
TESTO NORMALE
  6
Continuous
100
AcDbMText
 10
0.0
 20
0.5858034193515849
 30
0.0
 40
5.0
 41
15.63962578773498
 46
0.0
 71
     2
 72
     1
  1
=    =
  7
TESTO EVIDENZIATO
 73
     1
 44
1.0
  0
ENDBLK
  5
747
330
745
100
AcDbEntity
  8
0
 62
     7
100
AcDbBlockEnd
  0
BLOCK
  5
74E
330
74D
100
AcDbEntity
  8
0
 62
     7
100
AcDbBlockBegin
  2
Bordi Standard
 70
     0
 10
0.0
 20
0.0
 30
0.0
  3
Bordi Standard
  1

  0
LINE
  5
750
330
74D
100
AcDbEntity
  8
SQUADRATURA
 62
     0
100
AcDbLine
 10
4.999999999999893
 20
292.0
 30
0.0
 11
205.0
 21
292.0
 31
0.0
1001
TOP
1070
   256
  0
LINE
  5
751
330
74D
100
AcDbEntity
  8
SQUADRATURA
 62
     0
100
AcDbLine
 10
205.0
 20
292.0
 30
0.0
 11
205.0
 21
5.0
 31
0.0
1001
TOP
1070
   256
  0
LINE
  5
752
330
74D
100
AcDbEntity
  8
SQUADRATURA
 62
     0
100
AcDbLine
 10
205.0
 20
5.0
 30
0.0
 11
5.0
 21
4.999999999999975
 31
0.0
1001
TOP
1070
   256
  0
LINE
  5
753
330
74D
100
AcDbEntity
  8
SQUADRATURA
 62
     0
100
AcDbLine
 10
5.000000000000017
 20
4.999999999999975
 30
0.0
 11
4.999999999999893
 21
292.0
 31
0.0
1001
TOP
1070
   256
  0
LINE
  5
754
330
74D
100
AcDbEntity
  8
SQUADRATURA SOTTILE
 62
     0
100
AcDbLine
 10
209.85
 20
296.85
 30
0.0
 11
0.1499999999998991
 21
296.85
 31
0.0
1001
TOP
1070
   256
  0
LINE
  5
755
330
74D
100
AcDbEntity
  8
SQUADRATURA SOTTILE
 62
     0
100
AcDbLine
 10
0.1499999999998991
 20
296.85
 30
0.0
 11
0.1500000000000234
 21
0.1499999999999702
 31
0.0
1001
TOP
1070
   256
  0
LINE
  5
756
330
74D
100
AcDbEntity
  8
SQUADRATURA SOTTILE
 62
     0
100
AcDbLine
 10
0.1500000000000234
 20
0.1499999999999609
 30
0.0
 11
209.85
 21
0.1500000000000122
 31
0.0
1001
TOP
1070
   256
  0
LINE
  5
757
330
74D
100
AcDbEntity
  8
SQUADRATURA SOTTILE
 62
     0
100
AcDbLine
 10
209.85
 20
0.1500000000000122
 30
0.0
 11
209.85
 21
296.85
 31
0.0
1001
TOP
1070
   256
  0
LINE
  5
758
330
74D
100
AcDbEntity
  8
SQUADRATURA
 62
     0
100
AcDbLine
 10
0.0
 20
4.999999999999975
 30
0.0
 11
0.0
 21
0.1499999999999613
 31
0.0
1001
TOP
1070
   256
  0
LINE
  5
759
330
74D
100
AcDbEntity
  8
SQUADRATURA
 62
     0
100
AcDbLine
 10
112.0
 20
291.9999999999999
 30
0.0
 11
205.0000000000001
 21
292.0
 31
0.0
1001
TOP
1070
   256
  0
LINE
  5
75A
330
74D
100
AcDbEntity
  8
SQUADRATURA
 62
     0
100
AcDbLine
 10
203.0000000000001
 20
259.9999999999998
 30
0.0
 11
112.0
 21
259.9999999999998
 31
0.0
1001
TOP
1070
   256
  0
LINE
  5
75B
330
74D
100
AcDbEntity
  8
SQUADRATURA SOTTILE 2
 62
     0
100
AcDbLine
 10
112.0
 20
291.0
 30
0.0
 11
203.0000000000001
 21
291.0
 31
0.0
1001
TOP
1070
   256
  0
ARC
  5
75C
330
74D
100
AcDbEntity
  8
SQUADRATURA SOTTILE 2
 62
     0
100
AcDbCircle
 10
112.0
 20
290.0
 30
0.0
 40
1.0
100
AcDbArc
 50
90.0
 51
180.0
1001
TOP
1070
   256
  0
ARC
  5
75D
330
74D
100
AcDbEntity
  8
SQUADRATURA
 62
     0
100
AcDbCircle
 10
112.0
 20
290.0
 30
0.0
 40
2.0
100
AcDbArc
 50
90.0
 51
180.0
1001
TOP
1070
   256
  0
LINE
  5
75E
330
74D
100
AcDbEntity
  8
SQUADRATURA SOTTILE 2
 62
     0
100
AcDbLine
 10
111.0
 20
261.9999999999998
 30
0.0
 11
111.0
 21
290.0
 31
0.0
1001
TOP
1070
   256
  0
LINE
  5
75F
330
74D
100
AcDbEntity
  8
SQUADRATURA
 62
     0
100
AcDbLine
 10
110.0
 20
261.9999999999998
 30
0.0
 11
110.0
 21
290.0
 31
0.0
1001
TOP
1070
   256
  0
ARC
  5
760
330
74D
100
AcDbEntity
  8
SQUADRATURA
 62
     0
100
AcDbCircle
 10
112.0
 20
261.9999999999998
 30
0.0
 40
2.0
100
AcDbArc
 50
180.0
 51
270.0
1001
TOP
1070
   256
  0
LINE
  5
761
330
74D
100
AcDbEntity
  8
SQUADRATURA SOTTILE 2
 62
     0
100
AcDbLine
 10
203.0000000000001
 20
260.9999999999998
 30
0.0
 11
112.0
 21
260.9999999999998
 31
0.0
1001
TOP
1070
   256
  0
ARC
  5
762
330
74D
100
AcDbEntity
  8
SQUADRATURA SOTTILE 2
 62
     0
100
AcDbCircle
 10
112.0
 20
261.9999999999998
 30
0.0
 40
1.0
100
AcDbArc
 50
180.0
 51
270.0
1001
TOP
1070
   256
  0
LINE
  5
763
330
74D
100
AcDbEntity
  8
SQUADRATURA SOTTILE 2
 62
     0
100
AcDbLine
 10
204.0000000000001
 20
290.0
 30
0.0
 11
204.0000000000001
 21
261.9999999999998
 31
0.0
1001
TOP
1070
   256
  0
ARC
  5
764
330
74D
100
AcDbEntity
  8
SQUADRATURA SOTTILE 2
 62
     0
100
AcDbCircle
 10
203.0000000000001
 20
261.9999999999998
 30
0.0
 40
1.0
100
AcDbArc
 50
270.0
 51
0.0
1001
TOP
1070
   256
  0
ARC
  5
765
330
74D
100
AcDbEntity
  8
SQUADRATURA
 62
     0
100
AcDbCircle
 10
203.0000000000001
 20
261.9999999999998
 30
0.0
 40
2.0
100
AcDbArc
 50
270.0
 51
0.0
1001
TOP
1070
   256
  0
LINE
  5
766
330
74D
100
AcDbEntity
  8
SQUADRATURA
 62
     0
100
AcDbLine
 10
205.0000000000001
 20
292.0
 30
0.0
 11
205.0000000000001
 21
261.9999999999998
 31
0.0
1001
TOP
1070
   256
  0
ARC
  5
767
330
74D
100
AcDbEntity
  8
SQUADRATURA SOTTILE 2
 62
     0
100
AcDbCircle
 10
203.0000000000001
 20
290.0
 30
0.0
 40
1.0
100
AcDbArc
 50
0.0
 51
90.0
1001
TOP
1070
   256
  0
MTEXT
  5
768
330
74D
100
AcDbEntity
  8
TESTI CARTIGLIO
  6
Continuous
 62
     0
100
AcDbMText
 10
134.5853581142873
 20
284.0131137944525
 30
0.0
 40
6.000000238418579
 41
55.06813444284208
 46
0.0
 71
     1
 72
     1
  1
{\fVrinda|b0|i0;\H6.0000;BAR CODE\PMontaggio}
  7
Standard_87
 73
     2
 44
0.9959999918937683
1001
TOP
1070
   256
  0
ENDBLK
  5
74F
330
74D
100
AcDbEntity
  8
0
 62
     7
100
AcDbBlockEnd
  0
BLOCK
  5
76C
330
76B
100
AcDbEntity
  8
0
 62
     7
100
AcDbBlockBegin
  2
Cartigli DIERRE
 70
     2
 10
0.0
 20
0.0
 30
0.0
  3
Cartigli DIERRE
  1

  0
HATCH
  5
772
330
76B
100
AcDbEntity
  8
CAMPITURE
 62
     0
100
AcDbHatch
 10
0.0
 20
0.0
 30
0.0
210
0.0
220
0.0
230
1.0
  2
SOLID
 70
     1
 71
     0
 91
        1
 92
        1
 93
        4
 72
     2
 10
16.62227853183705
 20
28.63383667834967
 40
7.793069760000001
 50
230.1466606584018
 51
405.3625857098611
 73
     1
 72
     1
 10
22.09782851449668
 20
34.17913096013693
 11
20.5196942813029
 21
32.54561571719387
 72
     2
 10
15.9727702478842
 20
28.05306437542822
 40
6.391989965892939
 50
315.3446315247951
 51
396.6470225937641
 73
     0
 72
     2
 10
15.47406206409434
 20
28.76254089855251
 40
7.220700683144739
 50
38.80235799376523
 51
122.1815725390078
 73
     0
 97
        0
 75
     0
 76
     1
 98
        1
 10
0.0
 20
0.0
450
        0
451
        0
460
0.0
461
0.0
452
        0
462
0.0
453
        0
470

1001
TOP
1070
     3
  0
HATCH
  5
776
330
76B
100
AcDbEntity
  8
CAMPITURE
 62
     0
100
AcDbHatch
 10
0.0
 20
0.0
 30
0.0
210
0.0
220
0.0
230
1.0
  2
SOLID
 70
     1
 71
     0
 91
        1
 92
        1
 93
        3
 72
     2
 10
16.81885121802244
 20
28.7931767617331
 40
4.763630338834137
 50
227.8543072058696
 51
406.8522865263628
 73
     1
 72
     1
 10
20.07661028255845
 20
32.26868821797836
 11
19.10736403530447
 21
31.21636372095896
 72
     2
 10
16.17002821100252
 20
28.4182512479257
 40
4.056769053873
 50
316.3905354587986
 51
488.9028708089719
 73
     0
 97
        0
 75
     0
 76
     1
 98
        1
 10
0.0
 20
0.0
450
        0
451
        0
460
0.0
461
0.0
452
        0
462
0.0
453
        0
470

1001
TOP
1070
     3
  0
HATCH
  5
77C
330
76B
100
AcDbEntity
  8
CAMPITURE
 62
     0
100
AcDbHatch
 10
0.0
 20
0.0
 30
0.0
210
0.0
220
0.0
230
1.0
  2
SOLID
 70
     1
 71
     0
 91
        1
 92
        1
 93
        5
 72
     2
 10
16.45690671951999
 20
30.05594897763183
 40
5.558875133404747
 50
125.3768514667706
 51
178.6115147484838
 73
     1
 72
     2
 10
16.49783519669401
 20
29.33437419505527
 40
5.663278842528497
 50
171.3036725542784
 51
228.0269063594487
 73
     1
 72
     1
 10
12.7103388034225
 20
25.12395873821656
 11
10.96271911221253
 21
23.27647506464784
 72
     2
 10
16.62227853183705
 20
28.63383667834967
 40
7.793069759999999
 50
136.5712482747769
 51
310.1738990574639
 73
     0
 72
     2
 10
17.44412459906672
 20
28.66560919669609
 40
7.26405660414231
 50
54.62314853322836
 51
125.3768514667716
 73
     1
 97
        0
 75
     0
 76
     1
 98
        1
 10
0.0
 20
0.0
450
        0
451
        0
460
0.0
461
0.0
452
        0
462
0.0
453
        0
470

1001
TOP
1070
     3
  0
HATCH
  5
780
330
76B
100
AcDbEntity
  8
CAMPITURE
 62
     0
100
AcDbHatch
 10
0.0
 20
0.0
 30
0.0
210
0.0
220
0.0
230
1.0
  2
SOLID
 70
     1
 71
     0
 91
        1
 92
        1
 93
        3
 72
     1
 10
14.28882554895235
 20
26.59167448405853
 11
13.31957930169637
 21
25.53934998704055
 72
     2
 10
16.57733836623376
 20
29.01486144328487
 40
4.763630338834137
 50
133.1477134736566
 51
312.1456927941124
 73
     0
 72
     2
 10
17.22616137325187
 20
29.3897869570925
 40
4.056769053873
 50
51.09712919102806
 51
223.6094645412325
 73
     1
 97
        0
 75
     0
 76
     1
 98
        1
 10
0.0
 20
0.0
450
        0
451
        0
460
0.0
461
0.0
452
        0
462
0.0
453
        0
470

1001
TOP
1070
     3
  0
HATCH
  5
785
330
76B
100
AcDbEntity
  8
CAMPITURE
 62
     0
100
AcDbHatch
 10
0.0
 20
0.0
 30
0.0
210
0.0
220
0.0
230
1.0
  2
SOLID
 70
     1
 71
     0
 91
        1
 92
        1
 93
        4
 72
     1
 10
33.59747200909241
 20
36.52417213444659
 11
34.69527835789437
 21
36.52417213444659
 72
     1
 10
34.69527835789437
 20
36.52417213444659
 11
34.69527835789437
 21
37.50000000004681
 72
     1
 10
34.69527835789437
 20
37.50000000004681
 11
33.59747200909241
 21
37.50000000004681
 72
     1
 10
33.59747200909241
 20
37.50000000004681
 11
33.59747200909241
 21
36.52417213444659
 97
        0
 75
     0
 76
     1
 98
        1
 10
0.0
 20
0.0
450
        0
451
        0
460
0.0
461
0.0
452
        0
462
0.0
453
        0
470

1001
TOP
1070
     3
  0
HATCH
  5
792
330
76B
100
AcDbEntity
  8
CAMPITURE
 62
     0
100
AcDbHatch
 10
0.0
 20
0.0
 30
0.0
210
0.0
220
0.0
230
1.0
  2
SOLID
 70
     1
 71
     0
 91
        2
 92
        0
 93
        6
 72
     1
 10
31.76689732019566
 20
33.84064550404673
 11
31.76689732019566
 21
34.81647336964636
 72
     2
 10
30.18117703859566
 20
34.81647336964636
 40
1.5857202816
 50
0.0
 51
90.0
 73
     1
 72
     1
 10
30.18117703859566
 20
36.40219365124636
 11
28.59545675699515
 21
36.40219365124654
 72
     1
 10
28.59545675699515
 20
36.40219365124654
 11
28.59545675699515
 21
32.2549252224467
 72
     1
 10
28.59545675699515
 20
32.2549252224467
 11
30.18117703859566
 21
32.25492522244674
 72
     2
 10
30.18117703859566
 20
33.84064550404673
 40
1.5857202816
 50
270.0
 51
360.0
 73
     1
 97
        0
 92
        1
 93
        6
 72
     1
 10
27.49765040819579
 20
31.15711887364663
 11
30.42513400499493
 21
31.15711887364663
 72
     2
 10
30.42513400499493
 20
33.59668853764663
 40
2.439569663999999
 50
270.0
 51
360.0
 73
     1
 72
     1
 10
32.86470366899493
 20
33.59668853764663
 11
32.86470366899493
 21
35.06043033604644
 72
     2
 10
30.42513400499493
 20
35.06043033604644
 40
2.439569663999999
 50
0.0
 51
90.0
 73
     1
 72
     1
 10
30.42513400499493
 20
37.50000000004681
 11
27.49765040819579
 21
37.50000000004681
 72
     1
 10
27.49765040819579
 20
37.50000000004681
 11
27.49765040819579
 21
31.15711887364663
 97
        0
 75
     0
 76
     1
 98
        1
 10
0.0
 20
0.0
450
        0
451
        0
460
0.0
461
0.0
452
        0
462
0.0
453
        0
470

1001
TOP
1070
     5
  0
HATCH
  5
797
330
76B
100
AcDbEntity
  8
CAMPITURE
 62
     0
100
AcDbHatch
 10
0.0
 20
0.0
 30
0.0
210
0.0
220
0.0
230
1.0
  2
SOLID
 70
     1
 71
     0
 91
        1
 92
        1
 93
        4
 72
     1
 10
34.69527835789437
 20
31.15711887364663
 11
34.69527835789437
 21
36.03625820164649
 72
     1
 10
34.69527835789437
 20
36.03625820164649
 11
33.59747200909241
 21
36.03625820164649
 72
     1
 10
33.59747200909241
 20
36.03625820164649
 11
33.59747200909241
 21
31.15711887364663
 72
     1
 10
33.59747200909241
 20
31.15711887364663
 11
34.69527835789437
 21
31.15711887364663
 97
        0
 75
     0
 76
     1
 98
        1
 10
0.0
 20
0.0
450
        0
451
        0
460
0.0
461
0.0
452
        0
462
0.0
453
        0
470

1001
TOP
1070
     5
  0
HATCH
  5
79E
330
76B
100
AcDbEntity
  8
CAMPITURE
 62
     0
100
AcDbHatch
 10
0.0
 20
0.0
 30
0.0
210
0.0
220
0.0
230
1.0
  2
SOLID
 70
     1
 71
     0
 91
        2
 92
        0
 93
        2
 72
     1
 10
36.6655913799339
 20
34.29665420191658
 11
39.0681007204374
 21
34.29665420191658
 72
     2
 10
37.86684605018565
 20
33.77532249424928
 40
1.309503544180366
 50
23.46032899247159
 51
156.5396710075284
 73
     1
 97
        0
 92
        1
 93
        4
 72
     2
 10
37.8667189210941
 20
33.59668853764663
 40
2.439569664000001
 50
354.0835439993975
 51
702.357417533675
 73
     1
 72
     1
 10
40.19154508968521
 20
32.85730810015653
 11
39.05018876106895
 21
32.85730810015664
 72
     2
 10
37.8667189210941
 20
33.71866702084651
 40
1.463741798400002
 50
36.04806361998216
 51
165.2186896277143
 73
     0
 72
     1
 10
36.45141722414005
 20
33.34522203295672
 11
40.29329361446912
 21
33.34522203295664
 97
        0
 75
     0
 76
     1
 98
        1
 10
0.0
 20
0.0
450
        0
451
        0
460
0.0
461
0.0
452
        0
462
0.0
453
        0
470

1001
TOP
1070
     5
  0
HATCH
  5
7A8
330
76B
100
AcDbEntity
  8
CAMPITURE
 62
     0
100
AcDbHatch
 10
0.0
 20
0.0
 30
0.0
210
0.0
220
0.0
230
1.0
  2
SOLID
 70
     1
 71
     0
 91
        1
 92
        1
 93
        9
 72
     2
 10
43.43211012991381
 20
34.3394191817174
 40
1.700520210299701
 50
93.77067625264224
 51
154.912967180733
 73
     1
 72
     1
 10
41.89200886669399
 20
35.06043033604618
 11
41.89200886669389
 21
36.0362582016465
 72
     1
 10
41.89200886669389
 20
36.03625820164649
 11
40.79420251789389
 21
36.03625820164649
 72
     1
 10
40.79420251789389
 20
36.03625820164649
 11
40.79420251789389
 21
31.15711887364663
 72
     1
 10
40.79420251789389
 20
31.15711887364663
 11
41.89200886669389
 21
31.15711887364663
 72
     1
 10
41.89200886669389
 20
31.15711887364663
 11
41.89200886669491
 21
34.08460247044668
 72
     2
 10
43.77544761583407
 20
32.75491065838392
 40
2.30551986259622
 50
215.2217679857613
 51
270.0229488686928
 73
     0
 72
     1
 10
43.77637105333035
 20
35.06043033604639
 11
43.7763710533296
 21
36.03625820164649
 72
     1
 10
43.77637105332959
 20
36.03625820164649
 11
43.3202784435059
 21
36.03625820164649
 97
        0
 75
     0
 76
     1
 98
        1
 10
0.0
 20
0.0
450
        0
451
        0
460
0.0
461
0.0
452
        0
462
0.0
453
        0
470

1001
TOP
1070
     5
  0
HATCH
  5
7B2
330
76B
100
AcDbEntity
  8
CAMPITURE
 62
     0
100
AcDbHatch
 10
0.0
 20
0.0
 30
0.0
210
0.0
220
0.0
230
1.0
  2
SOLID
 70
     1
 71
     0
 91
        1
 92
        1
 93
        9
 72
     1
 10
45.6050338953021
 20
35.06043033604618
 11
45.60503389530264
 21
36.0362582016465
 72
     1
 10
45.60503389530264
 20
36.03625820164649
 11
44.50722754650199
 21
36.03625820164649
 72
     1
 10
44.50722754650199
 20
36.03625820164649
 11
44.50722754650199
 21
31.15711887364663
 72
     1
 10
44.50722754650199
 20
31.15711887364663
 11
45.60503389530265
 21
31.15711887364663
 72
     1
 10
45.60503389530264
 20
31.15711887364663
 11
45.60503389530264
 21
34.08460247044656
 72
     2
 10
47.48847264444086
 20
32.75491065838392
 40
2.30551986259622
 50
215.2217679857723
 51
270.0229488686928
 73
     0
 72
     1
 10
47.48939608193714
 20
35.06043033604639
 11
47.4893960819377
 21
36.03625820164649
 72
     1
 10
47.48939608193769
 20
36.03625820164649
 11
47.03330347211468
 21
36.03625820164624
 72
     2
 10
47.1451351585219
 20
34.3394191817174
 40
1.700520210299701
 50
93.77067625261974
 51
154.9129671807329
 73
     1
 97
        0
 75
     0
 76
     1
 98
        1
 10
0.0
 20
0.0
450
        0
451
        0
460
0.0
461
0.0
452
        0
462
0.0
453
        0
470

1001
TOP
1070
     5
  0
HATCH
  5
7B9
330
76B
100
AcDbEntity
  8
CAMPITURE
 62
     0
100
AcDbHatch
 10
0.0
 20
0.0
 30
0.0
210
0.0
220
0.0
230
1.0
  2
SOLID
 70
     1
 71
     0
 91
        2
 92
        0
 93
        2
 72
     1
 10
51.36353182699732
 20
34.29665420191658
 11
48.96102248649381
 21
34.29665420191658
 72
     2
 10
50.16227715674556
 20
33.77532249424928
 40
1.309503544180366
 50
203.4603289924716
 51
336.5396710075286
 73
     0
 97
        0
 92
        1
 93
        4
 72
     2
 10
50.16215002765402
 20
33.59668853764663
 40
2.439569664000001
 50
354.0835439993975
 51
702.357417533673
 73
     1
 72
     1
 10
52.48697619624445
 20
32.85730810015664
 11
51.34561986762887
 21
32.85730810015664
 72
     2
 10
50.16215002765402
 20
33.71866702084651
 40
1.463741798400002
 50
36.04806361998227
 51
165.2186896277337
 73
     0
 72
     1
 10
48.746848330698
 20
33.34522203295672
 11
52.58872472102904
 21
33.34522203295664
 97
        0
 75
     0
 76
     1
 98
        1
 10
0.0
 20
0.0
450
        0
451
        0
460
0.0
461
0.0
452
        0
462
0.0
453
        0
470

1001
TOP
1070
     5
  0
LINE
  5
7BA
330
76B
100
AcDbEntity
  8
ASSI
 62
     0
100
AcDbLine
 10
186.3571688111378
 20
13.95908273017323
 30
0.0
 11
202.1449550471707
 21
13.95908273017323
 31
0.0
1001
TOP
1070
   256
  0
LINE
  5
7BB
330
76B
100
AcDbEntity
  8
CARTIGLIO
 62
     0
100
AcDbLine
 10
38.75
 20
18.0
 30
0.0
 11
38.75
 21
10.0
 31
0.0
1001
TOP
1070
   256
  0
LINE
  5
7BC
330
76B
100
AcDbEntity
  8
CARTIGLIO
 62
     0
100
AcDbLine
 10
72.5
 20
18.0
 30
0.0
 11
72.5
 21
10.0
 31
0.0
1001
TOP
1070
   256
  0
LINE
  5
7BD
330
76B
100
AcDbEntity
  8
CARTIGLIO
 62
     0
100
AcDbLine
 10
140.0
 20
18.0
 30
0.0
 11
205.0
 21
18.0
 31
0.0
1001
TOP
1070
   256
  0
LINE
  5
7BE
330
76B
100
AcDbEntity
  8
CARTIGLIO
 62
     0
100
AcDbLine
 10
183.5
 20
10.0
 30
0.0
 11
183.5
 21
18.0
 31
0.0
1001
TOP
1070
   256
  0
LINE
  5
7BF
330
76B
100
AcDbEntity
  8
CARTIGLIO
 62
     0
100
AcDbLine
 10
140.0
 20
55.00000000000011
 30
0.0
 11
205.0
 21
55.00000000000011
 31
0.0
1001
TOP
1070
   256
  0
LINE
  5
7C0
330
76B
100
AcDbEntity
  8
CARTIGLIO
 62
     0
100
AcDbLine
 10
140.0
 20
62.50000000000011
 30
0.0
 11
205.0
 21
62.50000000000011
 31
0.0
1001
TOP
1070
   256
  0
LINE
  5
7C1
330
76B
100
AcDbEntity
  8
CARTIGLIO
 62
     0
100
AcDbLine
 10
140.0
 20
47.50000000000011
 30
0.0
 11
205.0
 21
47.50000000000011
 31
0.0
1001
TOP
1070
   256
  0
LINE
  5
7C2
330
76B
100
AcDbEntity
  8
CARTIGLIO
 62
     0
100
AcDbLine
 10
177.0
 20
70.00000000000011
 30
0.0
 11
177.0
 21
55.0
 31
0.0
1001
TOP
1070
   256
  0
LINE
  5
7C3
330
76B
100
AcDbEntity
  8
CARTIGLIO
 62
     0
100
AcDbLine
 10
106.25
 20
18.0
 30
0.0
 11
106.25
 21
10.0
 31
0.0
1001
TOP
1070
   256
  0
LINE
  5
7C4
330
76B
100
AcDbEntity
  8
CARTIGLIO
 62
     0
100
AcDbLine
 10
140.0
 20
33.75000000000011
 30
0.0
 11
205.0
 21
33.75000000000011
 31
0.0
1001
TOP
1070
   256
  0
LINE
  5
7C5
330
76B
100
AcDbEntity
  8
CARTIGLIO
 62
     0
100
AcDbLine
 10
140.0
 20
23.75000000000011
 30
0.0
 11
205.0
 21
23.75000000000011
 31
0.0
1001
TOP
1070
   256
  0
LINE
  5
7C6
330
76B
100
AcDbEntity
  8
CARTIGLIO SOTTILE
 62
     0
100
AcDbLine
 10
5.0
 20
70.0
 30
0.0
 11
205.0
 21
70.00000000000011
 31
0.0
1001
TOP
1070
   256
  0
LINE
  5
7C7
330
76B
100
AcDbEntity
  8
CARTIGLIO SOTTILE
 62
     0
100
AcDbLine
 10
140.0
 20
70.0
 30
0.0
 11
140.0
 21
10.0
 31
0.0
1001
TOP
1070
   256
  0
LINE
  5
7C8
330
76B
100
AcDbEntity
  8
CARTIGLIO SOTTILE
 62
     0
100
AcDbLine
 10
5.0
 20
81.5
 30
0.0
 11
204.9999999999991
 21
81.5
 31
0.0
1001
TOP
1070
   256
  0
LINE
  5
7C9
330
76B
100
AcDbEntity
  8
CARTIGLIO SOTTILE
 62
     0
100
AcDbLine
 10
205.0
 20
10.0
 30
0.0
 11
5.0
 21
10.0
 31
0.0
1001
TOP
1070
   256
  0
LINE
  5
7CA
330
76B
100
AcDbEntity
  8
CARTIGLIO SOTTILE
 62
     0
100
AcDbLine
 10
5.0
 20
77.5
 30
0.0
 11
204.9999999999991
 21
77.49999999999989
 31
0.0
1001
TOP
1070
   256
  0
LINE
  5
7CB
330
76B
100
AcDbEntity
  8
CARTIGLIO SOTTILE
 62
     0
100
AcDbLine
 10
5.000000000000078
 20
86.49999999999998
 30
0.0
 11
204.9999999999991
 21
86.50000000000011
 31
0.0
1001
TOP
1070
   256
  0
LINE
  5
7CC
330
76B
100
AcDbEntity
  8
CARTIGLIO SOTTILE 2
 62
     0
100
AcDbLine
 10
5.0
 20
18.0
 30
0.0
 11
140.0
 21
18.0
 31
0.0
1001
TOP
1070
   256
  0
LINE
  5
7CD
330
76B
100
AcDbEntity
  8
CARTIGLIO SOTTILE 2
 62
     0
100
AcDbLine
 10
5.0
 20
40.0
 30
0.0
 11
140.0
 21
40.0
 31
0.0
1001
TOP
1070
   256
  0
LINE
  5
7CE
330
76B
100
AcDbEntity
  8
CARTIGLIO SOTTILE 2
 62
     0
100
AcDbLine
 10
119.9999999999991
 20
77.49999999999977
 30
0.0
 11
120.0
 21
70.0
 31
0.0
1001
TOP
1070
   256
  0
LINE
  5
7CF
330
76B
100
AcDbEntity
  8
CARTIGLIO SOTTILE 2
 62
     0
100
AcDbLine
 10
185.0
 20
86.50000000000011
 30
0.0
 11
185.0000000000009
 21
77.49999999999989
 31
0.0
1001
TOP
1070
   256
  0
LINE
  5
7D0
330
76B
100
AcDbEntity
  8
CARTIGLIO SOTTILE 2
 62
     0
100
AcDbLine
 10
5.0
 20
50.0
 30
0.0
 11
140.0
 21
50.0
 31
0.0
1001
TOP
1070
   256
  0
LINE
  5
7D1
330
76B
100
AcDbEntity
  8
CARTIGLIO SOTTILE 2
 62
     0
100
AcDbLine
 10
170.0000000000003
 20
86.50000000000009
 30
0.0
 11
170.0000000000009
 21
77.49999999999886
 31
0.0
1001
TOP
1070
   256
  0
LINE
  5
7D2
330
76B
100
AcDbEntity
  8
CARTIGLIO SOTTILE 2
 62
     0
100
AcDbLine
 10
77.5
 20
45.0
 30
0.0
 11
140.0000000000009
 21
45.0
 31
0.0
1001
TOP
1070
   256
  0
LINE
  5
7D3
330
76B
100
AcDbEntity
  8
CARTIGLIO SOTTILE 2
 62
     0
100
AcDbLine
 10
20.0
 20
86.5
 30
0.0
 11
20.0
 21
70.0
 31
0.0
1001
TOP
1070
   256
  0
LINE
  5
7D4
330
76B
100
AcDbEntity
  8
CARTIGLIO SOTTILE 2
 62
     0
100
AcDbLine
 10
77.5
 20
50.0
 30
0.0
 11
77.5
 21
40.0
 31
0.0
1001
TOP
1070
   256
  0
LINE
  5
7D5
330
76B
100
AcDbEntity
  8
CARTIGLIO SOTTILE 3
 62
     0
100
AcDbLine
 10
193.5117378886862
 20
16.95908273017323
 30
0.0
 11
186.3571688111378
 21
15.45908273017323
 31
0.0
1001
TOP
1070
   256
  0
LINE
  5
7D6
330
76B
100
AcDbEntity
  8
CARTIGLIO SOTTILE 3
 62
     0
100
AcDbLine
 10
83.34407416882067
 20
13.20005696797174
 30
0.0
 11
81.84407416882066
 21
10.20005696797174
 31
0.0
1001
TOP
1070
   256
  0
LINE
  5
7D7
330
76B
100
AcDbEntity
  8
CARTIGLIO SOTTILE 3
 62
     0
100
AcDbLine
 10
81.84407416882066
 20
10.20005696797174
 30
0.0
 11
80.34407416882066
 21
13.20005696797174
 31
0.0
1001
TOP
1070
   256
  0
LINE
  5
7D8
330
76B
100
AcDbEntity
  8
CARTIGLIO SOTTILE 3
 62
     0
100
AcDbLine
 10
80.34407416882066
 20
13.20005696797174
 30
0.0
 11
83.34407416882067
 21
13.20005696797174
 31
0.0
1001
TOP
1070
   256
  0
LINE
  5
7D9
330
76B
100
AcDbEntity
  8
CARTIGLIO SOTTILE 3
 62
     0
100
AcDbLine
 10
93.90592583117934
 20
13.20005696797174
 30
0.0
 11
95.40592583117932
 21
10.20005696797174
 31
0.0
1001
TOP
1070
   256
  0
LINE
  5
7DA
330
76B
100
AcDbEntity
  8
CARTIGLIO SOTTILE 3
 62
     0
100
AcDbLine
 10
186.3571688111378
 20
12.45908273017323
 30
0.0
 11
193.5117378886862
 21
10.67011664676306
 31
0.0
1001
TOP
1070
   256
  0
LINE
  5
7DB
330
76B
100
AcDbEntity
  8
CARTIGLIO SOTTILE 3
 62
     0
100
AcDbLine
 10
193.5117378886862
 20
16.95908273017323
 30
0.0
 11
193.5117378886862
 21
10.67011664676306
 31
0.0
1001
TOP
1070
   256
  0
LINE
  5
7DC
330
76B
100
AcDbEntity
  8
CARTIGLIO SOTTILE 3
 62
     0
100
AcDbLine
 10
120.686302671082
 20
10.24405803475882
 30
0.0
 11
122.1863026710819
 21
13.24405803475882
 31
0.0
1001
TOP
1070
   256
  0
LINE
  5
7DD
330
76B
100
AcDbEntity
  8
CARTIGLIO SOTTILE 3
 62
     0
100
AcDbLine
 10
122.1863026710819
 20
13.24405803475882
 30
0.0
 11
119.1863026710819
 21
13.24405803475882
 31
0.0
1001
TOP
1070
   256
  0
LINE
  5
7DE
330
76B
100
AcDbEntity
  8
CARTIGLIO SOTTILE 3
 62
     0
100
AcDbLine
 10
119.1863026710819
 20
13.24405803475882
 30
0.0
 11
117.6863026710819
 21
10.24405803475882
 31
0.0
1001
TOP
1070
   256
  0
LINE
  5
7DF
330
76B
100
AcDbEntity
  8
CARTIGLIO SOTTILE 3
 62
     0
100
AcDbLine
 10
117.6863026710819
 20
10.24405803475882
 30
0.0
 11
116.1863026710819
 21
13.24405803475882
 31
0.0
1001
TOP
1070
   256
  0
LINE
  5
7E0
330
76B
100
AcDbEntity
  8
CARTIGLIO SOTTILE 3
 62
     0
100
AcDbLine
 10
116.1863026710819
 20
13.24405803475882
 30
0.0
 11
119.1863026710819
 21
13.24405803475882
 31
0.0
1001
TOP
1070
   256
  0
LINE
  5
7E1
330
76B
100
AcDbEntity
  8
CARTIGLIO SOTTILE 3
 62
     0
100
AcDbLine
 10
116.1863026710819
 20
13.24405803475882
 30
0.0
 11
114.6863026710819
 21
10.24405803475882
 31
0.0
1001
TOP
1070
   256
  0
LINE
  5
7E2
330
76B
100
AcDbEntity
  8
CARTIGLIO SOTTILE 3
 62
     0
100
AcDbLine
 10
114.6863026710819
 20
10.24405803475882
 30
0.0
 11
113.186302671082
 21
13.24405803475882
 31
0.0
1001
TOP
1070
   256
  0
LINE
  5
7E3
330
76B
100
AcDbEntity
  8
CARTIGLIO SOTTILE 3
 62
     0
100
AcDbLine
 10
113.186302671082
 20
13.24405803475882
 30
0.0
 11
116.1863026710819
 21
13.24405803475882
 31
0.0
1001
TOP
1070
   256
  0
LINE
  5
7E4
330
76B
100
AcDbEntity
  8
CARTIGLIO SOTTILE 3
 62
     0
100
AcDbLine
 10
127.0491049055133
 20
13.27324288156815
 30
0.0
 11
128.5491049055133
 21
10.27324288156815
 31
0.0
1001
TOP
1070
   256
  0
LINE
  5
7E5
330
76B
100
AcDbEntity
  8
CARTIGLIO SOTTILE 3
 62
     0
100
AcDbLine
 10
128.5491049055133
 20
10.27324288156815
 30
0.0
 11
131.5491049055134
 21
16.27324288156815
 31
0.0
1001
TOP
1070
   256
  0
LINE
  5
7E6
330
76B
100
AcDbEntity
  8
CARTIGLIO SOTTILE 3
 62
     0
100
AcDbLine
 10
119.1863026710819
 20
13.24405803475882
 30
0.0
 11
120.686302671082
 21
10.24405803475882
 31
0.0
1001
TOP
1070
   256
  0
CIRCLE
  5
7E7
330
76B
100
AcDbEntity
  8
CARTIGLIO SOTTILE 3
 62
     0
100
AcDbCircle
 10
199.1449550471707
 20
13.95908273017323
 30
0.0
 40
3.0
1001
TOP
1070
   256
  0
LINE
  5
7E8
330
76B
100
AcDbEntity
  8
CARTIGLIO SOTTILE 3
 62
     0
100
AcDbLine
 10
199.1449550471707
 20
16.95908273017323
 30
0.0
 11
199.1449550471707
 21
10.95908273017323
 31
0.0
1001
TOP
1070
   256
  0
CIRCLE
  5
7E9
330
76B
100
AcDbEntity
  8
CARTIGLIO SOTTILE 3
 62
     0
100
AcDbCircle
 10
199.1449550471707
 20
13.95908273017323
 30
0.0
 40
1.5
1001
TOP
1070
   256
  0
LINE
  5
7EA
330
76B
100
AcDbEntity
  8
CARTIGLIO SOTTILE 3
 62
     0
100
AcDbLine
 10
186.3571688111378
 20
15.45908273017323
 30
0.0
 11
186.3571688111378
 21
12.45908273017323
 31
0.0
1001
TOP
1070
   256
  0
LINE
  5
7EB
330
76B
100
AcDbEntity
  8
CARTIGLIO SOTTILE 3
 62
     0
100
AcDbLine
 10
61.3188375510694
 20
13.16020560119236
 30
0.0
 11
62.81883755106941
 21
10.16020560119236
 31
0.0
1001
TOP
1070
   256
  0
LINE
  5
7EC
330
76B
100
AcDbEntity
  8
CARTIGLIO SOTTILE 3
 62
     0
100
AcDbLine
 10
20.375
 20
13.21463226117144
 30
0.0
 11
21.875
 21
10.21463226117144
 31
0.0
1001
TOP
1070
   256
  0
LINE
  5
7ED
330
76B
100
AcDbEntity
  8
CARTIGLIO SOTTILE 3
 62
     0
100
AcDbLine
 10
62.81883755106941
 20
10.16020560119236
 30
0.0
 11
65.8188375510694
 21
16.16020560119236
 31
0.0
1001
TOP
1070
   256
  0
LINE
  5
7EE
330
76B
100
AcDbEntity
  8
CARTIGLIO SOTTILE 3
 62
     0
100
AcDbLine
 10
46.93116244893059
 20
13.16020560119236
 30
0.0
 11
48.4311624489306
 21
10.16020560119236
 31
0.0
1001
TOP
1070
   256
  0
LINE
  5
7EF
330
76B
100
AcDbEntity
  8
CARTIGLIO SOTTILE 3
 62
     0
100
AcDbLine
 10
95.40592583117932
 20
10.20005696797174
 30
0.0
 11
98.40592583117933
 21
16.20005696797174
 31
0.0
1001
TOP
1070
   256
  0
LINE
  5
7F0
330
76B
100
AcDbEntity
  8
CARTIGLIO SOTTILE 3
 62
     0
100
AcDbLine
 10
21.875
 20
10.21463226117144
 30
0.0
 11
24.87500000000001
 21
16.21463226117144
 31
0.0
1001
TOP
1070
   256
  0
LINE
  5
7F1
330
76B
100
AcDbEntity
  8
CARTIGLIO SOTTILE 3
 62
     0
100
AcDbLine
 10
49.93116244893059
 20
13.16020560119236
 30
0.0
 11
46.93116244893059
 21
13.16020560119236
 31
0.0
1001
TOP
1070
   256
  0
LINE
  5
7F2
330
76B
100
AcDbEntity
  8
CARTIGLIO SOTTILE 3
 62
     0
100
AcDbLine
 10
48.4311624489306
 20
10.16020560119236
 30
0.0
 11
49.93116244893059
 21
13.16020560119236
 31
0.0
1001
TOP
1070
   256
  0
LINE
  5
7F3
330
76B
100
AcDbEntity
  8
CARTIGLIO SOTTILE 3
 62
     0
100
AcDbLine
 10
83.34407416882067
 20
13.20005696797174
 30
0.0
 11
84.84407416882067
 21
10.20005696797174
 31
0.0
1001
TOP
1070
   256
  0
CIRCLE
  5
7F4
330
76B
100
AcDbEntity
  8
CARTIGLIO SOTTILE 3
 62
     0
100
AcDbCircle
 10
21.875
 20
12.34860685738704
 30
0.0
 40
0.8660254037843873
1001
TOP
1070
   256
  0
LINE
  5
7F5
330
76B
100
AcDbEntity
  8
CARTIGLIO SOTTILE 3
 62
     0
100
AcDbLine
 10
84.84407416882067
 20
10.20005696797174
 30
0.0
 11
86.34407416882067
 21
13.20005696797174
 31
0.0
1001
TOP
1070
   256
  0
LINE
  5
7F6
330
76B
100
AcDbEntity
  8
CARTIGLIO SOTTILE 3
 62
     0
100
AcDbLine
 10
86.34407416882067
 20
13.20005696797174
 30
0.0
 11
83.34407416882067
 21
13.20005696797174
 31
0.0
1001
TOP
1070
   256
  0
LINE
  5
7F7
330
76B
100
AcDbEntity
  8
LOGO
 62
     0
100
AcDbLine
 10
27.49765040819579
 20
24.44455623301195
 30
0.0
 11
29.74535668585389
 21
24.44455623301195
 31
0.0
1001
TOP
1070
   256
  0
LINE
  5
7F8
330
76B
100
AcDbEntity
  8
LOGO
 62
     0
100
AcDbLine
 10
29.74535668585389
 20
24.44455623301195
 30
0.0
 11
27.49765040819579
 21
24.44455623301195
 31
0.0
1001
TOP
1070
   256
  0
LINE
  5
7F9
330
76B
100
AcDbEntity
  8
LOGO
 62
     0
100
AcDbLine
 10
27.49765040819579
 20
29.88098682769641
 30
0.0
 11
29.74535668585389
 21
29.88098682769641
 31
0.0
1001
TOP
1070
   256
  0
LINE
  5
7FA
330
76B
100
AcDbEntity
  8
LOGO
 62
     0
100
AcDbLine
 10
27.49765040819579
 20
24.44455623301195
 30
0.0
 11
27.49765040819579
 21
29.88098682769641
 31
0.0
1001
TOP
1070
   256
  0
LINE
  5
7FB
330
76B
100
AcDbEntity
  8
LOGO
 62
     0
100
AcDbLine
 10
27.49765040819579
 20
24.44455623301195
 30
0.0
 11
27.49765040819579
 21
29.88098682769641
 31
0.0
1001
TOP
1070
   256
  0
LINE
  5
7FC
330
76B
100
AcDbEntity
  8
LOGO
 62
     0
100
AcDbLine
 10
32.52193502884332
 20
26.7335796413002
 30
0.0
 11
31.13364585734859
 21
24.44455623301195
 31
0.0
1001
TOP
1070
   256
  0
LINE
  5
7FD
330
76B
100
AcDbEntity
  8
LOGO
 62
     0
100
AcDbLine
 10
32.52193502884332
 20
26.7335796413002
 30
0.0
 11
32.52193502884332
 21
24.44455623301195
 31
0.0
1001
TOP
1070
   256
  0
LINE
  5
7FE
330
76B
100
AcDbEntity
  8
LOGO
 62
     0
100
AcDbLine
 10
32.52193502884332
 20
26.7335796413002
 30
0.0
 11
31.13364585734859
 21
24.44455623301195
 31
0.0
1001
TOP
1070
   256
  0
LINE
  5
7FF
330
76B
100
AcDbEntity
  8
LOGO
 62
     0
100
AcDbLine
 10
32.52193502884332
 20
24.44455623301195
 30
0.0
 11
32.52193502884332
 21
26.7335796413002
 31
0.0
1001
TOP
1070
   256
  0
LINE
  5
800
330
76B
100
AcDbEntity
  8
LOGO
 62
     0
100
AcDbLine
 10
29.74535668585389
 20
24.44455623301195
 30
0.0
 11
29.74535668585389
 21
26.7335796413002
 31
0.0
1001
TOP
1070
   256
  0
LINE
  5
801
330
76B
100
AcDbEntity
  8
LOGO
 62
     0
100
AcDbLine
 10
29.74535668585389
 20
26.7335796413002
 30
0.0
 11
29.74535668585389
 21
24.44455623301195
 31
0.0
1001
TOP
1070
   256
  0
LINE
  5
802
330
76B
100
AcDbEntity
  8
LOGO
 62
     0
100
AcDbLine
 10
29.74535668585389
 20
26.7335796413002
 30
0.0
 11
31.13364585734859
 21
24.44455623301195
 31
0.0
1001
TOP
1070
   256
  0
LINE
  5
803
330
76B
100
AcDbEntity
  8
LOGO
 62
     0
100
AcDbLine
 10
31.13364585734859
 20
24.44455623301195
 30
0.0
 11
29.74535668585389
 21
26.7335796413002
 31
0.0
1001
TOP
1070
   256
  0
LINE
  5
804
330
76B
100
AcDbEntity
  8
LOGO
 62
     0
100
AcDbLine
 10
32.52193502884332
 20
29.88098682769641
 30
0.0
 11
31.13364585734859
 21
27.59196341940827
 31
0.0
1001
TOP
1070
   256
  0
LINE
  5
805
330
76B
100
AcDbEntity
  8
LOGO
 62
     0
100
AcDbLine
 10
31.13364585734859
 20
27.59196341940827
 30
0.0
 11
32.52193502884332
 21
29.88098682769641
 31
0.0
1001
TOP
1070
   256
  0
LINE
  5
806
330
76B
100
AcDbEntity
  8
LOGO
 62
     0
100
AcDbLine
 10
29.74535668585389
 20
29.88098682769641
 30
0.0
 11
31.13364585734859
 21
27.59196341940827
 31
0.0
1001
TOP
1070
   256
  0
LINE
  5
807
330
76B
100
AcDbEntity
  8
LOGO
 62
     0
100
AcDbLine
 10
29.74535668585389
 20
29.88098682769641
 30
0.0
 11
31.13364585734859
 21
27.59196341940827
 31
0.0
1001
TOP
1070
   256
  0
ELLIPSE
  5
808
330
76B
100
AcDbEntity
  8
LOGO
 62
     0
100
AcDbEllipse
 10
39.89836754380895
 20
28.45034719751635
 30
0.0
 11
0.0000000000000069
 21
1.430639630180138
 31
0.0
210
0.0
220
0.0
230
1.0
 40
0.9241881291669729
 41
0.0000000000000258
 42
2.205823062185234
1001
TOP
1070
   256
  0
LINE
  5
809
330
76B
100
AcDbEntity
  8
LOGO
 62
     0
100
AcDbLine
 10
40.45501600881316
 20
24.44455623301195
 30
0.0
 11
36.75291155149392
 21
29.88098682769641
 31
0.0
1001
TOP
1070
   256
  0
LINE
  5
80A
330
76B
100
AcDbEntity
  8
LOGO
 62
     0
100
AcDbLine
 10
36.75291155149392
 20
29.88098682769641
 30
0.0
 11
40.45501600881316
 21
24.44455623301195
 31
0.0
1001
TOP
1070
   256
  0
ELLIPSE
  5
80B
330
76B
100
AcDbEntity
  8
LOGO
 62
     0
100
AcDbEllipse
 10
39.89836754380895
 20
28.45034719751635
 30
0.0
 11
0.0000000000000073
 21
1.430639630180138
 31
0.0
210
0.0
220
0.0
230
1.0
 40
0.9241881291669608
 41
0.0000000000000258
 42
2.205823062185229
1001
TOP
1070
   256
  0
LINE
  5
80C
330
76B
100
AcDbEntity
  8
LOGO
 62
     0
100
AcDbLine
 10
40.98388807414448
 20
24.44455623301195
 30
0.0
 11
38.83393868528866
 21
27.60169314509747
 31
0.0
1001
TOP
1070
   256
  0
LINE
  5
80D
330
76B
100
AcDbEntity
  8
LOGO
 62
     0
100
AcDbLine
 10
38.83393868528866
 20
27.60169314509747
 30
0.0
 11
40.98388807414448
 21
24.44455623301195
 31
0.0
1001
TOP
1070
   256
  0
LINE
  5
80E
330
76B
100
AcDbEntity
  8
LOGO
 62
     0
100
AcDbLine
 10
37.57677368913107
 20
26.01825982621012
 30
0.0
 11
36.75291155149392
 21
27.2280769403647
 31
0.0
1001
TOP
1070
   256
  0
LINE
  5
80F
330
76B
100
AcDbEntity
  8
LOGO
 62
     0
100
AcDbLine
 10
36.75291155149392
 20
27.2280769403647
 30
0.0
 11
37.57677368913107
 21
26.01825982621012
 31
0.0
1001
TOP
1070
   256
  0
LINE
  5
810
330
76B
100
AcDbEntity
  8
LOGO
 62
     0
100
AcDbLine
 10
35.92904941385677
 20
26.01825982621012
 30
0.0
 11
36.75291155149392
 21
27.2280769403647
 31
0.0
1001
TOP
1070
   256
  0
LINE
  5
811
330
76B
100
AcDbEntity
  8
LOGO
 62
     0
100
AcDbLine
 10
35.92904941385677
 20
26.01825982621012
 30
0.0
 11
36.75291155149392
 21
27.2280769403647
 31
0.0
1001
TOP
1070
   256
  0
LINE
  5
812
330
76B
100
AcDbEntity
  8
LOGO
 62
     0
100
AcDbLine
 10
35.92904941385677
 20
26.01825982621012
 30
0.0
 11
37.57677368913107
 21
26.01825982621012
 31
0.0
1001
TOP
1070
   256
  0
LINE
  5
813
330
76B
100
AcDbEntity
  8
LOGO
 62
     0
100
AcDbLine
 10
37.57677368913107
 20
26.01825982621012
 30
0.0
 11
35.92904941385677
 21
26.01825982621012
 31
0.0
1001
TOP
1070
   256
  0
LINE
  5
814
330
76B
100
AcDbEntity
  8
LOGO
 62
     0
100
AcDbLine
 10
40.98388807414448
 20
24.44455623301195
 30
0.0
 11
42.55252007617436
 21
26.74804580386314
 31
0.0
1001
TOP
1070
   256
  0
LINE
  5
815
330
76B
100
AcDbEntity
  8
LOGO
 62
     0
100
AcDbLine
 10
40.98388807414448
 20
24.44455623301195
 30
0.0
 11
42.55252007617436
 21
26.74804580386314
 31
0.0
1001
TOP
1070
   256
  0
LINE
  5
816
330
76B
100
AcDbEntity
  8
LOGO
 62
     0
100
AcDbLine
 10
42.55252007617436
 20
26.74804580386314
 30
0.0
 11
41.53074433343987
 21
26.74804580386314
 31
0.0
1001
TOP
1070
   256
  0
LINE
  5
817
330
76B
100
AcDbEntity
  8
LOGO
 62
     0
100
AcDbLine
 10
41.53074433343987
 20
27.57749725684523
 30
0.0
 11
43.11736052943384
 21
27.57749725684523
 31
0.0
1001
TOP
1070
   256
  0
LINE
  5
818
330
76B
100
AcDbEntity
  8
LOGO
 62
     0
100
AcDbLine
 10
42.55252007617436
 20
26.74804580386314
 30
0.0
 11
41.53074433343987
 21
26.74804580386314
 31
0.0
1001
TOP
1070
   256
  0
LINE
  5
819
330
76B
100
AcDbEntity
  8
LOGO
 62
     0
100
AcDbLine
 10
43.11736052943384
 20
27.57749725684523
 30
0.0
 11
41.53074433343987
 21
27.57749725684523
 31
0.0
1001
TOP
1070
   256
  0
ELLIPSE
  5
81A
330
76B
100
AcDbEntity
  8
LOGO
 62
     0
100
AcDbEllipse
 10
41.53074433343987
 20
27.16277153035418
 30
0.0
 11
-0.0000000000000006
 21
0.4147257264910956
 31
0.0
210
0.0
220
0.0
230
1.0
 40
0.9241881291669779
 41
0.0
 42
3.141592653589791
1001
TOP
1070
   256
  0
ELLIPSE
  5
81B
330
76B
100
AcDbEntity
  8
LOGO
 62
     0
100
AcDbEllipse
 10
41.53074433343987
 20
27.16277153035418
 30
0.0
 11
0.000000000000002
 21
0.4147257264910956
 31
0.0
210
0.0
220
0.0
230
1.0
 40
0.9241881291669436
 41
0.0000000000000053
 42
3.141592653589798
1001
TOP
1070
   256
  0
ELLIPSE
  5
81C
330
76B
100
AcDbEntity
  8
LOGO
 62
     0
100
AcDbEllipse
 10
49.44584111944561
 20
28.16421927148028
 30
0.0
 11
0.000000000000003
 21
0.6294814372792281
 31
0.0
210
0.0
220
0.0
230
1.0
 40
0.9241881291670022
 41
3.141592653589859
 42
6.283185307179636
1001
TOP
1070
   256
  0
ELLIPSE
  5
81D
330
76B
100
AcDbEntity
  8
LOGO
 62
     0
100
AcDbEllipse
 10
49.44584111944561
 20
28.16421927148025
 30
0.0
 11
0.0000000000000086
 21
1.716767556216168
 31
0.0
210
0.0
220
0.0
230
1.0
 40
0.702904104034317
 41
3.1415926535898
 42
6.283185307179593
1001
TOP
1070
   256
  0
LINE
  5
81E
330
76B
100
AcDbEntity
  8
LOGO
 62
     0
370
     5
100
AcDbLine
 10
19.10736403530447
 20
31.21636372095896
 30
0.0
 11
20.07661028255845
 21
32.26868821797836
 31
0.0
1001
TOP
1070
   256
  0
ELLIPSE
  5
81F
330
76B
100
AcDbEntity
  8
LOGO
 62
     0
100
AcDbEllipse
 10
49.44584111944561
 20
28.16421927148025
 30
0.0
 11
0.0000000000000086
 21
1.716767556216167
 31
0.0
210
0.0
220
0.0
230
1.0
 40
0.7028906291023329
 41
3.1415926535898
 42
6.283185307179593
1001
TOP
1070
   256
  0
LINE
  5
820
330
76B
100
AcDbEntity
  8
LOGO
 62
     0
100
AcDbLine
 10
45.21486459679504
 20
27.2280769403647
 30
0.0
 11
46.03872673443219
 21
26.01825982621012
 31
0.0
1001
TOP
1070
   256
  0
LINE
  5
821
330
76B
100
AcDbEntity
  8
LOGO
 62
     0
100
AcDbLine
 10
46.03872673443219
 20
26.01825982621012
 30
0.0
 11
45.21486459679504
 21
27.2280769403647
 31
0.0
1001
TOP
1070
   256
  0
LINE
  5
822
330
76B
100
AcDbEntity
  8
LOGO
 62
     0
100
AcDbLine
 10
48.91696905411429
 20
24.44455623301195
 30
0.0
 11
45.21486459679504
 21
29.88098682769641
 31
0.0
1001
TOP
1070
   256
  0
LINE
  5
823
330
76B
100
AcDbEntity
  8
LOGO
 62
     0
100
AcDbLine
 10
49.44584111944561
 20
24.44455623301195
 30
0.0
 11
45.74373666212635
 21
29.88098682769641
 31
0.0
1001
TOP
1070
   256
  0
LINE
  5
824
330
76B
100
AcDbEntity
  8
LOGO
 62
     0
100
AcDbLine
 10
49.44584111944561
 20
24.44455623301195
 30
0.0
 11
45.74373666212635
 21
29.88098682769641
 31
0.0
1001
TOP
1070
   256
  0
LINE
  5
825
330
76B
100
AcDbEntity
  8
LOGO
 62
     0
100
AcDbLine
 10
48.91696905411429
 20
24.44455623301195
 30
0.0
 11
45.21486459679504
 21
29.88098682769641
 31
0.0
1001
TOP
1070
   256
  0
LINE
  5
826
330
76B
100
AcDbEntity
  8
LOGO
 62
     0
100
AcDbLine
 10
49.44584111944561
 20
24.44455623301195
 30
0.0
 11
49.44584111944561
 21
26.44745171526408
 31
0.0
1001
TOP
1070
   256
  0
LINE
  5
827
330
76B
100
AcDbEntity
  8
LOGO
 62
     0
100
AcDbLine
 10
49.44584111944561
 20
26.44745171526408
 30
0.0
 11
49.44584111944561
 21
24.44455623301195
 31
0.0
1001
TOP
1070
   256
  0
LINE
  5
828
330
76B
100
AcDbEntity
  8
LOGO
 62
     0
100
AcDbLine
 10
45.74373666212635
 20
29.88098682769641
 30
0.0
 11
49.44584111944561
 21
29.88098682769642
 31
0.0
1001
TOP
1070
   256
  0
LINE
  5
829
330
76B
100
AcDbEntity
  8
LOGO
 62
     0
100
AcDbLine
 10
45.74373666212635
 20
29.88098682769641
 30
0.0
 11
49.44584111944561
 21
29.88098682769642
 31
0.0
1001
TOP
1070
   256
  0
LINE
  5
82A
330
76B
100
AcDbEntity
  8
LOGO
 62
     0
100
AcDbLine
 10
49.44584111944564
 20
27.53473783420105
 30
0.0
 11
48.58851166617167
 21
28.79370070875956
 31
0.0
1001
TOP
1070
   256
  0
LINE
  5
82B
330
76B
100
AcDbEntity
  8
LOGO
 62
     0
100
AcDbLine
 10
48.58851166617167
 20
28.79370070875956
 30
0.0
 11
49.44584111944561
 21
28.79370070875951
 31
0.0
1001
TOP
1070
   256
  0
ARC
  5
82C
330
76B
100
AcDbEntity
  8
LOGO
 62
     0
370
     5
100
AcDbCircle
 10
17.44412459906672
 20
28.66560919669609
 30
0.0
 40
7.264056604142309
100
AcDbArc
 50
54.62314853322836
 51
125.3768514667716
1001
TOP
1070
   256
  0
ARC
  5
82D
330
76B
100
AcDbEntity
  8
LOGO
 62
     0
370
     5
100
AcDbCircle
 10
16.62227853183705
 20
28.63383667834967
 30
0.0
 40
7.793069759999999
100
AcDbArc
 50
49.82610094253605
 51
223.428751725223
1001
TOP
1070
   256
  0
ARC
  5
82E
330
76B
100
AcDbEntity
  8
LOGO
 62
     0
370
     5
100
AcDbCircle
 10
17.22616137325187
 20
29.3897869570925
 30
0.0
 40
4.056769053873
100
AcDbArc
 50
51.097129191028
 51
223.6094645412325
1001
TOP
1070
   256
  0
ARC
  5
82F
330
76B
100
AcDbEntity
  8
LOGO
 62
     0
370
     5
100
AcDbCircle
 10
16.57733836623376
 20
29.01486144328487
 30
0.0
 40
4.763630338834137
100
AcDbArc
 50
47.85430720588766
 51
226.8522865263435
1001
TOP
1070
   256
  0
ARC
  5
830
330
76B
100
AcDbEntity
  8
LOGO
 62
     0
370
     5
100
AcDbCircle
 10
16.17002821100252
 20
28.4182512479257
 30
0.0
 40
4.056769053873
100
AcDbArc
 50
231.0971291910281
 51
43.60946454120151
1001
TOP
1070
   256
  0
ARC
  5
831
330
76B
100
AcDbEntity
  8
LOGO
 62
     0
370
     5
100
AcDbCircle
 10
16.81885121802244
 20
28.7931767617331
 30
0.0
 40
4.763630338834137
100
AcDbArc
 50
227.8543072058696
 51
46.85228652636341
1001
TOP
1070
   256
  0
ARC
  5
832
330
76B
100
AcDbEntity
  8
LOGO
 62
     0
370
     5
100
AcDbCircle
 10
16.62227853183705
 20
28.63383667834967
 30
0.0
 40
7.793069759999999
100
AcDbArc
 50
230.1466606584018
 51
45.36258570986114
1001
TOP
1070
   256
  0
ARC
  5
833
330
76B
100
AcDbEntity
  8
LOGO
 62
     0
370
     5
100
AcDbCircle
 10
15.47406206409434
 20
28.76254089855251
 30
0.0
 40
7.22070068314474
100
AcDbArc
 50
237.8184274609922
 51
321.1976420062348
1001
TOP
1070
   256
  0
ARC
  5
834
330
76B
100
AcDbEntity
  8
LOGO
 62
     0
370
     5
100
AcDbCircle
 10
16.49783519669401
 20
29.33437419505527
 30
0.0
 40
5.663278842528496
100
AcDbArc
 50
171.3036725542784
 51
228.0269063594487
1001
TOP
1070
   256
  0
LINE
  5
835
330
76B
100
AcDbEntity
  8
LOGO
 62
     0
370
     5
100
AcDbLine
 10
12.7103388034225
 20
25.12395873821656
 30
0.0
 11
10.96271911221253
 21
23.27647506464784
 31
0.0
1001
TOP
1070
   256
  0
LINE
  5
836
330
76B
100
AcDbEntity
  8
LOGO
 62
     0
370
     5
100
AcDbLine
 10
14.28882554895235
 20
26.59167448405853
 30
0.0
 11
13.31957930169637
 21
25.53934998704055
 31
0.0
1001
TOP
1070
   256
  0
ARC
  5
837
330
76B
100
AcDbEntity
  8
LOGO
 62
     0
370
     5
100
AcDbCircle
 10
16.45690671951999
 20
30.05594897763183
 30
0.0
 40
5.558875133404747
100
AcDbArc
 50
125.3768514667706
 51
178.6115147484838
1001
TOP
1070
   256
  0
LINE
  5
838
330
76B
100
AcDbEntity
  8
LOGO
 62
     0
370
     5
100
AcDbLine
 10
51.34561986762887
 20
32.85730810015664
 30
0.0
 11
52.48697619624445
 21
32.85730810015664
 31
0.0
1001
TOP
1070
   256
  0
ARC
  5
839
330
76B
100
AcDbEntity
  8
LOGO
 62
     0
370
     5
100
AcDbCircle
 10
50.16215002765402
 20
33.59668853764663
 30
0.0
 40
2.439569664000001
100
AcDbArc
 50
354.0835439993975
 51
342.3574175336727
1001
TOP
1070
   256
  0
LINE
  5
83A
330
76B
100
AcDbEntity
  8
LOGO
 62
     0
370
     5
100
AcDbLine
 10
48.746848330698
 20
33.34522203295672
 30
0.0
 11
52.60170813361192
 21
33.34522203295672
 31
0.0
1001
TOP
1070
   256
  0
ARC
  5
83B
330
76B
100
AcDbEntity
  8
LOGO
 62
     0
370
     5
100
AcDbCircle
 10
37.8667189210941
 20
33.59668853764663
 30
0.0
 40
2.439569664000001
100
AcDbArc
 50
354.0835439993975
 51
342.3574175336751
1001
TOP
1070
   256
  0
LINE
  5
83C
330
76B
100
AcDbEntity
  8
LOGO
 62
     0
370
     5
100
AcDbLine
 10
27.49765040819579
 20
31.15711887364663
 30
0.0
 11
30.42513400499493
 21
31.15711887364663
 31
0.0
1001
TOP
1070
   256
  0
LINE
  5
83D
330
76B
100
AcDbEntity
  8
LOGO
 62
     0
370
     5
100
AcDbLine
 10
30.42513400499493
 20
37.50000000004681
 30
0.0
 11
27.49765040819579
 21
37.50000000004681
 31
0.0
1001
TOP
1070
   256
  0
LINE
  5
83E
330
76B
100
AcDbEntity
  8
LOGO
 62
     0
370
     5
100
AcDbLine
 10
22.09782851449668
 20
34.17913096013693
 30
0.0
 11
20.51969428130289
 21
32.54561571719387
 31
0.0
1001
TOP
1070
   256
  0
ARC
  5
83F
330
76B
100
AcDbEntity
  8
LOGO
 62
     0
370
     5
100
AcDbCircle
 10
15.9727702478842
 20
28.05306437542822
 30
0.0
 40
6.391989965892939
100
AcDbArc
 50
323.3529774062358
 51
44.65536847520496
1001
TOP
1070
   256
  0
LINE
  5
840
330
76B
100
AcDbEntity
  8
LOGO
 62
     0
370
     5
100
AcDbLine
 10
44.50722754650199
 20
36.03625820164649
 30
0.0
 11
44.50722754650199
 21
31.15711887364663
 31
0.0
1001
TOP
1070
   256
  0
LINE
  5
841
330
76B
100
AcDbEntity
  8
LOGO
 62
     0
370
     5
100
AcDbLine
 10
27.49765040819579
 20
37.50000000004681
 30
0.0
 11
27.49765040819579
 21
31.15711887364663
 31
0.0
1001
TOP
1070
   256
  0
ARC
  5
842
330
76B
100
AcDbEntity
  8
LOGO
 62
     0
370
     5
100
AcDbCircle
 10
30.18117703859566
 20
34.81647336964636
 30
0.0
 40
1.5857202816
100
AcDbArc
 50
0.0
 51
90.0
1001
TOP
1070
   256
  0
ARC
  5
843
330
76B
100
AcDbEntity
  8
LOGO
 62
     0
370
     5
100
AcDbCircle
 10
30.18117703859566
 20
33.84064550404673
 30
0.0
 40
1.5857202816
100
AcDbArc
 50
270.0
 51
0.0
1001
TOP
1070
   256
  0
ARC
  5
844
330
76B
100
AcDbEntity
  8
LOGO
 62
     0
370
     5
100
AcDbCircle
 10
30.42513400499493
 20
33.59668853764663
 30
0.0
 40
2.439569663999999
100
AcDbArc
 50
270.0
 51
0.0
1001
TOP
1070
   256
  0
ARC
  5
845
330
76B
100
AcDbEntity
  8
LOGO
 62
     0
370
     5
100
AcDbCircle
 10
30.42513400499493
 20
35.06043033604644
 30
0.0
 40
2.439569663999999
100
AcDbArc
 50
0.0
 51
90.0
1001
TOP
1070
   256
  0
LINE
  5
846
330
76B
100
AcDbEntity
  8
LOGO
 62
     0
370
     5
100
AcDbLine
 10
28.59545675699515
 20
36.40219365124654
 30
0.0
 11
28.59545675699515
 21
32.2549252224467
 31
0.0
1001
TOP
1070
   256
  0
LINE
  5
847
330
76B
100
AcDbEntity
  8
LOGO
 62
     0
370
     5
100
AcDbLine
 10
28.59545675699515
 20
32.2549252224467
 30
0.0
 11
30.18117703859566
 21
32.25492522244674
 31
0.0
1001
TOP
1070
   256
  0
LINE
  5
848
330
76B
100
AcDbEntity
  8
LOGO
 62
     0
370
     5
100
AcDbLine
 10
30.18117703859566
 20
36.40219365124636
 30
0.0
 11
28.59545675699515
 21
36.40219365124654
 31
0.0
1001
TOP
1070
   256
  0
LINE
  5
849
330
76B
100
AcDbEntity
  8
LOGO
 62
     0
370
     5
100
AcDbLine
 10
34.69527835789437
 20
31.15711887364663
 30
0.0
 11
34.69527835789437
 21
36.03625820164649
 31
0.0
1001
TOP
1070
   256
  0
LINE
  5
84A
330
76B
100
AcDbEntity
  8
LOGO
 62
     0
370
     5
100
AcDbLine
 10
33.59747200909241
 20
36.03625820164649
 30
0.0
 11
33.59747200909241
 21
31.15711887364663
 31
0.0
1001
TOP
1070
   256
  0
LINE
  5
84B
330
76B
100
AcDbEntity
  8
LOGO
 62
     0
370
     5
100
AcDbLine
 10
33.59747200909241
 20
31.15711887364663
 30
0.0
 11
34.69527835789437
 21
31.15711887364663
 31
0.0
1001
TOP
1070
   256
  0
LINE
  5
84C
330
76B
100
AcDbEntity
  8
LOGO
 62
     0
370
     5
100
AcDbLine
 10
33.59747200909241
 20
36.52417213444659
 30
0.0
 11
34.69527835789437
 21
36.52417213444659
 31
0.0
1001
TOP
1070
   256
  0
LINE
  5
84D
330
76B
100
AcDbEntity
  8
LOGO
 62
     0
370
     5
100
AcDbLine
 10
34.69527835789437
 20
37.50000000004681
 30
0.0
 11
33.59747200909241
 21
37.50000000004681
 31
0.0
1001
TOP
1070
   256
  0
LINE
  5
84E
330
76B
100
AcDbEntity
  8
LOGO
 62
     0
370
     5
100
AcDbLine
 10
34.69527835789437
 20
36.03625820164649
 30
0.0
 11
33.59747200909241
 21
36.03625820164649
 31
0.0
1001
TOP
1070
   256
  0
LINE
  5
84F
330
76B
100
AcDbEntity
  8
LOGO
 62
     0
370
     5
100
AcDbLine
 10
31.76689732019566
 20
33.84064550404673
 30
0.0
 11
31.76689732019566
 21
34.81647336964636
 31
0.0
1001
TOP
1070
   256
  0
LINE
  5
850
330
76B
100
AcDbEntity
  8
LOGO
 62
     0
370
     5
100
AcDbLine
 10
32.86470366899493
 20
33.59668853764663
 30
0.0
 11
32.86470366899493
 21
35.06043033604644
 31
0.0
1001
TOP
1070
   256
  0
LINE
  5
851
330
76B
100
AcDbEntity
  8
LOGO
 62
     0
370
     5
100
AcDbLine
 10
33.59747200909241
 20
37.50000000004681
 30
0.0
 11
33.59747200909241
 21
36.52417213444659
 31
0.0
1001
TOP
1070
   256
  0
LINE
  5
852
330
76B
100
AcDbEntity
  8
LOGO
 62
     0
370
     5
100
AcDbLine
 10
34.69527835789437
 20
36.52417213444659
 30
0.0
 11
34.69527835789437
 21
37.50000000004681
 31
0.0
1001
TOP
1070
   256
  0
LINE
  5
853
330
76B
100
AcDbEntity
  8
LOGO
 62
     0
370
     5
100
AcDbLine
 10
43.3202784435059
 20
36.03625820164649
 30
0.0
 11
43.77637105332959
 21
36.03625820164649
 31
0.0
1001
TOP
1070
   256
  0
ARC
  5
854
330
76B
100
AcDbEntity
  8
LOGO
 62
     0
370
     5
100
AcDbCircle
 10
43.77544761583407
 20
32.75491065838392
 30
0.0
 40
2.30551986259622
100
AcDbArc
 50
89.97705113130722
 51
144.7782320142388
1001
TOP
1070
   256
  0
LINE
  5
855
330
76B
100
AcDbEntity
  8
LOGO
 62
     0
370
     5
100
AcDbLine
 10
39.05018876106895
 20
32.85730810015664
 30
0.0
 11
40.19154508968521
 21
32.85730810015653
 31
0.0
1001
TOP
1070
   256
  0
LINE
  5
856
330
76B
100
AcDbEntity
  8
LOGO
 62
     0
370
     5
100
AcDbLine
 10
36.45141722414005
 20
33.34522203295672
 30
0.0
 11
40.30627702705134
 21
33.34522203295672
 31
0.0
1001
TOP
1070
   256
  0
ARC
  5
857
330
76B
100
AcDbEntity
  8
LOGO
 62
     0
370
     5
100
AcDbCircle
 10
37.8667189210941
 20
33.71866702084651
 30
0.0
 40
1.463741798400002
100
AcDbArc
 50
194.7813103722857
 51
323.9519363800176
1001
TOP
1070
   256
  0
ARC
  5
858
330
76B
100
AcDbEntity
  8
LOGO
 62
     0
370
     5
100
AcDbCircle
 10
37.86684605018565
 20
33.77532249424928
 30
0.0
 40
1.309503544180366
100
AcDbArc
 50
23.46032899247159
 51
156.5396710075284
1001
TOP
1070
   256
  0
LINE
  5
859
330
76B
100
AcDbEntity
  8
LOGO
 62
     0
370
     5
100
AcDbLine
 10
36.6655913799339
 20
34.29665420191658
 30
0.0
 11
39.0681007204374
 21
34.29665420191658
 31
0.0
1001
TOP
1070
   256
  0
LINE
  5
85A
330
76B
100
AcDbEntity
  8
LOGO
 62
     0
370
     5
100
AcDbLine
 10
41.89200886669389
 20
31.15711887364663
 30
0.0
 11
41.8920088666949
 21
34.08460247044668
 31
0.0
1001
TOP
1070
   256
  0
LINE
  5
85B
330
76B
100
AcDbEntity
  8
LOGO
 62
     0
370
     5
100
AcDbLine
 10
40.79420251789389
 20
36.03625820164649
 30
0.0
 11
40.79420251789389
 21
31.15711887364663
 31
0.0
1001
TOP
1070
   256
  0
LINE
  5
85C
330
76B
100
AcDbEntity
  8
LOGO
 62
     0
370
     5
100
AcDbLine
 10
40.79420251789389
 20
31.15711887364663
 30
0.0
 11
41.89200886669389
 21
31.15711887364663
 31
0.0
1001
TOP
1070
   256
  0
LINE
  5
85D
330
76B
100
AcDbEntity
  8
LOGO
 62
     0
370
     5
100
AcDbLine
 10
41.89200886669389
 20
36.03625820164649
 30
0.0
 11
40.79420251789389
 21
36.03625820164649
 31
0.0
1001
TOP
1070
   256
  0
ARC
  5
85E
330
76B
100
AcDbEntity
  8
LOGO
 62
     0
370
     5
100
AcDbCircle
 10
43.43211012991381
 20
34.3394191817174
 30
0.0
 40
1.700520210299701
100
AcDbArc
 50
93.77067625264222
 51
154.912967180733
1001
TOP
1070
   256
  0
LINE
  5
85F
330
76B
100
AcDbEntity
  8
LOGO
 62
     0
370
     5
100
AcDbLine
 10
41.89200886669399
 20
35.06043033604618
 30
0.0
 11
41.89200886669389
 21
36.03625820164649
 31
0.0
1001
TOP
1070
   256
  0
LINE
  5
860
330
76B
100
AcDbEntity
  8
LOGO
 62
     0
370
     5
100
AcDbLine
 10
41.89200886669389
 20
36.03625820164649
 30
0.0
 11
41.89200886669399
 21
35.06043033604618
 31
0.0
1001
TOP
1070
   256
  0
LINE
  5
861
330
76B
100
AcDbEntity
  8
LOGO
 62
     0
370
     5
100
AcDbLine
 10
45.60503389530264
 20
31.15711887364663
 30
0.0
 11
45.60503389530264
 21
34.08460247044656
 31
0.0
1001
TOP
1070
   256
  0
LINE
  5
862
330
76B
100
AcDbEntity
  8
LOGO
 62
     0
370
     5
100
AcDbLine
 10
44.50722754650199
 20
31.15711887364663
 30
0.0
 11
45.60503389530264
 21
31.15711887364663
 31
0.0
1001
TOP
1070
   256
  0
ARC
  5
863
330
76B
100
AcDbEntity
  8
LOGO
 62
     0
370
     5
100
AcDbCircle
 10
47.1451351585219
 20
34.3394191817174
 30
0.0
 40
1.700520210299701
100
AcDbArc
 50
93.77067625261972
 51
154.9129671807329
1001
TOP
1070
   256
  0
ARC
  5
864
330
76B
100
AcDbEntity
  8
LOGO
 62
     0
370
     5
100
AcDbCircle
 10
47.48847264444086
 20
32.75491065838392
 30
0.0
 40
2.30551986259622
100
AcDbArc
 50
89.97705113130722
 51
144.7782320142279
1001
TOP
1070
   256
  0
LINE
  5
865
330
76B
100
AcDbEntity
  8
LOGO
 62
     0
370
     5
100
AcDbLine
 10
45.6050338953021
 20
35.06043033604618
 30
0.0
 11
45.60503389530264
 21
36.03625820164649
 31
0.0
1001
TOP
1070
   256
  0
LINE
  5
866
330
76B
100
AcDbEntity
  8
LOGO
 62
     0
370
     5
100
AcDbLine
 10
43.77637105333035
 20
35.06043033604639
 30
0.0
 11
43.77637105332959
 21
36.03625820164649
 31
0.0
1001
TOP
1070
   256
  0
LINE
  5
867
330
76B
100
AcDbEntity
  8
LOGO
 62
     0
370
     5
100
AcDbLine
 10
45.60503389530264
 20
36.03625820164649
 30
0.0
 11
45.6050338953021
 21
35.06043033604618
 31
0.0
1001
TOP
1070
   256
  0
LINE
  5
868
330
76B
100
AcDbEntity
  8
LOGO
 62
     0
370
     5
100
AcDbLine
 10
45.60503389530264
 20
36.03625820164649
 30
0.0
 11
44.50722754650199
 21
36.03625820164649
 31
0.0
1001
TOP
1070
   256
  0
LINE
  5
869
330
76B
100
AcDbEntity
  8
LOGO
 62
     0
370
     5
100
AcDbLine
 10
47.48939608193714
 20
35.06043033604639
 30
0.0
 11
47.48939608193769
 21
36.03625820164649
 31
0.0
1001
TOP
1070
   256
  0
LINE
  5
86A
330
76B
100
AcDbEntity
  8
LOGO
 62
     0
370
     5
100
AcDbLine
 10
47.03330347211468
 20
36.03625820164624
 30
0.0
 11
47.48939608193769
 21
36.03625820164649
 31
0.0
1001
TOP
1070
   256
  0
ARC
  5
86B
330
76B
100
AcDbEntity
  8
LOGO
 62
     0
370
     5
100
AcDbCircle
 10
50.16215002765402
 20
33.71866702084651
 30
0.0
 40
1.463741798400002
100
AcDbArc
 50
194.7813103722661
 51
323.9519363800174
1001
TOP
1070
   256
  0
ARC
  5
86C
330
76B
100
AcDbEntity
  8
LOGO
 62
     0
370
     5
100
AcDbCircle
 10
50.16227715674556
 20
33.77532249424928
 30
0.0
 40
1.309503544180366
100
AcDbArc
 50
23.4603289924714
 51
156.5396710075284
1001
TOP
1070
   256
  0
LINE
  5
86D
330
76B
100
AcDbEntity
  8
LOGO
 62
     0
370
     5
100
AcDbLine
 10
48.96102248649381
 20
34.29665420191658
 30
0.0
 11
51.36353182699732
 21
34.29665420191658
 31
0.0
1001
TOP
1070
   256
  0
LINE
  5
86E
330
76B
100
AcDbEntity
  8
LOGO
 62
     0
100
AcDbLine
 10
44.68599253146373
 20
29.88098682769641
 30
0.0
 11
39.89836754380891
 21
29.88098682769649
 31
0.0
1001
TOP
1070
   256
  0
LINE
  5
86F
330
76B
100
AcDbEntity
  8
LOGO
 62
     0
100
AcDbLine
 10
39.89836754380891
 20
29.88098682769649
 30
0.0
 11
44.68599253146373
 21
29.88098682769641
 31
0.0
1001
TOP
1070
   256
  0
LINE
  5
870
330
76B
100
AcDbEntity
  8
LOGO
 62
     0
100
AcDbLine
 10
44.39100245915789
 20
26.01825982621012
 30
0.0
 11
45.21486459679504
 21
27.2280769403647
 31
0.0
1001
TOP
1070
   256
  0
LINE
  5
871
330
76B
100
AcDbEntity
  8
LOGO
 62
     0
100
AcDbLine
 10
44.39100245915789
 20
26.01825982621012
 30
0.0
 11
45.21486459679504
 21
27.2280769403647
 31
0.0
1001
TOP
1070
   256
  0
LINE
  5
872
330
76B
100
AcDbEntity
  8
LOGO
 62
     0
100
AcDbLine
 10
44.39100245915789
 20
26.01825982621012
 30
0.0
 11
46.03872673443219
 21
26.01825982621012
 31
0.0
1001
TOP
1070
   256
  0
LINE
  5
873
330
76B
100
AcDbEntity
  8
LOGO
 62
     0
100
AcDbLine
 10
46.03872673443219
 20
26.01825982621012
 30
0.0
 11
44.39100245915789
 21
26.01825982621012
 31
0.0
1001
TOP
1070
   256
  0
LINE
  5
874
330
76B
100
AcDbEntity
  8
LOGO
 62
     0
100
AcDbLine
 10
41.51276013947579
 20
24.44455623301195
 30
0.0
 11
48.91696905411429
 21
24.44455623301195
 31
0.0
1001
TOP
1070
   256
  0
LINE
  5
875
330
76B
100
AcDbEntity
  8
LOGO
 62
     0
100
AcDbLine
 10
41.51276013947579
 20
24.44455623301195
 30
0.0
 11
48.91696905411429
 21
24.44455623301195
 31
0.0
1001
TOP
1070
   256
  0
LINE
  5
876
330
76B
100
AcDbEntity
  8
LOGO
 62
     0
100
AcDbLine
 10
43.11736052943384
 20
27.57749725684523
 30
0.0
 11
44.68599253146373
 21
29.88098682769641
 31
0.0
1001
TOP
1070
   256
  0
LINE
  5
877
330
76B
100
AcDbEntity
  8
LOGO
 62
     0
100
AcDbLine
 10
43.11736052943384
 20
27.57749725684523
 30
0.0
 11
44.68599253146373
 21
29.88098682769641
 31
0.0
1001
TOP
1070
   256
  0
LINE
  5
878
330
76B
100
AcDbEntity
  8
LOGO
 62
     0
100
AcDbLine
 10
41.51276013947579
 20
24.44455623301195
 30
0.0
 11
45.21486459679504
 21
29.88098682769641
 31
0.0
1001
TOP
1070
   256
  0
LINE
  5
879
330
76B
100
AcDbEntity
  8
LOGO
 62
     0
100
AcDbLine
 10
45.21486459679504
 20
29.88098682769641
 30
0.0
 11
41.51276013947579
 21
24.44455623301195
 31
0.0
1001
TOP
1070
   256
  0
LINE
  5
87A
330
76B
100
AcDbEntity
  8
LOGO
 62
     0
100
AcDbLine
 10
32.52193502884332
 20
29.88098682769641
 30
0.0
 11
36.22403948616258
 21
29.88098682769641
 31
0.0
1001
TOP
1070
   256
  0
LINE
  5
87B
330
76B
100
AcDbEntity
  8
LOGO
 62
     0
100
AcDbLine
 10
32.52193502884332
 20
29.88098682769641
 30
0.0
 11
36.22403948616258
 21
29.88098682769641
 31
0.0
1001
TOP
1070
   256
  0
LINE
  5
87C
330
76B
100
AcDbEntity
  8
LOGO
 62
     0
100
AcDbLine
 10
33.05080709417467
 20
24.44455623301195
 30
0.0
 11
36.75291155149392
 21
29.88098682769641
 31
0.0
1001
TOP
1070
   256
  0
LINE
  5
87D
330
76B
100
AcDbEntity
  8
LOGO
 62
     0
100
AcDbLine
 10
32.52193502884332
 20
24.44455623301195
 30
0.0
 11
36.22403948616258
 21
29.88098682769641
 31
0.0
1001
TOP
1070
   256
  0
LINE
  5
87E
330
76B
100
AcDbEntity
  8
LOGO
 62
     0
100
AcDbLine
 10
33.05080709417467
 20
24.44455623301195
 30
0.0
 11
36.75291155149392
 21
29.88098682769641
 31
0.0
1001
TOP
1070
   256
  0
LINE
  5
87F
330
76B
100
AcDbEntity
  8
LOGO
 62
     0
100
AcDbLine
 10
36.22403948616258
 20
29.88098682769641
 30
0.0
 11
32.52193502884332
 21
24.44455623301195
 31
0.0
1001
TOP
1070
   256
  0
LINE
  5
880
330
76B
100
AcDbEntity
  8
LOGO
 62
     0
100
AcDbLine
 10
33.05080709417467
 20
24.44455623301195
 30
0.0
 11
40.45501600881316
 21
24.44455623301195
 31
0.0
1001
TOP
1070
   256
  0
LINE
  5
881
330
76B
100
AcDbEntity
  8
LOGO
 62
     0
100
AcDbLine
 10
40.45501600881316
 20
24.44455623301195
 30
0.0
 11
33.05080709417467
 21
24.44455623301195
 31
0.0
1001
TOP
1070
   256
  0
LINE
  5
882
330
76B
100
AcDbEntity
  8
LOGO
 62
     0
100
AcDbLine
 10
27.49765040819579
 20
29.88098682769641
 30
0.0
 11
29.74535668585389
 21
29.88098682769641
 31
0.0
1001
TOP
1070
   256
  0
LINE
  5
883
330
76B
100
AcDbEntity
  8
SQUADRATURA
 62
     0
100
AcDbLine
 10
5.000000000000105
 20
5.0
 30
0.0
 11
205.0
 21
5.0
 31
0.0
1001
TOP
1070
   256
  0
LINE
  5
884
330
76B
100
AcDbEntity
  8
CARTIGLIO
 62
     0
100
AcDbLine
 10
5.000000000000078
 20
86.49999999999998
 30
0.0
 11
5.000000000000105
 21
5.0
 31
0.0
1001
TOP
1070
   256
  0
TEXT
  5
886
330
76B
100
AcDbEntity
  8
CARTIGLIO SOTTILE 3
  6
Continuous
 62
     0
100
AcDbText
 10
93.06706327193763
 20
13.70005693816942
 30
0.0
 40
2.000000029802322
  1
1,6
 41
1.099999904632568
  7
Stile testo67
 11
93.06706327193763
 21
15.70005696797174
 31
0.0
100
AcDbText
 73
     3
1001
TOP
1070
   256
  0
TEXT
  5
889
330
76B
100
AcDbEntity
  8
CARTIGLIO SOTTILE 3
  6
Continuous
 62
     0
100
AcDbText
 10
126.2102423462716
 20
13.77324285176583
 30
0.0
 40
2.000000029802322
  1
0,8
 41
1.099999904632568
  7
Stile testo67
 11
126.2102423462716
 21
15.77324288156815
 31
0.0
100
AcDbText
 73
     3
1001
TOP
1070
   256
  0
TEXT
  5
88A
330
76B
100
AcDbEntity
  8
CARTIGLIO SOTTILE 3
  6
Continuous
 62
     0
100
AcDbText
 10
60.4799749918277
 20
13.66020557139004
 30
0.0
 40
2.000000029802322
  1
6,3
 41
1.099999904632568
  7
Stile testo67
 11
60.4799749918277
 21
15.66020560119236
 31
0.0
100
AcDbText
 73
     3
1001
TOP
1070
   256
  0
TEXT
  5
88B
330
76B
100
AcDbEntity
  8
TESTI CARTIGLIO
  6
Continuous
 62
     0
100
AcDbText
 10
141.7015961023471
 20
15.06431884614473
 30
0.0
 40
1.500000059604644
  1
Negli spigoli non quotati smussi 0,5 x 45°
  7
Stile_Cart
100
AcDbText
1001
TOP
1070
   256
  0
TEXT
  5
88D
330
76B
100
AcDbEntity
  8
TESTI CARTIGLIO
  6
Continuous
 62
     0
100
AcDbText
 10
141.6572557995353
 20
20.81431884614485
 30
0.0
 40
1.500000059604644
  1
Le QUOTE senza tolleranze si intendono h 11 / H 11
  7
Stile_Cart
100
AcDbText
1001
TOP
1070
   256
  0
TEXT
  5
88E
330
76B
100
AcDbEntity
  8
TESTI CARTIGLIO
  6
Continuous
 62
     0
100
AcDbText
 10
141.5631678399102
 20
11.71909434677367
 30
0.0
 40
1.500000059604644
  1
Smussi e raggi non quotati = 1 mm
  7
Stile_Cart
100
AcDbText
1001
TOP
1070
   256
  0
MTEXT
  5
88F
330
76B
100
AcDbEntity
  8
TESTI CARTIGLIO
  6
Continuous
 62
     0
100
AcDbMText
 10
141.7015961023471
 20
32.30641869289502
 30
0.0
 40
2.000000029802322
 41
187.5479004999999
 46
0.0
 71
     1
 72
     1
  1
\fTimes New Roman|b0|i0;\W0.98;\H2.0000;{LE TOLLERANZE SI INTENDONO SU PEZZO\PFINITO COMPLETO DI TRATTAMENTI SUPER.}
  7
Stile_Cart
 73
     2
 44
0.9959999322891235
1001
TOP
1070
   256
  0
MTEXT
  5
891
330
76B
100
AcDbEntity
  8
TESTI CARTIGLIO
  6
Continuous
 62
     0
100
AcDbMText
 10
105.0093571941604
 20
7.139705897619327
 30
0.0
 40
1.500000059604644
 41
199.5843948348242
 46
0.0
 71
     5
 72
     1
  1
SI VIETA L'USO E LA RIPRODUZIONE O LA VISIONE A TERZI DEL PRESENTE DISEGNO SENZA ESPLICITA AUTORIZZAZIONE, \fTimes New Roman|b0|i0;\H2.0000;Dierre\fTimes New Roman|b0|i0;\H1.5000; TUTELERA' I PROPRI DIRITTI A NORMA DI LEGGE
  7
Stile_Cart
 73
     2
 44
1.0
1001
TOP
1070
   256
  0
TEXT
  5
892
330
76B
100
AcDbEntity
  8
TESTI CARTIGLIO
  6
Continuous
 62
     0
100
AcDbText
 10
58.60700254363584
 20
35.36327579483753
 30
0.0
 40
1.846799999475479
  1
Sedi operative: Fiorano Circ.le S. Giovanni Ev.,23   41042 Spezzano (MO)
  7
STYLE1_82
 72
     2
 11
137.0729514200287
 21
35.36327579483753
 31
0.0
100
AcDbText
1001
TOP
1070
   256
  0
TEXT
  5
893
330
76B
100
AcDbEntity
  8
TESTI CARTIGLIO
  6
Continuous
 62
     0
100
AcDbText
 10
98.48678517202589
 20
31.43079771305236
 30
0.0
 40
1.846799999475479
  1
Tel. 0536 921322  Fax 0536 921218
  7
STYLE1_83
 72
     2
 11
137.0390741478605
 21
31.43079771305236
 31
0.0
100
AcDbText
1001
TOP
1070
   256
  0
TEXT
  5
894
330
76B
100
AcDbEntity
  8
TESTI CARTIGLIO
  6
Continuous
 62
     0
100
AcDbText
 10
90.06802305164095
 20
27.71434793139304
 30
0.0
 40
1.846799999475479
  1
Bologna Via Del Selciatore, 12   40127 (BO)
  7
STYLE1_82
 72
     2
 11
137.0244723775116
 21
27.71434793139304
 31
0.0
100
AcDbText
1001
TOP
1070
   256
  0
TEXT
  5
895
330
76B
100
AcDbEntity
  8
TESTI CARTIGLIO
  6
Continuous
 62
     0
100
AcDbText
 10
101.0496503033155
 20
24.07492979731872
 30
0.0
 40
1.846799999475479
  1
Tel. 051 535318  Fax 051 531297
  7
STYLE1_83
 72
     2
 11
136.9985207776869
 21
24.07492979731872
 31
0.0
100
AcDbText
1001
TOP
1070
   256
  0
TEXT
  5
896
330
76B
100
AcDbEntity
  8
TESTI CARTIGLIO
  6
Continuous
 62
     0
100
AcDbText
 10
89.29363142082875
 20
20.69339020736533
 30
0.0
 40
1.500000059604644
  1
www.dierremacap.com . tecnico@dierreprotezioni.com
  7
STYLE1_85
 72
     2
 11
136.9478183364623
 21
20.69339020736533
 31
0.0
100
AcDbText
1001
TOP
1070
   256
  0
TEXT
  5
897
330
76B
100
AcDbEntity
  8
TESTI CARTIGLIO SOTTILE
  6
Continuous
 62
     0
100
AcDbText
 10
78.25666370485942
 20
46.25
 30
0.0
 40
1.599999964237213
  1
COD. CLIENTE:
  7
STYLE1_94
100
AcDbText
1001
TOP
1070
   256
  0
TEXT
  5
898
330
76B
100
AcDbEntity
  8
TESTI CARTIGLIO SOTTILE
  6
Continuous
 62
     0
100
AcDbText
 10
20.7566637048576
 20
72.5
 30
0.0
 40
1.599999964237213
  1
MATERIALE:
  7
STYLE1_94
100
AcDbText
1001
TOP
1070
   256
  0
TEXT
  5
899
330
76B
100
AcDbEntity
  8
TESTI CARTIGLIO SOTTILE
  6
Continuous
 62
     0
100
AcDbText
 10
5.75666370485851
 20
72.5
 30
0.0
 40
1.599999964237213
  1
POS.
  7
STYLE1_94
100
AcDbText
1001
TOP
1070
   256
  0
TEXT
  5
89A
330
76B
100
AcDbEntity
  8
TESTI CARTIGLIO SOTTILE
  6
Continuous
 62
     0
100
AcDbText
 10
177.7566637048594
 20
57.00000000000011
 30
0.0
 40
1.599999964237213
  1
Q.ta:
  7
STYLE1_94
100
AcDbText
1001
TOP
1070
   256
  0
TEXT
  5
89B
330
76B
100
AcDbEntity
  8
TESTI CARTIGLIO SOTTILE
  6
Continuous
 62
     0
100
AcDbText
 10
140.8581923512756
 20
38.37500000000011
 30
0.0
 40
1.759999990463256
  1
Codice N
  7
STYLE1_97
100
AcDbText
1001
TOP
1070
   256
  0
TEXT
  5
89C
330
76B
100
AcDbEntity
  8
TESTI CARTIGLIO SOTTILE
  6
Continuous
 62
     0
100
AcDbText
 10
177.7566637048594
 20
64.50000000000011
 30
0.0
 40
1.599999964237213
  1
Scala:
  7
STYLE1_94
100
AcDbText
1001
TOP
1070
   256
  0
TEXT
  5
89D
330
76B
100
AcDbEntity
  8
TESTI CARTIGLIO SOTTILE
  6
Continuous
 62
     0
100
AcDbText
 10
140.7566637048594
 20
50.00000000000011
 30
0.0
 40
1.599999964237213
  1
Rifer. ordine:
  7
STYLE1_94
100
AcDbText
1001
TOP
1070
   256
  0
TEXT
  5
89E
330
76B
100
AcDbEntity
  8
TESTI CARTIGLIO SOTTILE
  6
Continuous
 62
     0
100
AcDbText
 10
10.05702163057413
 20
78.70236139299823
 30
0.0
 40
1.599999964237213
  1
Rev.
  7
STYLE1_94
100
AcDbText
1001
TOP
1070
   256
  0
TEXT
  5
89F
330
76B
100
AcDbEntity
  8
TESTI CARTIGLIO SOTTILE
  6
Continuous
 62
     0
100
AcDbText
 10
140.7566637048594
 20
64.50000000000011
 30
0.0
 40
1.599999964237213
  1
Data:
  7
STYLE1_94
100
AcDbText
1001
TOP
1070
   256
  0
TEXT
  5
8A0
330
76B
100
AcDbEntity
  8
TESTI CARTIGLIO SOTTILE
  6
Continuous
 62
     0
100
AcDbText
 10
140.7566637048594
 20
57.75000000000012
 30
0.0
 40
1.599999964237213
  1
Diseg.:        
  7
STYLE1_94
100
AcDbText
1001
TOP
1070
   256
  0
TEXT
  5
8A1
330
76B
100
AcDbEntity
  8
TESTI CARTIGLIO SOTTILE
  6
Continuous
 62
     0
100
AcDbText
 10
5.75666370485942
 20
43.0
 30
0.0
 40
1.599999964237213
  1
CLIENTE:
  7
STYLE1_94
100
AcDbText
1001
TOP
1070
   256
  0
TEXT
  5
8A2
330
76B
100
AcDbEntity
  8
TESTI CARTIGLIO SOTTILE
  6
Continuous
 62
     0
100
AcDbText
 10
5.75666370485942
 20
63.75
 30
0.0
 40
1.599999964237213
  1
DENOMINAZIONE:
  7
STYLE1_94
100
AcDbText
1001
TOP
1070
   256
  0
TEXT
  5
8A3
330
76B
100
AcDbEntity
  8
TESTI CARTIGLIO SOTTILE
  6
Continuous
 62
     0
100
AcDbText
 10
78.25666370485942
 20
41.25
 30
0.0
 40
1.599999964237213
  1
CC CLIENTE:
  7
STYLE1_94
100
AcDbText
1001
TOP
1070
   256
  0
TEXT
  5
8A4
330
76B
100
AcDbEntity
  8
TESTI CARTIGLIO SOTTILE
  6
Continuous
 62
     0
100
AcDbText
 10
192.7924043056964
 20
78.70236139299823
 30
0.0
 40
1.599999964237213
  1
Diseg.
  7
STYLE1_94
100
AcDbText
1001
TOP
1070
   256
  0
TEXT
  5
8A5
330
76B
100
AcDbEntity
  8
TESTI CARTIGLIO SOTTILE
  6
Continuous
 62
     0
100
AcDbText
 10
175.057021630575
 20
78.70236139299823
 30
0.0
 40
1.599999964237213
  1
Data
  7
STYLE1_94
100
AcDbText
1001
TOP
1070
   256
  0
TEXT
  5
8A6
330
76B
100
AcDbEntity
  8
TESTI CARTIGLIO SOTTILE
  6
Continuous
 62
     0
100
AcDbText
 10
120.7566637048567
 20
72.5
 30
0.0
 40
1.599999964237213
  1
TRATTAMENTI:
  7
STYLE1_94
100
AcDbText
1001
TOP
1070
   256
  0
MTEXT
  5
8A7
330
76B
100
AcDbEntity
  8
TESTO NORMALE
  6
Continuous
 62
     0
100
AcDbMText
 10
27.41279426852809
 20
22.63189417497554
 30
0.0
 40
3.000000119209289
 41
16.09299116697531
 46
0.0
 71
     1
 72
     1
  1
\f@Arial Unicode MS|b0|i0;\H3.0000;Group\f@Arial Unicode MS|b0|i0;\H1.5000; srl
  7
TESTO NORMALE
 73
     1
 44
1.0
1001
TOP
1070
   256
  0
ATTDEF
  5
8A9
102
{ACAD_XDICTIONARY
360
952
102
}
330
76B
100
AcDbEntity
  8
TESTI CARTIGLIO
  6
Continuous
 62
     0
100
AcDbText
 10
28.74010102232296
 20
63.75423721969127
 30
0.0
 40
2.491525560617446
  1

  7
Stile testo102
 11
28.74010102232296
 21
65.0
 31
0.0
100
AcDbAttributeDefinition
280
     0
  3
DESCRIZIONE
  2
DESCRIZIONE
 70
     0
 74
     2
280
     0
1001
TOP
1070
   256
  0
ATTDEF
  5
8AA
102
{ACAD_XDICTIONARY
360
955
102
}
330
76B
100
AcDbEntity
  8
TESTI CARTIGLIO
  6
Continuous
 62
     0
100
AcDbText
 10
94.81214291417655
 20
41.25423721969127
 30
0.0
 40
2.491525560617446
  1

  7
Stile testo102
 11
94.81214291417655
 21
42.5
 31
0.0
100
AcDbAttributeDefinition
280
     0
  3
COMMESSA
  2
COMMESSA
 70
     0
 74
     2
280
     0
1001
TOP
1070
   256
  0
ATTDEF
  5
8AC
102
{ACAD_XDICTIONARY
360
958
102
}
330
76B
100
AcDbEntity
  8
TESTI CARTIGLIO
  6
Continuous
 62
     0
100
AcDbText
 10
147.7682984236189
 20
57.74999998509895
 30
0.0
 40
2.000000029802322
  1

  7
Stile testo71
 11
147.7682984236189
 21
58.75000000000011
 31
0.0
100
AcDbAttributeDefinition
280
     0
  3
DISEGNATORE
  2
DISEGNATORE
 70
     0
 74
     2
280
     0
1001
TOP
1070
   256
  0
ATTDEF
  5
8AD
102
{ACAD_XDICTIONARY
360
95B
102
}
330
76B
100
AcDbEntity
  8
TESTI CARTIGLIO
  6
Continuous
 62
     0
100
AcDbText
 10
28.74010102232296
 20
58.75423721969127
 30
0.0
 40
2.491525560617446
  1

  7
Stile testo102
 11
28.74010102232296
 21
60.0
 31
0.0
100
AcDbAttributeDefinition
280
     0
  3
DESCRIZIONE2
  2
DESCRIZIONE2
 70
     0
 74
     2
280
     0
1001
TOP
1070
   256
  0
ATTDEF
  5
8AE
102
{ACAD_XDICTIONARY
360
95E
102
}
330
76B
100
AcDbEntity
  8
TESTI CARTIGLIO
  6
Continuous
 62
     0
100
AcDbText
 10
28.74010102232296
 20
53.75423721969127
 30
0.0
 40
2.491525560617446
  1

  7
Stile testo102
 11
28.74010102232296
 21
55.0
 31
0.0
100
AcDbAttributeDefinition
280
     0
  3
DESCRIZIONE3
  2
DESCRIZIONE3
 70
     0
 74
     2
280
     0
1001
TOP
1070
   256
  0
ATTDEF
  5
8B0
102
{ACAD_XDICTIONARY
360
961
102
}
330
76B
100
AcDbEntity
  8
TESTI CARTIGLIO
  6
Continuous
 62
     0
100
AcDbText
 10
147.7682984236189
 20
64.50000002980243
 30
0.0
 40
3.499999940395355
  1

  7
Stile testo75
 11
147.7682984236189
 21
66.25000000000011
 31
0.0
100
AcDbAttributeDefinition
280
     0
  3
DATA
  2
DATA
 70
     0
 74
     2
280
     0
1001
TOP
1070
   256
  0
ATTDEF
  5
8B1
102
{ACAD_XDICTIONARY
360
964
102
}
330
76B
100
AcDbEntity
  8
TESTI CARTIGLIO
  6
Continuous
 62
     0
100
AcDbText
 10
182.9419684877733
 20
64.57065612017112
 30
0.0
 40
3.499999940395355
  1
1:1
  7
Stile testo75
100
AcDbAttributeDefinition
280
     0
  3
SCALA
  2
SCALA_001
 70
     0
280
     0
1001
TOP
1070
   256
  0
ATTDEF
  5
8B2
102
{ACAD_XDICTIONARY
360
967
102
}
330
76B
100
AcDbEntity
  8
TESTI CARTIGLIO
  6
Continuous
 62
     0
100
AcDbText
 10
184.1532157512365
 20
57.00000002980243
 30
0.0
 40
3.499999940395355
  1

  7
Stile testo75
 11
184.1532157512365
 21
58.75000000000011
 31
0.0
100
AcDbAttributeDefinition
280
     0
  3
QTA
  2
QTA
 70
     0
 74
     2
280
     0
1001
TOP
1070
   256
  0
ATTDEF
  5
8B3
102
{ACAD_XDICTIONARY
360
96A
102
}
330
76B
100
AcDbEntity
  8
TESTI CARTIGLIO
  6
Continuous
 62
     0
100
AcDbText
 10
156.6477659240454
 20
50.00423721969139
 30
0.0
 40
2.491525560617446
  1

  7
Stile testo102
 11
156.6477659240454
 21
51.25000000000011
 31
0.0
100
AcDbAttributeDefinition
280
     0
  3
RIF_ORDINE
  2
RIF_ORDINE
 70
     0
 74
     2
280
     0
1001
TOP
1070
   256
  0
ATTDEF
  5
8B5
102
{ACAD_XDICTIONARY
360
96D
102
}
330
76B
100
AcDbEntity
  8
TESTI CARTIGLIO
  6
Continuous
 62
     0
100
AcDbText
 10
155.290076571523
 20
38.37500005960476
 30
0.0
 40
4.49999988079071
  1

  7
Stile testo78
 11
155.290076571523
 21
40.62500000000011
 31
0.0
100
AcDbAttributeDefinition
280
     0
  3
CODICE
  2
CODICE
 70
     0
 74
     2
280
     0
1001
TOP
1070
   256
  0
ATTDEF
  5
8B6
102
{ACAD_XDICTIONARY
360
970
102
}
330
76B
100
AcDbEntity
  8
TESTI CARTIGLIO
  6
Continuous
 62
     0
100
AcDbText
 10
94.8016206352022
 20
46.25423721969127
 30
0.0
 40
2.491525560617446
  1

  7
Stile testo102
 11
94.8016206352022
 21
47.5
 31
0.0
100
AcDbAttributeDefinition
280
     0
  3
COD_CLIENTE
  2
COD_CLIENTE
 70
     0
 74
     2
280
     0
1001
TOP
1070
   256
  0
ATTDEF
  5
8B8
102
{ACAD_XDICTIONARY
360
973
102
}
330
76B
100
AcDbEntity
  8
TESTI CARTIGLIO
  6
Continuous
 62
     0
100
AcDbText
 10
17.76035154006968
 20
43.00423726439476
 30
0.0
 40
3.991525471210479
  1

  7
Stile testo103
 11
17.76035154006968
 21
45.0
 31
0.0
100
AcDbAttributeDefinition
280
     0
  3
CLIENTE
  2
CLIENTE
 70
     0
 74
     2
280
     0
1001
TOP
1070
   256
  0
ATTDEF
  5
8B9
102
{ACAD_XDICTIONARY
360
976
102
}
330
76B
100
AcDbEntity
  8
TESTI CARTIGLIO
  6
Continuous
 62
     0
100
AcDbText
 10
37.04547401447201
 20
72.50423721969127
 30
0.0
 40
2.491525560617446
  1

  7
Stile testo102
 11
37.04547401447201
 21
73.75
 31
0.0
100
AcDbAttributeDefinition
280
     0
  3
MATERIALE
  2
MATERIALE
 70
     0
 74
     2
280
     0
1001
TOP
1070
   256
  0
ATTDEF
  5
8BA
102
{ACAD_XDICTIONARY
360
979
102
}
330
76B
100
AcDbEntity
  8
TESTI CARTIGLIO
  6
Continuous
 62
     0
100
AcDbText
 10
140.5628059283587
 20
72.50423721969127
 30
0.0
 40
2.491525560617446
  1

  7
Stile testo102
 11
140.5628059283587
 21
73.75
 31
0.0
100
AcDbAttributeDefinition
280
     0
  3
TRATTAMENTI
  2
TRATTAMENTI
 70
     0
 74
     2
280
     0
1001
TOP
1070
   256
  0
ATTDEF
  5
8BB
102
{ACAD_XDICTIONARY
360
97C
102
}
330
76B
100
AcDbEntity
  8
TESTI CARTIGLIO
  6
Continuous
 62
     0
100
AcDbText
 10
21.57933346514306
 20
82.54390394715377
 30
0.0
 40
2.491525560617446
  1

  7
Stile testo102
 11
21.57933346514306
 21
83.78966672746249
 31
0.0
100
AcDbAttributeDefinition
280
     0
  3
MOD_REV
  2
MOD_REV
 70
     0
 74
     2
280
     0
1001
TOP
1070
   256
  0
ATTDEF
  5
8BD
102
{ACAD_XDICTIONARY
360
97F
102
}
330
76B
100
AcDbEntity
  8
TESTI CARTIGLIO
  6
Continuous
 62
     0
100
AcDbText
 10
12.35400178234428
 20
82.77164077493692
 30
0.0
 40
2.5
  1

  7
Stile testo68
 72
     1
 11
12.35400178234428
 21
84.02164077493692
 31
0.0
100
AcDbAttributeDefinition
280
     0
  3
REV
  2
REV
 70
     0
 74
     2
280
     0
1001
TOP
1070
   256
  0
ATTDEF
  5
8BE
102
{ACAD_XDICTIONARY
360
982
102
}
330
76B
100
AcDbEntity
  8
TESTI CARTIGLIO
  6
Continuous
 62
     0
100
AcDbText
 10
177.2480015623884
 20
82.23763961915125
 30
0.0
 40
2.491525560617446
  1

  7
Stile testo102
 72
     1
 11
177.2480015623884
 21
83.48340239945997
 31
0.0
100
AcDbAttributeDefinition
280
     0
  3
DATA_REV
  2
DATA_REV
 70
     0
 74
     2
280
     0
1001
TOP
1070
   256
  0
ATTDEF
  5
8BF
102
{ACAD_XDICTIONARY
360
985
102
}
330
76B
100
AcDbEntity
  8
TESTI CARTIGLIO
  6
Continuous
 62
     0
100
AcDbText
 10
194.9481281634527
 20
82.47054626696442
 30
0.0
 40
2.491525560617446
  1

  7
Stile testo102
 72
     1
 11
194.9481281634527
 21
83.71630904727314
 31
0.0
100
AcDbAttributeDefinition
280
     0
  3
DISEGN_REV
  2
DISEGN_REV
 70
     0
 74
     2
280
     0
1001
TOP
1070
   256
  0
ATTDEF
  5
8C0
102
{ACAD_XDICTIONARY
360
988
102
}
330
76B
100
AcDbEntity
  8
TESTI CARTIGLIO
  6
Continuous
 62
     0
100
AcDbText
 10
205.0375806883759
 20
1.7482730972633
 30
0.0
 40
2.000000029802322
  1
A4
  7
Stile testo71
100
AcDbAttributeDefinition
280
     0
  3
Dimensioni foglio
  2
Dimensioni_foglio_001
 70
     0
280
     0
1001
TOP
1070
   256
  0
ENDBLK
  5
76D
330
76B
100
AcDbEntity
  8
0
 62
     7
100
AcDbBlockEnd
  0
ENDSEC
  0
SECTION
  2
ENTITIES
  0
ARC
  5
8D6
330
2
100
AcDbEntity
  8
P-0000
  6
Continuous
 62
     7
100
AcDbCircle
 10
75.11574962554115
 20
242.2087917443479
 30
0.0
 40
2.5
100
AcDbArc
 50
90.00000000000019
 51
180.0
  0
LINE
  5
8D7
330
2
100
AcDbEntity
  8
P-0000
  6
Continuous
 62
     7
100
AcDbLine
 10
72.61574962554115
 20
242.2087917443479
 30
0.0
 11
72.61574962554115
 21
187.2087917443479
 31
0.0
  0
ARC
  5
8D8
330
2
100
AcDbEntity
  8
P-0000
  6
Continuous
 62
     7
100
AcDbCircle
 10
75.11574962554115
 20
187.2087917443479
 30
0.0
 40
2.5
100
AcDbArc
 50
180.0
 51
270.0
  0
LINE
  5
8D9
330
2
100
AcDbEntity
  8
P-0000
  6
Continuous
 62
     7
100
AcDbLine
 10
75.11574962554115
 20
184.7087917443479
 30
0.0
 11
130.1157496255411
 21
184.7087917443479
 31
0.0
  0
ARC
  5
8DA
330
2
100
AcDbEntity
  8
P-0000
  6
Continuous
 62
     7
100
AcDbCircle
 10
130.1157496255411
 20
187.2087917443479
 30
0.0
 40
2.500000000000004
100
AcDbArc
 50
270.0
 51
0.0
  0
LINE
  5
8DB
330
2
100
AcDbEntity
  8
P-0000
  6
Continuous
 62
     7
100
AcDbLine
 10
132.6157496255411
 20
187.2087917443479
 30
0.0
 11
132.6157496255411
 21
242.2087917443479
 31
0.0
  0
ARC
  5
8DC
330
2
100
AcDbEntity
  8
P-0000
  6
Continuous
 62
     7
100
AcDbCircle
 10
130.1157496255411
 20
242.2087917443479
 30
0.0
 40
2.5
100
AcDbArc
 50
0.0
 51
89.99999999999959
  0
LINE
  5
8DD
330
2
100
AcDbEntity
  8
P-0000
  6
Continuous
 62
     7
100
AcDbLine
 10
130.1157496255411
 20
244.7087917443479
 30
0.0
 11
75.11574962554115
 21
244.7087917443479
 31
0.0
  0
CIRCLE
  5
8DE
330
2
100
AcDbEntity
  8
P-0000
  6
Continuous
 62
     7
100
AcDbCircle
 10
125.8457496255411
 20
237.9387917443479
 30
0.0
 40
4.75
  0
CIRCLE
  5
8DF
330
2
100
AcDbEntity
  8
P-0000
  6
Continuous
 62
     7
100
AcDbCircle
 10
125.8457496255411
 20
237.9387917443479
 30
0.0
 40
4.25
  0
CIRCLE
  5
8E0
330
2
100
AcDbEntity
  8
P-0000
  6
Continuous
 62
     7
100
AcDbCircle
 10
79.38574962554115
 20
237.9387917443479
 30
0.0
 40
4.75
  0
CIRCLE
  5
8E1
330
2
100
AcDbEntity
  8
P-0000
  6
Continuous
 62
     7
100
AcDbCircle
 10
79.38574962554115
 20
237.9387917443479
 30
0.0
 40
4.25
  0
CIRCLE
  5
8E2
330
2
100
AcDbEntity
  8
P-0000
  6
Continuous
 62
     7
100
AcDbCircle
 10
79.38574962554115
 20
191.4787917443479
 30
0.0
 40
4.75
  0
CIRCLE
  5
8E3
330
2
100
AcDbEntity
  8
P-0000
  6
Continuous
 62
     7
100
AcDbCircle
 10
79.38574962554115
 20
191.4787917443479
 30
0.0
 40
4.25
  0
CIRCLE
  5
8E4
330
2
100
AcDbEntity
  8
P-0000
  6
Continuous
 62
     7
100
AcDbCircle
 10
125.8457496255411
 20
191.4787917443479
 30
0.0
 40
4.75
  0
CIRCLE
  5
8E5
330
2
100
AcDbEntity
  8
P-0000
  6
Continuous
 62
     7
100
AcDbCircle
 10
125.8457496255411
 20
191.4787917443479
 30
0.0
 40
4.25
  0
CIRCLE
  5
8E6
330
2
100
AcDbEntity
  8
P-0000
  6
Continuous
 62
     7
100
AcDbCircle
 10
125.8457496255411
 20
191.4787917443479
 30
0.0
 40
3.75
  0
CIRCLE
  5
8E7
330
2
100
AcDbEntity
  8
P-0000
  6
Continuous
 62
     7
100
AcDbCircle
 10
79.38574962554115
 20
191.4787917443479
 30
0.0
 40
3.75
  0
CIRCLE
  5
8E8
330
2
100
AcDbEntity
  8
P-0000
  6
Continuous
 62
     7
100
AcDbCircle
 10
125.8457496255411
 20
237.9387917443479
 30
0.0
 40
3.75
  0
CIRCLE
  5
8E9
330
2
100
AcDbEntity
  8
P-0000
  6
Continuous
 62
     7
100
AcDbCircle
 10
79.38574962554115
 20
237.9387917443479
 30
0.0
 40
3.75
  0
LINE
  5
8EA
330
2
100
AcDbEntity
  8
P-0000
  6
Continuous
 62
     7
100
AcDbLine
 10
72.61574962554115
 20
153.6506346972356
 30
0.0
 11
75.11574962554115
 21
153.6506346972364
 31
0.0
  0
LINE
  5
8EB
330
2
100
AcDbEntity
  8
P-0000
  6
Continuous
 62
     7
100
AcDbLine
 10
130.1157496255411
 20
153.6506346972364
 30
0.0
 11
132.6157496255411
 21
153.6506346972356
 31
0.0
  0
LINE
  5
8EC
330
2
100
AcDbEntity
  8
P-0000
  6
Continuous
 62
     7
100
AcDbLine
 10
130.1157496255411
 20
153.6506346972364
 30
0.0
 11
75.11574962554115
 21
153.6506346972364
 31
0.0
  0
LINE
  5
8ED
330
2
100
AcDbEntity
  8
P-0000
  6
Continuous
 62
     7
100
AcDbLine
 10
72.61574962554115
 20
153.6506346972356
 30
0.0
 11
72.61574962554115
 21
154.6506346972356
 31
0.0
  0
LINE
  5
8EE
330
2
100
AcDbEntity
  8
P-0000
  6
Continuous
 62
     7
100
AcDbLine
 10
130.5957496255411
 20
145.6506346972344
 30
0.0
 11
121.0957496255411
 21
145.6506346972344
 31
0.0
  0
LINE
  5
8EF
330
2
100
AcDbEntity
  8
P-0000
  6
Continuous
 62
     7
100
AcDbLine
 10
121.5957496255411
 20
143.6506346972344
 30
0.0
 11
130.0957496255412
 21
143.6506346972344
 31
0.0
  0
LINE
  5
8F0
330
2
100
AcDbEntity
  8
P-0000
  6
Continuous
 62
     7
100
AcDbLine
 10
84.13574962554115
 20
145.6506346972344
 30
0.0
 11
74.63574962554115
 21
145.6506346972344
 31
0.0
  0
LINE
  5
8F1
330
2
100
AcDbEntity
  8
P-0000
  6
Continuous
 62
     7
100
AcDbLine
 10
75.13574962554115
 20
143.6506346972344
 30
0.0
 11
83.63574962554114
 21
143.6506346972344
 31
0.0
  0
LINE
  5
8F2
330
2
100
AcDbEntity
  8
P-0000
  6
Continuous
 62
     7
100
AcDbLine
 10
74.61574962554116
 20
156.6506346972356
 30
0.0
 11
75.11574962554115
 21
156.6506346972358
 31
0.0
  0
LINE
  5
8F3
330
2
100
AcDbEntity
  8
P-0000
  6
Continuous
 62
     7
100
AcDbLine
 10
75.11574962554115
 20
156.6506346972358
 30
0.0
 11
130.1157496255411
 21
156.6506346972358
 31
0.0
  0
LINE
  5
8F4
330
2
100
AcDbEntity
  8
P-0000
  6
Continuous
 62
     7
100
AcDbLine
 10
130.1157496255411
 20
156.6506346972358
 30
0.0
 11
130.6157496255411
 21
156.6506346972356
 31
0.0
  0
LINE
  5
8F5
330
2
100
AcDbEntity
  8
P-0000
  6
Continuous
 62
     7
100
AcDbLine
 10
132.6157496255411
 20
153.6506346972356
 30
0.0
 11
132.6157496255411
 21
154.6506346972356
 31
0.0
  0
ARC
  5
8F6
330
2
100
AcDbEntity
  8
P-0000
  6
Continuous
 62
     7
100
AcDbCircle
 10
130.6157496255411
 20
154.6506346972356
 30
0.0
 40
2.0
100
AcDbArc
 50
0.0
 51
90.0
  0
ARC
  5
8F7
330
2
100
AcDbEntity
  8
P-0000
  6
Continuous
 62
     7
100
AcDbCircle
 10
74.61574962554116
 20
154.6506346972356
 30
0.0
 40
2.000000000000005
100
AcDbArc
 50
90.00000000000024
 51
180.0
  0
LINE
  5
8F8
330
2
100
AcDbEntity
  8
P-0000
  6
Continuous
 62
     7
100
AcDbLine
 10
130.5957496255411
 20
153.1506346972344
 30
0.0
 11
130.5957496255411
 21
145.6506346972344
 31
0.0
  0
LINE
  5
8F9
330
2
100
AcDbEntity
  8
P-0000
  6
Continuous
 62
     7
100
AcDbLine
 10
121.0957496255411
 20
153.1506346972344
 30
0.0
 11
121.0957496255411
 21
145.6506346972344
 31
0.0
  0
LINE
  5
8FA
330
2
100
AcDbEntity
  8
P-0000
  6
Continuous
 62
     7
100
AcDbLine
 10
121.5957496255411
 20
143.6506346972344
 30
0.0
 11
121.0957496255411
 21
145.6506346972344
 31
0.0
  0
LINE
  5
8FB
330
2
100
AcDbEntity
  8
P-0000
  6
Continuous
 62
     7
100
AcDbLine
 10
130.0957496255411
 20
143.6506346972344
 30
0.0
 11
130.5957496255411
 21
145.6506346972344
 31
0.0
  0
LINE
  5
8FC
330
2
100
AcDbEntity
  8
P-0000
  6
Continuous
 62
     7
100
AcDbLine
 10
75.13574962554115
 20
143.6506346972344
 30
0.0
 11
74.63574962554115
 21
145.6506346972344
 31
0.0
  0
LINE
  5
8FD
330
2
100
AcDbEntity
  8
P-0000
  6
Continuous
 62
     7
100
AcDbLine
 10
83.63574962554114
 20
143.6506346972344
 30
0.0
 11
84.13574962554115
 21
145.6506346972344
 31
0.0
  0
ARC
  5
8FE
330
2
100
AcDbEntity
  8
P-0000
  6
Continuous
 62
     7
100
AcDbCircle
 10
74.13574962554114
 20
153.1506346972344
 30
0.0
 40
0.5
100
AcDbArc
 50
0.0
 51
90.0
  0
ARC
  5
8FF
330
2
100
AcDbEntity
  8
P-0000
  6
Continuous
 62
     7
100
AcDbCircle
 10
84.63574962554114
 20
153.1506346972344
 30
0.0
 40
0.5
100
AcDbArc
 50
89.99999999999797
 51
180.0
  0
LINE
  5
900
330
2
100
AcDbEntity
  8
P-0000
  6
Continuous
 62
     7
100
AcDbLine
 10
84.13574962554115
 20
153.1506346972344
 30
0.0
 11
84.13574962554115
 21
145.6506346972344
 31
0.0
  0
LINE
  5
901
330
2
100
AcDbEntity
  8
P-0000
  6
Continuous
 62
     7
100
AcDbLine
 10
74.63574962554115
 20
153.1506346972344
 30
0.0
 11
74.63574962554115
 21
145.6506346972344
 31
0.0
  0
ARC
  5
902
330
2
100
AcDbEntity
  8
P-0000
  6
Continuous
 62
     7
100
AcDbCircle
 10
120.5957496255411
 20
153.1506346972344
 30
0.0
 40
0.5
100
AcDbArc
 50
0.0
 51
90.0
  0
ARC
  5
903
330
2
100
AcDbEntity
  8
P-0000
  6
Continuous
 62
     7
100
AcDbCircle
 10
131.0957496255412
 20
153.1506346972344
 30
0.0
 40
0.5
100
AcDbArc
 50
90.0
 51
180.0
  0
LINE
  5
904
330
2
100
AcDbEntity
  8
P-0000
  6
Continuous
 62
     1
420
 16711680
100
AcDbLine
 10
129.5957496255411
 20
153.1506346972344
 30
0.0
 11
129.5957496255411
 21
143.6506346972344
 31
0.0
  0
LINE
  5
905
330
2
100
AcDbEntity
  8
P-0000
  6
Continuous
 62
     1
420
 16711680
100
AcDbLine
 10
122.0957496255411
 20
153.1506346972344
 30
0.0
 11
122.0957496255411
 21
143.6506346972344
 31
0.0
  0
LINE
  5
906
330
2
100
AcDbEntity
  8
P-0000
  6
Continuous
 62
     1
420
 16711680
100
AcDbLine
 10
83.13574962554113
 20
153.1506346972344
 30
0.0
 11
83.13574962554113
 21
143.6506346972344
 31
0.0
  0
LINE
  5
907
330
2
100
AcDbEntity
  8
P-0000
  6
Continuous
 62
     1
420
 16711680
100
AcDbLine
 10
75.63574962554115
 20
153.1506346972344
 30
0.0
 11
75.63574962554115
 21
143.6506346972344
 31
0.0
  0
ARC
  5
908
330
2
100
AcDbEntity
  8
P-0000
  6
Continuous
 62
     1
420
 16711680
100
AcDbCircle
 10
82.63574962554114
 20
153.1506346972344
 30
0.0
 40
0.5
100
AcDbArc
 50
0.0
 51
90.0
  0
ARC
  5
909
330
2
100
AcDbEntity
  8
P-0000
  6
Continuous
 62
     1
420
 16711680
100
AcDbCircle
 10
76.13574962554114
 20
153.1506346972344
 30
0.0
 40
0.5
100
AcDbArc
 50
90.0
 51
180.0
  0
ARC
  5
90A
330
2
100
AcDbEntity
  8
P-0000
  6
Continuous
 62
     1
420
 16711680
100
AcDbCircle
 10
129.0957496255411
 20
153.1506346972344
 30
0.0
 40
0.5
100
AcDbArc
 50
0.0
 51
90.0
  0
ARC
  5
90B
330
2
100
AcDbEntity
  8
P-0000
  6
Continuous
 62
     1
420
 16711680
100
AcDbCircle
 10
122.5957496255411
 20
153.1506346972344
 30
0.0
 40
0.5
100
AcDbArc
 50
90.0
 51
180.0
  0
ELLIPSE
  5
90C
330
2
100
AcDbEntity
  8
P-0000
  6
Continuous
 62
     7
100
AcDbEllipse
 10
173.9435372955906
 20
231.1816791114947
 30
0.0
 11
-1.247580528960882
 21
-2.16645859036301
 31
0.0
210
0.0
220
0.0
230
1.0
 40
0.5780931159158108
 41
3.925057108564123
 42
5.495853435359007
  0
LINE
  5
90D
330
2
100
AcDbEntity
  8
P-0000
  6
Continuous
 62
     7
100
AcDbLine
 10
172.175770342624
 20
230.163689827014
 30
0.0
 11
172.175770342624
 21
185.1985979606743
 31
0.0
  0
ELLIPSE
  5
90E
330
2
100
AcDbEntity
  8
P-0000
  6
Continuous
 62
     7
100
AcDbEllipse
 10
173.9435372955906
 20
186.216587245155
 30
0.0
 11
-1.247580528961011
 21
-2.166458590362936
 31
0.0
210
0.0
220
0.0
230
1.0
 40
0.5780931159158108
 41
5.495853435359256
 42
7.066649762154149
  0
LINE
  5
90F
330
2
100
AcDbEntity
  8
P-0000
  6
Continuous
 62
     7
100
AcDbLine
 10
173.9435372955906
 20
184.1727194330486
 30
0.0
 11
177.0093339936039
 21
185.9381943344412
 31
0.0
  0
LINE
  5
910
330
2
100
AcDbEntity
  8
P-0000
  6
Continuous
 62
     7
100
AcDbLine
 10
186.1237633953559
 20
191.1868451532431
 30
0.0
 11
209.8615150475358
 21
204.8565071972302
 31
0.0
  0
LINE
  5
911
330
2
100
AcDbEntity
  8
P-0000
  6
Continuous
 62
     7
100
AcDbLine
 10
214.6021772138232
 20
213.0891326747243
 30
0.0
 11
214.6021772138232
 21
240.5626290053415
 31
0.0
  0
LINE
  5
912
330
2
100
AcDbEntity
  8
P-0000
  6
Continuous
 62
     7
100
AcDbLine
 10
214.6021772138232
 20
251.0723720949087
 30
0.0
 11
214.6021772138232
 21
254.5954326545504
 31
0.0
  0
ELLIPSE
  5
913
330
2
100
AcDbEntity
  8
P-0000
  6
Continuous
 62
     7
100
AcDbEllipse
 10
212.8344102608566
 20
253.5774433700697
 30
0.0
 11
1.247580528961012
 21
2.166458590362935
 31
0.0
210
0.0
220
0.0
230
1.0
 40
0.5780931159158107
 41
5.495853435359256
 42
7.066649762154149
  0
LINE
  5
914
330
2
100
AcDbEntity
  8
P-0000
  6
Continuous
 62
     7
100
AcDbLine
 10
212.8344102608566
 20
255.6213111821761
 30
0.0
 11
173.9435372955906
 21
233.225546923601
 31
0.0
  0
ELLIPSE
  5
915
330
2
100
AcDbEntity
  8
P-0000
  6
Continuous
 62
     4
420
    65535
100
AcDbEllipse
 10
209.8150643051895
 20
248.3477914490991
 30
0.0
 11
-2.619919110818123
 21
-4.549563039762167
 31
0.0
210
0.0
220
0.0
230
1.0
 40
0.5780931159158106
 41
2.701616698798869
 42
6.723161261970502
  0
ELLIPSE
  5
916
330
2
100
AcDbEntity
  8
P-0000
  6
Continuous
 62
     4
420
    65535
100
AcDbEllipse
 10
176.9628832512577
 20
229.4294785863101
 30
0.0
 11
-2.619919110818123
 21
-4.549563039762166
 31
0.0
210
0.0
220
0.0
230
1.0
 40
0.5780931159158107
 41
2.701616698798872
 42
6.723161261970506
  0
ELLIPSE
  5
917
330
2
100
AcDbEntity
  8
P-0000
  6
Continuous
 62
     4
420
    65535
100
AcDbEllipse
 10
176.9628832512577
 20
191.4462391661256
 30
0.0
 11
-2.619919110818124
 21
-4.549563039762167
 31
0.0
210
0.0
220
0.0
230
1.0
 40
0.5780931159158106
 41
2.701616698798872
 42
6.723161261970502
  0
ELLIPSE
  5
918
330
2
100
AcDbEntity
  8
P-0000
  6
Continuous
 62
     4
420
    65535
100
AcDbEllipse
 10
209.8150643051895
 20
210.3645520289147
 30
0.0
 11
-2.619919110818123
 21
-4.549563039762164
 31
0.0
210
0.0
220
0.0
230
1.0
 40
0.5780931159158106
 41
2.701616698798869
 42
6.723161261970501
  0
LINE
  5
919
330
2
100
AcDbEntity
  8
P-0000
  6
Continuous
 62
     4
420
    65535
100
AcDbLine
 10
173.9435372955906
 20
233.225546923601
 30
0.0
 11
173.2364305144042
 21
233.6327426373934
 31
0.0
  0
ELLIPSE
  5
91A
330
2
100
AcDbEntity
  8
P-0000
  6
Continuous
 62
     4
420
    65535
100
AcDbEllipse
 10
173.2364305144042
 20
231.5888748252871
 30
0.0
 11
-1.247580528960882
 21
-2.16645859036301
 31
0.0
210
0.0
220
0.0
230
1.0
 40
0.5780931159158108
 41
3.925057108564123
 42
5.495853435359007
  0
LINE
  5
91B
330
2
100
AcDbEntity
  8
P-0000
  6
Continuous
 62
     4
420
    65535
100
AcDbLine
 10
172.175770342624
 20
230.163689827014
 30
0.0
 11
171.4686635614376
 21
230.5708855408064
 31
0.0
  0
LINE
  5
91C
330
2
100
AcDbEntity
  8
P-0000
  6
Continuous
 62
     4
420
    65535
100
AcDbLine
 10
171.4686635614376
 20
230.5708855408064
 30
0.0
 11
171.4686635614376
 21
185.6057936744667
 31
0.0
  0
LINE
  5
91D
330
2
100
AcDbEntity
  8
P-0000
  6
Continuous
 62
     4
420
    65535
100
AcDbLine
 10
172.175770342624
 20
185.1985979606743
 30
0.0
 11
171.4686635614376
 21
185.6057936744667
 31
0.0
  0
ELLIPSE
  5
91E
330
2
100
AcDbEntity
  8
P-0000
  6
Continuous
 62
     7
100
AcDbEllipse
 10
215.4719185546811
 20
245.09022573876
 30
0.0
 11
-2.37040300502592
 21
-4.116271321689577
 31
0.0
210
0.0
220
0.0
230
1.0
 40
0.5780931159158107
 41
2.963535073649541
 42
6.461242887119826
  0
ELLIPSE
  5
91F
330
2
100
AcDbEntity
  8
P-0000
  6
Continuous
 62
     4
420
    65535
100
AcDbEllipse
 10
210.1686176957827
 20
248.1441935922029
 30
0.0
 11
2.370403005025921
 21
4.116271321689581
 31
0.0
210
0.0
220
0.0
230
1.0
 40
0.5780931159158107
 41
0.0
 42
3.141592653589793
  0
ELLIPSE
  5
920
330
2
100
AcDbEntity
  8
P-0000
  6
Continuous
 62
     7
100
AcDbEllipse
 10
216.886132117054
 20
244.2758343111751
 30
0.0
 11
2.12088689923394
 21
3.682979603616865
 31
0.0
210
0.0
220
0.0
230
1.0
 40
0.5780931159158106
 41
0.0
 42
6.283185307179586
  0
ELLIPSE
  5
921
330
2
100
AcDbEntity
  8
P-0000
  6
Continuous
 62
     7
100
AcDbEllipse
 10
182.6197375007492
 20
226.1719128759709
 30
0.0
 11
-2.37040300502592
 21
-4.116271321689577
 31
0.0
210
0.0
220
0.0
230
1.0
 40
0.5780931159158106
 41
2.963535073649538
 42
6.461242887119826
  0
ELLIPSE
  5
922
330
2
100
AcDbEntity
  8
P-0000
  6
Continuous
 62
     7
100
AcDbEllipse
 10
184.0339510631221
 20
225.3575214483861
 30
0.0
 11
2.12088689923372
 21
3.682979603616994
 31
0.0
210
0.0
220
0.0
230
1.0
 40
0.5780931159158106
 41
0.0
 42
6.283185307179586
  0
ELLIPSE
  5
923
330
2
100
AcDbEntity
  8
P-0000
  6
Continuous
 62
     4
420
    65535
100
AcDbEllipse
 10
177.3164366418509
 20
229.2258807294139
 30
0.0
 11
2.370403005025923
 21
4.116271321689579
 31
0.0
210
0.0
220
0.0
230
1.0
 40
0.5780931159158108
 41
0.0000000000000018
 42
3.141592653589794
  0
LINE
  5
924
330
2
100
AcDbEntity
  8
P-0000
  6
Continuous
 62
     4
420
    65535
100
AcDbLine
 10
212.8344102608566
 20
255.6213111821761
 30
0.0
 11
212.1273034796701
 21
256.0285068959684
 31
0.0
  0
LINE
  5
925
330
2
100
AcDbEntity
  8
P-0000
  6
Continuous
 62
     4
420
    65535
100
AcDbLine
 10
212.1273034796701
 20
256.0285068959684
 30
0.0
 11
173.2364305144042
 21
233.6327426373934
 31
0.0
  0
ELLIPSE
  5
926
330
2
100
AcDbEntity
  8
P-0000
  6
Continuous
 62
     4
420
    65535
100
AcDbEllipse
 10
212.1273034796701
 20
253.9846390838621
 30
0.0
 11
1.247580528961141
 21
2.166458590362857
 31
0.0
210
0.0
220
0.0
230
1.0
 40
0.5780931159158107
 41
0.0000000000004011
 42
0.7834644549749391
  0
ELLIPSE
  5
927
330
2
100
AcDbEntity
  8
P-0000
  6
Continuous
 62
     4
420
    65535
100
AcDbEllipse
 10
173.2364305144042
 20
186.6237829589473
 30
0.0
 11
-1.247580528960989
 21
-2.166458590362897
 31
0.0
210
0.0
220
0.0
230
1.0
 40
0.5780931159158107
 41
5.495853435359249
 42
6.283185307179578
  0
ELLIPSE
  5
928
330
2
100
AcDbEntity
  8
P-0000
  6
Continuous
 62
     4
420
    65535
100
AcDbEllipse
 10
172.882877123811
 20
186.4201851020512
 30
0.0
 11
-2.000000000000047
 21
-0.0000000000000095
 31
0.0
210
0.0
220
0.0
230
1.0
 40
0.5758617009853121
 41
0.0
 42
0.78539816339726
  0
ELLIPSE
  5
929
330
2
100
AcDbEntity
  8
P-0000
  6
Continuous
 62
     4
420
    65535
100
AcDbEllipse
 10
172.8828771238109
 20
231.385276968391
 30
0.0
 11
-2.000000000000047
 21
-0.0000000000000095
 31
0.0
210
0.0
220
0.0
230
1.0
 40
0.5758617009853121
 41
0.0
 42
0.78539816339726
  0
ELLIPSE
  5
92A
330
2
100
AcDbEntity
  8
P-0000
  6
Continuous
 62
     4
420
    65535
100
AcDbEllipse
 10
212.1273034796701
 20
254.3934126462834
 30
0.0
 11
-0.998064423168379
 21
1.733166872290629
 31
0.0
210
0.0
220
0.0
230
1.0
 40
0.578093115915639
 41
5.499720852205171
 42
6.283185307179569
  0
ELLIPSE
  5
92B
330
2
100
AcDbEntity
  8
P-0000
  6
Continuous
 62
     4
420
    65535
100
AcDbEllipse
 10
173.2364305144042
 20
231.9976483877083
 30
0.0
 11
-0.9980644231683736
 21
1.733166872290628
 31
0.0
210
0.0
220
0.0
230
1.0
 40
0.578093115915639
 41
5.499720852205175
 42
6.283185307179586
  0
ELLIPSE
  5
92C
330
2
100
AcDbEntity
  8
P-0000
  6
Continuous
 62
     4
420
    65535
100
AcDbEllipse
 10
177.3164366418509
 20
191.2426413092294
 30
0.0
 11
2.370403005025923
 21
4.116271321689579
 31
0.0
210
0.0
220
0.0
230
1.0
 40
0.5780931159158108
 41
0.0000000000000018
 42
3.141592653589794
  0
ELLIPSE
  5
92D
330
2
100
AcDbEntity
  8
P-0000
  6
Continuous
 62
     7
100
AcDbEllipse
 10
182.6197375007492
 20
188.1886734557865
 30
0.0
 11
-2.370403005025923
 21
-4.11627132168958
 31
0.0
210
0.0
220
0.0
230
1.0
 40
0.5780931159158111
 41
2.963535073649538
 42
6.46124288711983
  0
ELLIPSE
  5
92E
330
2
100
AcDbEntity
  8
P-0000
  6
Continuous
 62
     7
100
AcDbEllipse
 10
184.0339510631221
 20
187.3742820282017
 30
0.0
 11
2.12088689923394
 21
3.682979603616865
 31
0.0
210
0.0
220
0.0
230
1.0
 40
0.5780931159158106
 41
0.0
 42
6.283185307179586
  0
ELLIPSE
  5
92F
330
2
100
AcDbEntity
  8
P-0000
  6
Continuous
 62
     7
100
AcDbEllipse
 10
215.4719185546811
 20
207.1069863185755
 30
0.0
 11
-2.370403005025923
 21
-4.116271321689581
 31
0.0
210
0.0
220
0.0
230
1.0
 40
0.5780931159158108
 41
2.963535073649538
 42
6.461242887119829
  0
ELLIPSE
  5
930
330
2
100
AcDbEntity
  8
P-0000
  6
Continuous
 62
     7
100
AcDbEllipse
 10
216.886132117054
 20
206.2925948909907
 30
0.0
 11
2.12088689923372
 21
3.682979603616994
 31
0.0
210
0.0
220
0.0
230
1.0
 40
0.5780931159158106
 41
0.0
 42
6.283185307179586
  0
ELLIPSE
  5
931
330
2
100
AcDbEntity
  8
P-0000
  6
Continuous
 62
     7
100
AcDbEllipse
 10
216.886132117054
 20
206.2925948909907
 30
0.0
 11
1.871370793441712
 21
3.249687885544292
 31
0.0
210
0.0
220
0.0
230
0.9999999999999998
 40
0.5780931159158105
 41
0.0
 42
6.283185307179586
  0
ELLIPSE
  5
932
330
2
100
AcDbEntity
  8
P-0000
  6
Continuous
 62
     7
100
AcDbEllipse
 10
184.0339510631221
 20
187.3742820282017
 30
0.0
 11
1.871370793441712
 21
3.249687885544292
 31
0.0
210
0.0
220
0.0
230
0.9999999999999998
 40
0.5780931159158105
 41
0.0
 42
6.283185307179586
  0
ELLIPSE
  5
933
330
2
100
AcDbEntity
  8
P-0000
  6
Continuous
 62
     4
420
    65535
100
AcDbEllipse
 10
210.1686176957828
 20
210.1609541720185
 30
0.0
 11
2.370403005025923
 21
4.116271321689579
 31
0.0
210
0.0
220
0.0
230
1.0
 40
0.5780931159158108
 41
0.0000000000000018
 42
3.141592653589794
  0
ELLIPSE
  5
934
330
2
100
AcDbEntity
  8
P-0000
  6
Continuous
 62
     7
100
AcDbEllipse
 10
216.886132117054
 20
244.2758343111751
 30
0.0
 11
1.871370793441712
 21
3.249687885544292
 31
0.0
210
0.0
220
0.0
230
0.9999999999999998
 40
0.5780931159158105
 41
0.0
 42
6.283185307179586
  0
ELLIPSE
  5
935
330
2
100
AcDbEntity
  8
P-0000
  6
Continuous
 62
     7
100
AcDbEllipse
 10
184.0339510631221
 20
225.3575214483861
 30
0.0
 11
1.871370793441712
 21
3.249687885544292
 31
0.0
210
0.0
220
0.0
230
0.9999999999999998
 40
0.5780931159158105
 41
0.0
 42
6.283185307179586
  0
LINE
  5
936
330
2
100
AcDbEntity
  8
P-0000
  6
Continuous
 62
     7
100
AcDbLine
 10
212.5390207008087
 20
252.2604649138925
 30
0.0
 11
217.842321559707
 21
249.2064970604495
 31
0.0
  0
LINE
  5
937
330
2
100
AcDbEntity
  8
P-0000
  6
Continuous
 62
     7
100
AcDbLine
 10
207.7982146907568
 20
244.0279222705133
 30
0.0
 11
213.1015155496552
 21
240.9739544170704
 31
0.0
  0
LINE
  5
938
330
2
100
AcDbEntity
  8
P-0000
  6
Continuous
 62
     7
100
AcDbLine
 10
215.1758805860983
 20
240.4339248044682
 30
0.0
 11
213.5604609612601
 21
240.7963268783227
 31
0.0
  0
LINE
  5
939
330
2
100
AcDbEntity
  8
P-0000
  6
Continuous
 62
     7
100
AcDbLine
 10
219.3505901897472
 20
247.6834251558627
 30
0.0
 11
218.2263128712206
 21
248.898709623999
 31
0.0
  0
LINE
  5
93A
330
2
100
AcDbEntity
  8
P-0000
  6
Continuous
 62
     7
100
AcDbLine
 10
182.3236995321664
 20
221.5156119416791
 30
0.0
 11
180.7082799073281
 21
221.8780140155337
 31
0.0
  0
LINE
  5
93B
330
2
100
AcDbEntity
  8
P-0000
  6
Continuous
 62
     7
100
AcDbLine
 10
186.4984091358154
 20
228.7651122930737
 30
0.0
 11
185.3741318172887
 21
229.98039676121
 31
0.0
  0
LINE
  5
93C
330
2
100
AcDbEntity
  8
P-0000
  6
Continuous
 62
     7
100
AcDbLine
 10
213.3748840086311
 20
256.1510976742251
 30
0.0
 11
214.0819907898176
 21
255.7439019604327
 31
0.0
  0
LINE
  5
93D
330
2
100
AcDbEntity
  8
P-0000
  6
Continuous
 62
     7
100
AcDbLine
 10
171.9888499854432
 20
184.4573243685844
 30
0.0
 11
172.6959567666296
 21
184.0501286547921
 31
0.0
  0
SPLINE
  5
93E
330
2
100
AcDbEntity
  8
P-0000
  6
Continuous
 62
     7
100
AcDbSpline
210
0.0
220
0.0
230
1.0
 70
     8
 71
     3
 72
    16
 73
    12
 74
     0
 42
0.000000001
 43
0.0000000001
 40
3.141592653590211
 40
3.141592653590211
 40
3.141592653590211
 40
3.141592653590211
 40
3.299059027954173
 40
3.299059027954173
 40
3.456525402318136
 40
3.456525402318136
 40
3.613991776682098
 40
3.613991776682098
 40
3.77145815104606
 40
3.77145815104606
 40
3.928924525410022
 40
3.928924525410022
 40
3.928924525410022
 40
3.928924525410022
 10
170.8828771238109
 20
186.4201851020512
 30
0.0
 10
170.8828771238109
 20
186.3079326412241
 30
0.0
 10
170.890378647292
 20
186.1893257692188
 30
0.0
 10
170.9278722990856
 20
185.937901458781
 30
0.0
 10
170.9578841094441
 20
185.804939243888
 30
0.0
 10
171.0513494959563
 20
185.5270506919927
 30
0.0
 10
171.115015884767
 20
185.3819398148571
 30
0.0
 10
171.2873927176735
 20
185.0911766599835
 30
0.0
 10
171.3965535281655
 20
184.9456204608118
 30
0.0
 10
171.6619716806863
 20
184.6774615470687
 30
0.0
 10
171.8183370720606
 20
184.5555162249251
 30
0.0
 10
171.9888499854429
 20
184.4573243685847
 30
0.0
  0
LINE
  5
93F
330
2
100
AcDbEntity
  8
P-0000
  6
Continuous
 62
     7
100
AcDbLine
 10
170.8828771238109
 20
186.4201851020512
 30
0.0
 11
170.8828771238109
 21
231.385276968391
 31
0.0
  0
SPLINE
  5
940
330
2
100
AcDbEntity
  8
P-0000
  6
Continuous
 62
     7
100
AcDbSpline
210
0.0
220
0.0
230
1.0
 70
     8
 71
     3
 72
    16
 73
    12
 74
     0
 42
0.000000001
 43
0.0000000001
 40
0.7873318718199545
 40
0.7873318718199545
 40
0.7873318718199545
 40
0.7873318718199545
 40
0.9440247628153402
 40
0.9440247628153402
 40
1.100717653810725
 40
1.100717653810725
 40
1.257410544806111
 40
1.257410544806111
 40
1.414103435801497
 40
1.414103435801497
 40
1.570796326796883
 40
1.570796326796883
 40
1.570796326796883
 40
1.570796326796883
 10
213.3748840086326
 20
256.1510976742244
 30
0.0
 10
213.205208663926
 20
256.2488072068425
 30
0.0
 10
213.0222203981353
 20
256.3226034733886
 30
0.0
 10
212.6588357260462
 20
256.4176020827261
 30
0.0
 10
212.4789447492471
 20
256.4392156335556
 30
0.0
 10
212.1421713296568
 20
256.4431073573
 30
0.0
 10
211.9851530820462
 20
256.4258159389194
 30
0.0
 10
211.6985189707035
 20
256.3681501783653
 30
0.0
 10
211.5686418770989
 20
256.3278687822172
 30
0.0
 10
211.3326017954624
 20
256.2350582644498
 30
0.0
 10
211.226304483223
 20
256.1824757803127
 30
0.0
 10
211.1292390565016
 20
256.126579518574
 30
0.0
  0
SPLINE
  5
941
330
2
100
AcDbEntity
  8
P-0000
  6
Continuous
 62
     7
100
AcDbSpline
210
0.0
220
0.0
230
1.0
 70
     8
 71
     3
 72
    16
 73
    12
 74
     0
 42
0.000000001
 43
0.0000000001
 40
1.570796326795101
 40
1.570796326795101
 40
1.570796326795101
 40
1.570796326795101
 40
1.884955592153993
 40
1.884955592153993
 40
2.199114857512885
 40
2.199114857512885
 40
2.513274122871778
 40
2.513274122871778
 40
2.82743338823067
 40
2.82743338823067
 40
3.141592653589563
 40
3.141592653589563
 40
3.141592653589563
 40
3.141592653589563
 10
172.2383660912358
 20
233.730815259999
 30
0.0
 10
172.0437560935715
 20
233.6187468157152
 30
0.0
 10
171.8855120961973
 20
233.4939766743309
 30
0.0
 10
171.6115144933486
 20
233.2332599051103
 30
0.0
 10
171.4959701550762
 20
233.0966871346612
 30
0.0
 10
171.2939961686279
 20
232.8107161726549
 30
0.0
 10
171.2077090516958
 20
232.6612490229605
 30
0.0
 10
171.0610915227643
 20
232.3434972377041
 30
0.0
 10
171.0006342599073
 20
232.175300746846
 30
0.0
 10
170.9118461722546
 20
231.8082297468184
 30
0.0
 10
170.8828771238109
 20
231.6092304998708
 30
0.0
 10
170.8828771238109
 20
231.3852769683909
 30
0.0
  0
LINE
  5
942
330
2
100
AcDbEntity
  8
P-0000
  6
Continuous
 62
     7
100
AcDbLine
 10
172.2383660912358
 20
233.730815259999
 30
0.0
 11
211.1292390565017
 21
256.126579518574
 31
0.0
  0
LINE
  5
943
330
2
100
AcDbEntity
  8
P-0000
  6
Continuous
 62
     7
100
AcDbLine
 10
179.6868396468768
 20
195.358912630919
 30
0.0
 11
184.9901405057751
 21
192.304944777476
 31
0.0
  0
LINE
  5
944
330
2
100
AcDbEntity
  8
P-0000
  6
Continuous
 62
     7
100
AcDbLine
 10
174.9460336368249
 20
187.1263699875399
 30
0.0
 11
180.2493344957233
 21
184.0724021340969
 31
0.0
  0
LINE
  5
945
330
2
100
AcDbEntity
  8
P-0000
  6
Continuous
 62
     7
100
AcDbLine
 10
182.3236995321664
 20
183.5323725214947
 30
0.0
 11
180.7082799073281
 21
183.8947745953493
 31
0.0
  0
LINE
  5
946
330
2
100
AcDbEntity
  8
P-0000
  6
Continuous
 62
     7
100
AcDbLine
 10
186.4984091358154
 20
190.7818728728893
 30
0.0
 11
185.3741318172887
 21
191.9971573410256
 31
0.0
  0
LINE
  5
947
330
2
100
AcDbEntity
  8
P-0000
  6
Continuous
 62
     7
100
AcDbLine
 10
215.1758805860983
 20
202.4506853842837
 30
0.0
 11
213.5604609612601
 21
202.8130874581383
 31
0.0
  0
LINE
  5
948
330
2
100
AcDbEntity
  8
P-0000
  6
Continuous
 62
     7
100
AcDbLine
 10
219.3505901897473
 20
209.7001857356783
 30
0.0
 11
218.2263128712206
 21
210.9154702038146
 31
0.0
  0
LINE
  5
949
330
2
100
AcDbEntity
  8
P-0000
  6
Continuous
 62
     7
100
AcDbLine
 10
212.5390207008087
 20
214.2772254937081
 30
0.0
 11
217.842321559707
 21
211.2232576402651
 31
0.0
  0
LINE
  5
94A
330
2
100
AcDbEntity
  8
P-0000
  6
Continuous
 62
     7
100
AcDbLine
 10
207.7982146907568
 20
206.0446828503289
 30
0.0
 11
213.1015155496552
 21
202.990714996886
 31
0.0
  0
LINE
  5
94B
330
2
100
AcDbEntity
  8
P-0000
  6
Continuous
 62
     7
100
AcDbLine
 10
179.6868396468768
 20
233.3421520511035
 30
0.0
 11
184.9901405057751
 21
230.2881841976605
 31
0.0
  0
LINE
  5
94C
330
2
100
AcDbEntity
  8
P-0000
  6
Continuous
 62
     7
100
AcDbLine
 10
174.9460336368249
 20
225.1096094077243
 30
0.0
 11
180.2493344957233
 21
222.0556415542813
 31
0.0
  0
ENDSEC
  0
SECTION
  2
OBJECTS
  0
DICTIONARY
  5
1A
330
0
100
AcDbDictionary
281
     1
  3
ACAD_CIP_PREVIOUS_PRODUCT_INFO
350
A2F
  3
ACAD_COLOR
350
2C5
  3
ACAD_DETAILVIEWSTYLE
350
A25
  3
ACAD_GROUP
350
18
  3
ACAD_LAYOUT
350
45
  3
ACAD_MATERIAL
350
2B0
  3
ACAD_MLEADERSTYLE
350
354
  3
ACAD_MLINESTYLE
350
19
  3
ACAD_PLOTSETTINGS
350
46
  3
ACAD_PLOTSTYLENAME
350
43
  3
ACAD_SCALELIST
350
332
  3
ACAD_SECTIONVIEWSTYLE
350
A23
  3
ACAD_TABLESTYLE
350
2C6
  3
ACAD_VISUALSTYLE
350
2B4
  3
ACDB_RECOMPOSE_DATA
350
B2E
  3
AcDbVariableDictionary
350
2AA
  3
qs_topprt_diz
350
A37
  3
QSCATDICT
350
A34
  3
QsPallStyleDict
350
A36
  3
TopSpotLight
350
A3E
  0
DICTIONARY
  5
300
330
12
100
AcDbDictionary
280
     1
281
     1
  0
DICTIONARY
  5
A50
330
A
100
AcDbDictionary
280
     1
281
     1
  3
ACAD_LAYERSTATES
360
A51
  0
DICTIONARY
  5
37B
330
4
100
AcDbDictionary
280
     1
281
     1
  3
ADSK_XREC_LAYER_RECONCILED
360
A55
  0
DICTIONARY
  5
A56
330
6E7
100
AcDbDictionary
280
     1
281
     1
  3
ADSK_XREC_LAYER_RECONCILED
360
A57
  0
DICTIONARY
  5
A58
330
6E8
100
AcDbDictionary
280
     1
281
     1
  3
ADSK_XREC_LAYER_RECONCILED
360
A59
  0
DICTIONARY
  5
A5A
330
6E9
100
AcDbDictionary
280
     1
281
     1
  3
ADSK_XREC_LAYER_RECONCILED
360
A5B
  0
DICTIONARY
  5
A5C
330
6EA
100
AcDbDictionary
280
     1
281
     1
  3
ADSK_XREC_LAYER_RECONCILED
360
A5D
  0
DICTIONARY
  5
A5E
330
6EB
100
AcDbDictionary
280
     1
281
     1
  3
ADSK_XREC_LAYER_RECONCILED
360
A5F
  0
DICTIONARY
  5
A60
330
6EC
100
AcDbDictionary
280
     1
281
     1
  3
ADSK_XREC_LAYER_RECONCILED
360
A61
  0
DICTIONARY
  5
A62
330
6EF
100
AcDbDictionary
280
     1
281
     1
  3
ADSK_XREC_LAYER_RECONCILED
360
A63
  0
DICTIONARY
  5
A64
330
6F5
100
AcDbDictionary
280
     1
281
     1
  3
ADSK_XREC_LAYER_RECONCILED
360
A65
  0
DICTIONARY
  5
A66
330
701
100
AcDbDictionary
280
     1
281
     1
  3
ADSK_XREC_LAYER_RECONCILED
360
A67
  0
DICTIONARY
  5
A68
330
702
100
AcDbDictionary
280
     1
281
     1
  3
ADSK_XREC_LAYER_RECONCILED
360
A69
  0
DICTIONARY
  5
A6A
330
703
100
AcDbDictionary
280
     1
281
     1
  3
ADSK_XREC_LAYER_RECONCILED
360
A6B
  0
DICTIONARY
  5
A6C
330
705
100
AcDbDictionary
280
     1
281
     1
  3
ADSK_XREC_LAYER_RECONCILED
360
A6D
  0
DICTIONARY
  5
A6E
330
706
100
AcDbDictionary
280
     1
281
     1
  3
ADSK_XREC_LAYER_RECONCILED
360
A6F
  0
DICTIONARY
  5
A70
330
708
100
AcDbDictionary
280
     1
281
     1
  3
ADSK_XREC_LAYER_RECONCILED
360
A71
  0
DICTIONARY
  5
A72
330
A39
100
AcDbDictionary
280
     1
281
     1
  3
ADSK_XREC_LAYER_RECONCILED
360
A73
  0
DICTIONARY
  5
952
330
8A9
100
AcDbDictionary
280
     1
281
     1
  3
ACAD_MLATT
360
B03
  3
ACAD_XREC_ROUNDTRIP
360
B02
  0
DICTIONARY
  5
955
330
8AA
100
AcDbDictionary
280
     1
281
     1
  3
ACAD_MLATT
360
B05
  3
ACAD_XREC_ROUNDTRIP
360
B04
  0
DICTIONARY
  5
958
330
8AC
100
AcDbDictionary
280
     1
281
     1
  3
ACAD_MLATT
360
B07
  3
ACAD_XREC_ROUNDTRIP
360
B06
  0
DICTIONARY
  5
95B
330
8AD
100
AcDbDictionary
280
     1
281
     1
  3
ACAD_MLATT
360
B09
  3
ACAD_XREC_ROUNDTRIP
360
B08
  0
DICTIONARY
  5
95E
330
8AE
100
AcDbDictionary
280
     1
281
     1
  3
ACAD_MLATT
360
B0B
  3
ACAD_XREC_ROUNDTRIP
360
B0A
  0
DICTIONARY
  5
961
330
8B0
100
AcDbDictionary
280
     1
281
     1
  3
ACAD_MLATT
360
B0D
  3
ACAD_XREC_ROUNDTRIP
360
B0C
  0
DICTIONARY
  5
964
330
8B1
100
AcDbDictionary
280
     1
281
     1
  3
ACAD_MLATT
360
B0F
  3
ACAD_XREC_ROUNDTRIP
360
B0E
  0
DICTIONARY
  5
967
330
8B2
100
AcDbDictionary
280
     1
281
     1
  3
ACAD_MLATT
360
B11
  3
ACAD_XREC_ROUNDTRIP
360
B10
  0
DICTIONARY
  5
96A
330
8B3
100
AcDbDictionary
280
     1
281
     1
  3
ACAD_MLATT
360
B13
  3
ACAD_XREC_ROUNDTRIP
360
B12
  0
DICTIONARY
  5
96D
330
8B5
100
AcDbDictionary
280
     1
281
     1
  3
ACAD_MLATT
360
B15
  3
ACAD_XREC_ROUNDTRIP
360
B14
  0
DICTIONARY
  5
970
330
8B6
100
AcDbDictionary
280
     1
281
     1
  3
ACAD_MLATT
360
B17
  3
ACAD_XREC_ROUNDTRIP
360
B16
  0
DICTIONARY
  5
973
330
8B8
100
AcDbDictionary
280
     1
281
     1
  3
ACAD_MLATT
360
B19
  3
ACAD_XREC_ROUNDTRIP
360
B18
  0
DICTIONARY
  5
976
330
8B9
100
AcDbDictionary
280
     1
281
     1
  3
ACAD_MLATT
360
B1B
  3
ACAD_XREC_ROUNDTRIP
360
B1A
  0
DICTIONARY
  5
979
330
8BA
100
AcDbDictionary
280
     1
281
     1
  3
ACAD_MLATT
360
B1D
  3
ACAD_XREC_ROUNDTRIP
360
B1C
  0
DICTIONARY
  5
97C
330
8BB
100
AcDbDictionary
280
     1
281
     1
  3
ACAD_MLATT
360
B1F
  3
ACAD_XREC_ROUNDTRIP
360
B1E
  0
DICTIONARY
  5
97F
330
8BD
100
AcDbDictionary
280
     1
281
     1
  3
ACAD_MLATT
360
B21
  3
ACAD_XREC_ROUNDTRIP
360
B20
  0
DICTIONARY
  5
982
330
8BE
100
AcDbDictionary
280
     1
281
     1
  3
ACAD_MLATT
360
B23
  3
ACAD_XREC_ROUNDTRIP
360
B22
  0
DICTIONARY
  5
985
330
8BF
100
AcDbDictionary
280
     1
281
     1
  3
ACAD_MLATT
360
B25
  3
ACAD_XREC_ROUNDTRIP
360
B24
  0
DICTIONARY
  5
988
330
8C0
100
AcDbDictionary
280
     1
281
     1
  3
ACAD_MLATT
360
B27
  3
ACAD_XREC_ROUNDTRIP
360
B26
  0
XRECORD
  5
A2F
102
{ACAD_REACTORS
330
1A
102
}
330
1A
100
AcDbXrecord
280
     1
300
AMECH_PP
300
2014
300
PDSS_F_S
  0
DICTIONARY
  5
2C5
102
{ACAD_REACTORS
330
1A
102
}
330
1A
100
AcDbDictionary
281
     1
  0
DICTIONARY
  5
A25
102
{ACAD_REACTORS
330
1A
102
}
330
1A
100
AcDbDictionary
281
     1
  3
Metric50
350
A26
  0
DICTIONARY
  5
18
102
{ACAD_REACTORS
330
1A
102
}
330
1A
100
AcDbDictionary
281
     1
  0
DICTIONARY
  5
45
102
{ACAD_REACTORS
330
1A
102
}
330
1A
100
AcDbDictionary
281
     1
  3
Layout1
350
48
  3
Model
350
47
  0
DICTIONARY
  5
2B0
102
{ACAD_REACTORS
330
1A
102
}
330
1A
100
AcDbDictionary
281
     1
  3
ByBlock
350
2B2
  3
ByLayer
350
2B1
  3
Global
350
2B3
  0
DICTIONARY
  5
354
102
{ACAD_REACTORS
330
1A
102
}
330
1A
100
AcDbDictionary
281
     1
  3
QS_LEADER
350
A4F
  3
Standard
350
355
  0
DICTIONARY
  5
19
102
{ACAD_REACTORS
330
1A
102
}
330
1A
100
AcDbDictionary
281
     1
  3
STANDARD
350
1C
  0
DICTIONARY
  5
46
102
{ACAD_REACTORS
330
1A
102
}
330
1A
100
AcDbDictionary
281
     1
  3
HP 5200 A3
350
A43
  3
HP 5200 A4
350
A44
  3
LASER MACAP A3
350
A45
  3
LASER MACAP A4
350
A46
  3
Olivetti_200 A3
350
A47
  3
Olivetti_200 A4
350
A48
  3
PLOTTER
350
A49
  3
PLOTTER MACAP
350
A4A
  0
ACDBDICTIONARYWDFLT
  5
43
102
{ACAD_REACTORS
330
1A
102
}
330
1A
100
AcDbDictionary
281
     1
  3
Normal
350
44
100
AcDbDictionaryWithDefault
340
44
  0
DICTIONARY
  5
332
102
{ACAD_REACTORS
330
1A
102
}
330
1A
100
AcDbDictionary
281
     1
  3
A0
350
333
  3
A1
350
334
  3
A2
350
335
  3
A3
350
336
  3
A4
350
337
  3
A5
350
338
  3
A6
350
339
  3
A7
350
33A
  3
A8
350
33B
  3
A9
350
33C
  3
B0
350
33D
  3
B1
350
33E
  3
B2
350
33F
  3
B3
350
340
  3
B4
350
341
  3
B5
350
342
  3
B6
350
343
  3
B7
350
344
  3
B8
350
345
  3
B9
350
346
  3
C0
350
347
  3
C1
350
348
  3
C2
350
349
  3
C3
350
34A
  3
C4
350
34B
  3
C5
350
34C
  3
C6
350
34D
  3
C7
350
34E
  3
C8
350
34F
  3
C9
350
350
  3
D0
350
351
  3
D1
350
352
  3
D2
350
353
  0
DICTIONARY
  5
A23
102
{ACAD_REACTORS
330
1A
102
}
330
1A
100
AcDbDictionary
281
     1
  3
Metric50
350
A24
  0
DICTIONARY
  5
2C6
102
{ACAD_REACTORS
330
1A
102
}
330
1A
100
AcDbDictionary
281
     1
  3
QSTABFORI
350
31A
  3
QSTABPALL
350
A4B
  3
QSTABREGION
350
2CC
  3
QSTABREV
350
A4D
  3
Standard
350
2C7
  0
DICTIONARY
  5
2B4
102
{ACAD_REACTORS
330
1A
102
}
330
1A
100
AcDbDictionary
281
     1
  3
2dWireframe
350
2BA
  3
3D Hidden
350
2BC
  3
3dWireframe
350
2BB
  3
Basic
350
2B9
  3
Brighten
350
2C0
  3
ColorChange
350
2C4
  3
Conceptual
350
2BD
  3
Dim
350
2BF
  3
EdgeColorOff
350
6E4
  3
Facepattern
350
2C3
  3
Flat
350
2B5
  3
FlatWithEdges
350
2B6
  3
Gouraud
350
2B7
  3
GouraudWithEdges
350
2B8
  3
Hidden
350
A1D
  3
JitterOff
350
6E2
  3
Linepattern
350
2C2
  3
OverhangOff
350
6E3
  3
Realistic
350
2BE
  3
Shaded
350
A22
  3
Shaded with edges
350
A21
  3
Shades of Gray
350
A1E
  3
Sketchy
350
A1F
  3
Thicken
350
2C1
  3
Wireframe
350
A1C
  3
X-Ray
350
A20
  0
XRECORD
  5
B2E
102
{ACAD_REACTORS
330
1A
102
}
330
1A
100
AcDbXrecord
280
     1
 90
        1
330
2C7
330
2CC
330
31A
330
8A9
330
8AA
330
8AC
330
8AD
330
8AE
330
8B0
330
8B1
330
8B2
330
8B3
330
8B5
330
8B6
330
8B8
330
8B9
330
8BA
330
8BB
330
8BD
330
8BE
330
8BF
330
8C0
330
A24
330
A26
330
A4B
330
A4D
  0
DICTIONARY
  5
2AA
102
{ACAD_REACTORS
330
1A
102
}
330
1A
100
AcDbDictionary
281
     1
  3
CANNOSCALE
350
36B
  3
CMLEADERSTYLE
350
369
  3
CTABLESTYLE
350
312
  3
CVIEWDETAILSTYLE
350
A74
  3
CVIEWSECTIONSTYLE
350
A75
  3
DIMASSOC
350
2AB
  3
DRAWORDERCTL
350
A76
  3
INDEXCTL
350
314
  3
LAYEREVAL
350
A77
  3
LAYERNOTIFY
350
A78
  3
LIGHTINGUNITS
350
36C
  3
MSLTSCALE
350
36A
  3
SORTENTS
350
313
  0
DICTIONARY
  5
A37
102
{ACAD_REACTORS
330
1A
102
}
330
1A
100
AcDbDictionary
281
     1
  3
UCNT
350
A38
  0
DICTIONARY
  5
A34
102
{ACAD_REACTORS
330
1A
102
}
330
1A
100
AcDbDictionary
281
     1
  3
DEFAULT
350
A35
  0
DICTIONARY
  5
A36
102
{ACAD_REACTORS
330
1A
102
}
330
1A
100
AcDbDictionary
281
     1
  3
DEFAULT
350
A3B
  0
DICTIONARY
  5
A3E
102
{ACAD_REACTORS
330
1A
102
}
330
1A
100
AcDbDictionary
281
     1
  3
colors
350
A3F
  0
DICTIONARY
  5
A51
102
{ACAD_REACTORS
330
A50
102
}
330
A50
100
AcDbDictionary
281
     1
  0
XRECORD
  5
A55
102
{ACAD_REACTORS
330
37B
102
}
330
37B
100
AcDbXrecord
280
     1
290
     1
  0
XRECORD
  5
A57
102
{ACAD_REACTORS
330
A56
102
}
330
A56
100
AcDbXrecord
280
     1
290
     1
  0
XRECORD
  5
A59
102
{ACAD_REACTORS
330
A58
102
}
330
A58
100
AcDbXrecord
280
     1
290
     1
  0
XRECORD
  5
A5B
102
{ACAD_REACTORS
330
A5A
102
}
330
A5A
100
AcDbXrecord
280
     1
290
     1
  0
XRECORD
  5
A5D
102
{ACAD_REACTORS
330
A5C
102
}
330
A5C
100
AcDbXrecord
280
     1
290
     1
  0
XRECORD
  5
A5F
102
{ACAD_REACTORS
330
A5E
102
}
330
A5E
100
AcDbXrecord
280
     1
290
     1
  0
XRECORD
  5
A61
102
{ACAD_REACTORS
330
A60
102
}
330
A60
100
AcDbXrecord
280
     1
290
     1
  0
XRECORD
  5
A63
102
{ACAD_REACTORS
330
A62
102
}
330
A62
100
AcDbXrecord
280
     1
290
     1
  0
XRECORD
  5
A65
102
{ACAD_REACTORS
330
A64
102
}
330
A64
100
AcDbXrecord
280
     1
290
     1
  0
XRECORD
  5
A67
102
{ACAD_REACTORS
330
A66
102
}
330
A66
100
AcDbXrecord
280
     1
290
     1
  0
XRECORD
  5
A69
102
{ACAD_REACTORS
330
A68
102
}
330
A68
100
AcDbXrecord
280
     1
290
     1
  0
XRECORD
  5
A6B
102
{ACAD_REACTORS
330
A6A
102
}
330
A6A
100
AcDbXrecord
280
     1
290
     1
  0
XRECORD
  5
A6D
102
{ACAD_REACTORS
330
A6C
102
}
330
A6C
100
AcDbXrecord
280
     1
290
     1
  0
XRECORD
  5
A6F
102
{ACAD_REACTORS
330
A6E
102
}
330
A6E
100
AcDbXrecord
280
     1
290
     1
  0
XRECORD
  5
A71
102
{ACAD_REACTORS
330
A70
102
}
330
A70
100
AcDbXrecord
280
     1
290
     1
  0
XRECORD
  5
A73
102
{ACAD_REACTORS
330
A72
102
}
330
A72
100
AcDbXrecord
280
     1
290
     1
  0
XRECORD
  5
B03
102
{ACAD_REACTORS
330
952
102
}
330
952
100
AcDbXrecord
280
     1
 70
     4
 70
     0
 70
     0
 40
1.0
  2
DESCRIZIONE
  1
Embedded Object
 10
28.74010102232296
 20
65.0
 30
0.0
 40
2.491525560617446
 41
0.0
 46
0.0
 71
     4
 72
     5
  1

  7
Stile testo102
 73
     1
 44
1.0
  0
XRECORD
  5
B02
102
{ACAD_REACTORS
330
952
102
}
330
952
100
AcDbXrecord
280
     1
102
ACAD_MATT_HEIGHT
140
2.491525560617446
  0
XRECORD
  5
B05
102
{ACAD_REACTORS
330
955
102
}
330
955
100
AcDbXrecord
280
     1
 70
     4
 70
     0
 70
     0
 40
1.0
  2
COMMESSA
  1
Embedded Object
 10
94.81214291417655
 20
42.5
 30
0.0
 40
2.491525560617446
 41
0.0
 46
0.0
 71
     4
 72
     5
  1

  7
Stile testo102
 73
     1
 44
1.0
  0
XRECORD
  5
B04
102
{ACAD_REACTORS
330
955
102
}
330
955
100
AcDbXrecord
280
     1
102
ACAD_MATT_HEIGHT
140
2.491525560617446
  0
XRECORD
  5
B07
102
{ACAD_REACTORS
330
958
102
}
330
958
100
AcDbXrecord
280
     1
 70
     4
 70
     0
 70
     0
 40
1.0
  2
DISEGNATORE
  1
Embedded Object
 10
147.7682984236189
 20
58.75000000000011
 30
0.0
 40
2.000000029802322
 41
0.0
 46
0.0
 71
     4
 72
     5
  1

  7
Stile testo71
 73
     1
 44
1.0
  0
XRECORD
  5
B06
102
{ACAD_REACTORS
330
958
102
}
330
958
100
AcDbXrecord
280
     1
102
ACAD_MATT_HEIGHT
140
2.000000029802322
  0
XRECORD
  5
B09
102
{ACAD_REACTORS
330
95B
102
}
330
95B
100
AcDbXrecord
280
     1
 70
     4
 70
     0
 70
     0
 40
1.0
  2
DESCRIZIONE2
  1
Embedded Object
 10
28.74010102232296
 20
60.0
 30
0.0
 40
2.491525560617446
 41
0.0
 46
0.0
 71
     4
 72
     5
  1

  7
Stile testo102
 73
     1
 44
1.0
  0
XRECORD
  5
B08
102
{ACAD_REACTORS
330
95B
102
}
330
95B
100
AcDbXrecord
280
     1
102
ACAD_MATT_HEIGHT
140
2.491525560617446
  0
XRECORD
  5
B0B
102
{ACAD_REACTORS
330
95E
102
}
330
95E
100
AcDbXrecord
280
     1
 70
     4
 70
     0
 70
     0
 40
1.0
  2
DESCRIZIONE3
  1
Embedded Object
 10
28.74010102232296
 20
55.0
 30
0.0
 40
2.491525560617446
 41
0.0
 46
0.0
 71
     4
 72
     5
  1

  7
Stile testo102
 73
     1
 44
1.0
  0
XRECORD
  5
B0A
102
{ACAD_REACTORS
330
95E
102
}
330
95E
100
AcDbXrecord
280
     1
102
ACAD_MATT_HEIGHT
140
2.491525560617446
  0
XRECORD
  5
B0D
102
{ACAD_REACTORS
330
961
102
}
330
961
100
AcDbXrecord
280
     1
 70
     4
 70
     0
 70
     0
 40
1.0
  2
DATA
  1
Embedded Object
 10
147.7682984236189
 20
66.25000000000011
 30
0.0
 40
3.499999940395355
 41
0.0
 46
0.0
 71
     4
 72
     5
  1

  7
Stile testo75
 73
     1
 44
1.0
  0
XRECORD
  5
B0C
102
{ACAD_REACTORS
330
961
102
}
330
961
100
AcDbXrecord
280
     1
102
ACAD_MATT_HEIGHT
140
3.499999940395355
  0
XRECORD
  5
B0F
102
{ACAD_REACTORS
330
964
102
}
330
964
100
AcDbXrecord
280
     1
 70
     4
 70
     0
 70
     0
 40
1.0
  2
SCALA
  1
Embedded Object
 10
183.5475921256211
 20
66.28532804482768
 30
0.0
 40
3.499999940395355
 41
0.0
 46
0.0
 71
     4
 72
     5
  1
1:1
  7
Stile testo75
 73
     1
 44
1.0
  0
XRECORD
  5
B0E
102
{ACAD_REACTORS
330
964
102
}
330
964
100
AcDbXrecord
280
     1
102
ACAD_MATT_HEIGHT
140
3.499999940395355
  0
XRECORD
  5
B11
102
{ACAD_REACTORS
330
967
102
}
330
967
100
AcDbXrecord
280
     1
 70
     4
 70
     0
 70
     0
 40
1.0
  2
QTA
  1
Embedded Object
 10
184.1532157512365
 20
58.75000000000011
 30
0.0
 40
3.499999940395355
 41
0.0
 46
0.0
 71
     4
 72
     5
  1

  7
Stile testo75
 73
     1
 44
1.0
  0
XRECORD
  5
B10
102
{ACAD_REACTORS
330
967
102
}
330
967
100
AcDbXrecord
280
     1
102
ACAD_MATT_HEIGHT
140
3.499999940395355
  0
XRECORD
  5
B13
102
{ACAD_REACTORS
330
96A
102
}
330
96A
100
AcDbXrecord
280
     1
 70
     4
 70
     0
 70
     0
 40
1.0
  2
RIF_ORDINE
  1
Embedded Object
 10
156.6477659240454
 20
51.25000000000011
 30
0.0
 40
2.491525560617446
 41
0.0
 46
0.0
 71
     4
 72
     5
  1

  7
Stile testo102
 73
     1
 44
1.0
  0
XRECORD
  5
B12
102
{ACAD_REACTORS
330
96A
102
}
330
96A
100
AcDbXrecord
280
     1
102
ACAD_MATT_HEIGHT
140
2.491525560617446
  0
XRECORD
  5
B15
102
{ACAD_REACTORS
330
96D
102
}
330
96D
100
AcDbXrecord
280
     1
 70
     4
 70
     0
 70
     0
 40
1.0
  2
CODICE
  1
Embedded Object
 10
155.290076571523
 20
40.62500000000011
 30
0.0
 40
4.49999988079071
 41
0.0
 46
0.0
 71
     4
 72
     5
  1

  7
Stile testo78
 73
     1
 44
1.0
  0
XRECORD
  5
B14
102
{ACAD_REACTORS
330
96D
102
}
330
96D
100
AcDbXrecord
280
     1
102
ACAD_MATT_HEIGHT
140
4.49999988079071
  0
XRECORD
  5
B17
102
{ACAD_REACTORS
330
970
102
}
330
970
100
AcDbXrecord
280
     1
 70
     4
 70
     0
 70
     0
 40
1.0
  2
COD_CLIENTE
  1
Embedded Object
 10
94.8016206352022
 20
47.5
 30
0.0
 40
2.491525560617446
 41
0.0
 46
0.0
 71
     4
 72
     5
  1

  7
Stile testo102
 73
     1
 44
1.0
  0
XRECORD
  5
B16
102
{ACAD_REACTORS
330
970
102
}
330
970
100
AcDbXrecord
280
     1
102
ACAD_MATT_HEIGHT
140
2.491525560617446
  0
XRECORD
  5
B19
102
{ACAD_REACTORS
330
973
102
}
330
973
100
AcDbXrecord
280
     1
 70
     4
 70
     0
 70
     0
 40
1.0
  2
CLIENTE
  1
Embedded Object
 10
17.76035154006968
 20
45.0
 30
0.0
 40
3.991525471210479
 41
0.0
 46
0.0
 71
     4
 72
     5
  1

  7
Stile testo103
 73
     1
 44
1.0
  0
XRECORD
  5
B18
102
{ACAD_REACTORS
330
973
102
}
330
973
100
AcDbXrecord
280
     1
102
ACAD_MATT_HEIGHT
140
3.991525471210479
  0
XRECORD
  5
B1B
102
{ACAD_REACTORS
330
976
102
}
330
976
100
AcDbXrecord
280
     1
 70
     4
 70
     0
 70
     0
 40
1.0
  2
MATERIALE
  1
Embedded Object
 10
37.04547401447201
 20
73.75
 30
0.0
 40
2.491525560617446
 41
0.0
 46
0.0
 71
     4
 72
     5
  1

  7
Stile testo102
 73
     1
 44
1.0
  0
XRECORD
  5
B1A
102
{ACAD_REACTORS
330
976
102
}
330
976
100
AcDbXrecord
280
     1
102
ACAD_MATT_HEIGHT
140
2.491525560617446
  0
XRECORD
  5
B1D
102
{ACAD_REACTORS
330
979
102
}
330
979
100
AcDbXrecord
280
     1
 70
     4
 70
     0
 70
     0
 40
1.0
  2
TRATTAMENTI
  1
Embedded Object
 10
140.5628059283587
 20
73.75
 30
0.0
 40
2.491525560617446
 41
0.0
 46
0.0
 71
     4
 72
     5
  1

  7
Stile testo102
 73
     1
 44
1.0
  0
XRECORD
  5
B1C
102
{ACAD_REACTORS
330
979
102
}
330
979
100
AcDbXrecord
280
     1
102
ACAD_MATT_HEIGHT
140
2.491525560617446
  0
XRECORD
  5
B1F
102
{ACAD_REACTORS
330
97C
102
}
330
97C
100
AcDbXrecord
280
     1
 70
     4
 70
     0
 70
     0
 40
1.0
  2
MOD_REV
  1
Embedded Object
 10
21.57933346514306
 20
83.78966672746249
 30
0.0
 40
2.491525560617446
 41
0.0
 46
0.0
 71
     4
 72
     5
  1

  7
Stile testo102
 73
     1
 44
1.0
  0
XRECORD
  5
B1E
102
{ACAD_REACTORS
330
97C
102
}
330
97C
100
AcDbXrecord
280
     1
102
ACAD_MATT_HEIGHT
140
2.491525560617446
  0
XRECORD
  5
B21
102
{ACAD_REACTORS
330
97F
102
}
330
97F
100
AcDbXrecord
280
     1
 70
     4
 70
     0
 70
     0
 40
1.0
  2
REV
  1
Embedded Object
 10
12.35400178234428
 20
84.02164077493692
 30
0.0
 40
2.5
 41
12.26933361020275
 46
0.0
 71
     5
 72
     5
  1

  7
Stile testo68
 73
     1
 44
1.0
  0
XRECORD
  5
B20
102
{ACAD_REACTORS
330
97F
102
}
330
97F
100
AcDbXrecord
280
     1
102
ACAD_MATT_HEIGHT
140
2.5
  0
XRECORD
  5
B23
102
{ACAD_REACTORS
330
982
102
}
330
982
100
AcDbXrecord
280
     1
 70
     4
 70
     0
 70
     0
 40
1.0
  2
DATA_REV
  1
Embedded Object
 10
177.2480015623884
 20
83.48340239945997
 30
0.0
 40
2.491525560617446
 41
0.0
 46
0.0
 71
     5
 72
     5
  1

  7
Stile testo102
 73
     1
 44
1.0
  0
XRECORD
  5
B22
102
{ACAD_REACTORS
330
982
102
}
330
982
100
AcDbXrecord
280
     1
102
ACAD_MATT_HEIGHT
140
2.491525560617446
  0
XRECORD
  5
B25
102
{ACAD_REACTORS
330
985
102
}
330
985
100
AcDbXrecord
280
     1
 70
     4
 70
     0
 70
     0
 40
1.0
  2
DISEGN_REV
  1
Embedded Object
 10
194.9481281634527
 20
83.71630904727314
 30
0.0
 40
2.491525560617446
 41
0.0
 46
0.0
 71
     5
 72
     5
  1

  7
Stile testo102
 73
     1
 44
1.0
  0
XRECORD
  5
B24
102
{ACAD_REACTORS
330
985
102
}
330
985
100
AcDbXrecord
280
     1
102
ACAD_MATT_HEIGHT
140
2.491525560617446
  0
XRECORD
  5
B27
102
{ACAD_REACTORS
330
988
102
}
330
988
100
AcDbXrecord
280
     1
 70
     4
 70
     0
 70
     0
 40
1.0
  2
Dimensioni_foglio
  1
Embedded Object
 10
206.8025410607465
 20
2.748273112164461
 30
0.0
 40
2.000000029802322
 41
0.0
 46
0.0
 71
     5
 72
     5
  1
A4
  7
Stile testo71
 73
     1
 44
1.0
  0
XRECORD
  5
B26
102
{ACAD_REACTORS
330
988
102
}
330
988
100
AcDbXrecord
280
     1
102
ACAD_MATT_HEIGHT
140
2.000000029802322
  0
ACDBDETAILVIEWSTYLE
  5
A26
102
{ACAD_XDICTIONARY
360
B2A
102
}
102
{ACAD_REACTORS
330
A25
102
}
330
A25
100
AcDbModelDocViewStyle
 70
     0
  3
Metric50
290
     0
100
AcDbDetailViewStyle
 70
     0
 71
     0
 90
        3
 71
     1
340
C
 62
   256
 40
5.0
340
0
 62
   256
 40
5.0
300

 40
0.0
280
     1
 71
     2
340
5
 90
       25
 62
   256
 71
     3
340
C
 62
   256
 40
5.0
 90
        0
 40
15.0
 90
        1
300
%<\AcVar ViewDetailId>% (%<\AcVar ViewScale \f "%sn">%)
 71
     4
340
5
 90
       25
 62
   256
340
5
 90
       25
 62
   256
280
     0
  0
LAYOUT
  5
48
102
{ACAD_REACTORS
330
45
102
}
330
45
100
AcDbPlotSettings
  1

  2
RICOH Aficio 270 PCL 6 A4
  4

  6

 40
0.0
 41
0.0
 42
0.0
 43
0.0
 44
0.0
 45
0.0
 46
0.0
 47
0.0
 48
0.0
 49
0.0
140
0.0
141
0.0
142
1.0
143
1.0
 70
   688
 72
     0
 73
     0
 74
     5
  7
DIERRE BN.ctb
 75
    16
147
1.0
 76
     0
 77
     2
 78
   300
148
0.0
149
0.0
100
AcDbLayout
  1
Layout1
 70
     1
 71
     1
 10
0.0
 20
0.0
 11
210.0
 21
297.0
 12
0.0
 22
0.0
 32
0.0
 14
0.0
 24
0.0
 34
0.0
 15
210.0
 25
297.0
 35
0.0
146
0.0
 13
0.0
 23
0.0
 33
0.0
 16
1.0
 26
0.0
 36
0.0
 17
0.0
 27
1.0
 37
0.0
 76
     0
330
7
  0
LAYOUT
  5
47
102
{ACAD_REACTORS
330
45
102
}
330
45
100
AcDbPlotSettings
  1
Olivetti_200 A4
  2
Olivetti_200.pc3
  4
A4
  6

 40
4.984749794006347
 41
5.154074668884277
 42
5.111740112304687
 43
4.9847412109375
 44
210.0156707763672
 45
297.0106506347656
 46
51.67548120477697
 47
0.0
 48
0.0
 49
0.0
140
0.0
141
0.0
142
1.0
143
0.4718508448115938
 70
 11956
 72
     1
 73
     0
 74
     1
  7
DIERRE BN.ctb
 75
     0
147
2.119313785268927
 76
     0
 77
     2
 78
   300
148
-222.4649060220283
149
-239.0808115236937
100
AcDbLayout
  1
Model
 70
     1
 71
     0
 10
0.0
 20
0.0
 11
12.0
 21
9.0
 12
0.0
 22
0.0
 32
0.0
 14
0.0
 24
0.0
 34
0.0
 15
0.0
 25
0.0
 35
0.0
146
0.0
 13
0.0
 23
0.0
 33
0.0
 16
1.0
 26
0.0
 36
0.0
 17
0.0
 27
1.0
 37
0.0
 76
     0
330
2
331
2AE
1001
ACAD_PSEXT
1000
Olivetti_200.pc3
1000
Olivetti d-Copia 200MF KX
1000
IP_192.168.1.151
1000

1070
     0
  0
MATERIAL
  5
2B2
102
{ACAD_REACTORS
330
2B0
102
}
330
2B0
100
AcDbMaterial
  1
ByBlock
 73
     1
 78
     1
172
     1
176
     1
270
     1
274
     1
 94
       63
  0
MATERIAL
  5
2B1
102
{ACAD_REACTORS
330
2B0
102
}
330
2B0
100
AcDbMaterial
  1
ByLayer
 73
     1
 78
     1
172
     1
176
     1
270
     1
274
     1
 94
       63
  0
MATERIAL
  5
2B3
102
{ACAD_REACTORS
330
2B0
102
}
330
2B0
100
AcDbMaterial
  1
Global
 73
     1
 78
     1
172
     1
176
     1
270
     1
274
     1
 94
       63
  0
MLEADERSTYLE
  5
A4F
102
{ACAD_REACTORS
330
354
102
}
330
354
100
AcDbMLeaderStyle
179
     2
170
     2
171
     1
172
     0
 90
        3
 40
0.0
 41
0.0
173
     1
 91
-1023410174
340
5
 92
       -2
290
     1
 42
1.5
291
     1
 43
2.0
  3
Standard
 44
3.5
300

342
35C
174
     5
178
     5
175
     1
176
     0
 93
-1023410175
 45
3.5
292
     0
297
     0
 46
4.0
 94
-1056964608
 47
1.0
 49
1.0
140
1.0
293
     1
141
0.0
294
     1
177
     0
142
1.0
295
     0
296
     0
143
1.0
271
     0
272
     9
273
     9
298
     0
  0
MLEADERSTYLE
  5
355
102
{ACAD_REACTORS
330
354
102
}
330
354
100
AcDbMLeaderStyle
179
     2
170
     2
171
     1
172
     0
 90
        2
 40
0.0
 41
0.0
173
     1
 91
-1056964608
340
E
 92
       -2
290
     1
 42
2.0
291
     1
 43
0.36
  3
Standard
 44
4.0
300

342
C
174
     1
178
     6
175
     1
176
     0
 93
-1056964608
 45
4.0
292
     0
297
     0
 46
4.0
 94
-1056964608
 47
1.0
 49
1.0
140
1.0
293
     1
141
0.0
294
     1
177
     0
142
1.0
295
     0
296
     0
143
0.125
271
     0
272
     9
273
     9
298
     0
  0
MLINESTYLE
  5
1C
102
{ACAD_REACTORS
330
19
102
}
330
19
100
AcDbMlineStyle
  2
STANDARD
 70
     0
  3

 62
     0
 51
90.0
 52
90.0
 71
     2
 49
0.5
 62
   256
  6
BYLAYER
 49
-0.5
 62
   256
  6
BYLAYER
  0
PLOTSETTINGS
  5
A43
102
{ACAD_REACTORS
330
46
102
}
330
46
100
AcDbPlotSettings
  1
HP 5200 A3
  2
HP LaserJet 5200 PCL 6.pc3
  4
A3
  6

 40
6.011333465576171
 41
4.233311176300048
 42
6.0113525390625
 43
4.23333740234375
 44
296.9683227539062
 45
419.9889831542968
 46
0.8490915718880103
 47
0.0
 48
0.0
 49
0.0
140
0.0
141
0.0
142
1.0
143
0.5049198555318521
 70
 11956
 72
     1
 73
     1
 74
     1
  7
DIERRE BN.ctb
 75
     0
147
1.980512330905784
 76
     0
 77
     2
 78
   300
148
-26.56781961135493
149
-854.2304114103949
1001
ACAD_PSEXT
1000
HP LaserJet 5200 PCL 6.pc3
1000
HP LaserJet 5200 PCL 6
1000
USB001
1000

1070
     0
  0
PLOTSETTINGS
  5
A44
102
{ACAD_REACTORS
330
46
102
}
330
46
100
AcDbPlotSettings
  1
HP 5200 A4
  2
HP LaserJet 5200 PCL 6.pc3
  4
A4
  6

 40
4.233333110809326
 41
5.757328510284423
 42
4.233322143554687
 43
4.23333740234375
 44
209.9733276367187
 45
296.9683227539062
 46
0.0
 47
74.14113202443619
 48
0.0
 49
0.0
140
0.0
141
0.0
142
1.0
143
1.031160880508214
 70
 11956
 72
     1
 73
     0
 74
     1
  7
DIERRE BN.ctb
 75
     0
147
0.9697807770860579
 76
     0
 77
     2
 78
   300
148
-26.56781961135493
149
-854.2304114103949
1001
ACAD_PSEXT
1000
HP LaserJet 5200 PCL 6.pc3
1000
HP LaserJet 5200 PCL 6
1000
USB001
1000

1070
     0
  0
PLOTSETTINGS
  5
A45
102
{ACAD_REACTORS
330
46
102
}
330
46
100
AcDbPlotSettings
  1
LASER MACAP A3
  2
LASER A3-A4.pc3
  4
A3
  6

 40
6.011333465576171
 41
4.233311176300048
 42
6.0113525390625
 43
4.23333740234375
 44
296.9683227539062
 45
419.9889831542968
 46
0.0
 47
58.94753607902547
 48
0.0
 49
0.0
140
0.0
141
0.0
142
1.0
143
2.529068101288332
 70
 11956
 72
     1
 73
     1
 74
     1
  7
DIERRE BN.ctb
 75
     0
147
0.3954025593421505
 76
     0
 77
     2
 78
   300
148
2124.722435913432
149
-1096.700850755539
1001
ACAD_PSEXT
1000
LASER A3-A4.pc3
1000
HP LaserJet 5200 PCL 5e
1000
IP_192.168.0.59
1000

1070
     0
  0
PLOTSETTINGS
  5
A46
102
{ACAD_REACTORS
330
46
102
}
330
46
100
AcDbPlotSettings
  1
LASER MACAP A4
  2
LASER A3-A4.pc3
  4
A4
  6

 40
6.011333465576171
 41
4.233341693878173
 42
6.011322021484375
 43
4.23333740234375
 44
209.9733276367187
 45
296.9683227539062
 46
-0.0000000000000142
 47
48.20187212265074
 48
0.0
 49
0.0
140
0.0
141
0.0
142
1.0
143
3.751456537048481
 70
 11956
 72
     1
 73
     0
 74
     1
  7
DIERRE BN.ctb
 75
     0
147
0.2665631309130843
 76
     0
 77
     2
 78
   300
148
2124.722435913432
149
-1096.700850755539
1001
ACAD_PSEXT
1000
LASER A3-A4.pc3
1000
HP LaserJet 5200 PCL 5e
1000
IP_192.168.0.59
1000

1070
     0
  0
PLOTSETTINGS
  5
A47
102
{ACAD_REACTORS
330
46
102
}
330
46
100
AcDbPlotSettings
  1
Olivetti_200 A3
  2
Olivetti_200.pc3
  4
A3
  6

 40
4.984749794006347
 41
5.111746788024902
 42
5.154083251953125
 43
4.9847412109375
 44
297.0106506347656
 45
419.9889831542968
 46
0.0
 47
156.6621412366913
 48
0.0
 49
0.0
140
0.0
141
0.0
142
1.0
143
0.4718508730467012
 70
 11956
 72
     1
 73
     1
 74
     1
  7
DIERRE BN.ctb
 75
     0
147
2.119313658451206
 76
     0
 77
     2
 78
   300
148
-222.4649060220283
149
-239.0808115236937
1001
ACAD_PSEXT
1000
Olivetti_200.pc3
1000
Olivetti d-Copia 200MF KX
1000
IP_192.168.1.151
1000

1070
     0
  0
PLOTSETTINGS
  5
A48
102
{ACAD_REACTORS
330
46
102
}
330
46
100
AcDbPlotSettings
  1
Olivetti_200 A4
  2
Olivetti_200.pc3
  4
A4
  6

 40
4.984749794006347
 41
5.154074668884277
 42
5.111740112304687
 43
4.9847412109375
 44
210.0156707763672
 45
297.0106506347656
 46
51.67548120477697
 47
0.0
 48
0.0
 49
0.0
140
0.0
141
0.0
142
1.0
143
0.4718508448115938
 70
 11956
 72
     1
 73
     0
 74
     1
  7
DIERRE BN.ctb
 75
     0
147
2.119313785268927
 76
     0
 77
     2
 78
   300
148
-222.4649060220283
149
-239.0808115236937
1001
ACAD_PSEXT
1000
Olivetti_200.pc3
1000
Olivetti d-Copia 200MF KX
1000
IP_192.168.1.151
1000

1070
     0
  0
PLOTSETTINGS
  5
A49
102
{ACAD_REACTORS
330
46
102
}
330
46
100
AcDbPlotSettings
  1
PLOTTER
  2
PLOTTER.pc3
  4
User622
  6

 40
0.0
 41
0.0
 42
0.0
 43
0.0
 44
841.0
 45
1189.0
 46
0.0
 47
0.0
 48
0.0
 49
0.0
140
0.0
141
0.0
142
1.0
143
1.0
 70
 11936
 72
     1
 73
     0
 74
     1
  7
DIERRE BN.ctb
 75
     0
147
2.194137304425714
 76
     0
 77
     2
 78
   300
148
-222.4649060220283
149
-239.0808115236937
1001
ACAD_PSEXT
1000
PLOTTER.pc3
1000
HP DesignJet 430 (E/A0) by HP
1000
\\SERVER2003
1000

1070
     0
  0
PLOTSETTINGS
  5
A4A
102
{ACAD_REACTORS
330
46
102
}
330
46
100
AcDbPlotSettings
  1
PLOTTER MACAP
  2
PLOTTER.pc3
  4
User257
  6

 40
4.995333194732666
 41
16.93336677551269
 42
4.99530029296875
 43
16.933349609375
 44
607.9066772460937
 45
2999.82470703125
 46
0.0
 47
0.0
 48
0.0
 49
0.0
140
4038.210129173388
141
2123.783599303598
142
1.0
143
10.0
 70
 11936
 72
     1
 73
     1
 74
     4
  7
DIERRE BN.ctb
 75
     0
147
1.511986973949682
 76
     0
 77
     2
 78
   300
148
0.0
149
0.0
1001
ACAD_PSEXT
1000
PLOTTER.pc3
1000
HP Designjet 500 plus 24
1000
\\Mcp-server1
1000

1070
     0
  0
ACDBPLACEHOLDER
  5
44
102
{ACAD_REACTORS
330
43
102
}
330
43
  0
SCALE
  5
333
102
{ACAD_REACTORS
330
332
102
}
330
332
100
AcDbScale
 70
     0
300
1:1
140
1.0
141
1.0
290
     1
  0
SCALE
  5
334
102
{ACAD_REACTORS
330
332
102
}
330
332
100
AcDbScale
 70
     0
300
1:2
140
1.0
141
2.0
290
     0
  0
SCALE
  5
335
102
{ACAD_REACTORS
330
332
102
}
330
332
100
AcDbScale
 70
     0
300
1:4
140
1.0
141
4.0
290
     0
  0
SCALE
  5
336
102
{ACAD_REACTORS
330
332
102
}
330
332
100
AcDbScale
 70
     0
300
1:5
140
1.0
141
5.0
290
     0
  0
SCALE
  5
337
102
{ACAD_REACTORS
330
332
102
}
330
332
100
AcDbScale
 70
     0
300
1:8
140
1.0
141
8.0
290
     0
  0
SCALE
  5
338
102
{ACAD_REACTORS
330
332
102
}
330
332
100
AcDbScale
 70
     0
300
1:10
140
1.0
141
10.0
290
     0
  0
SCALE
  5
339
102
{ACAD_REACTORS
330
332
102
}
330
332
100
AcDbScale
 70
     0
300
1:16
140
1.0
141
16.0
290
     0
  0
SCALE
  5
33A
102
{ACAD_REACTORS
330
332
102
}
330
332
100
AcDbScale
 70
     0
300
1:20
140
1.0
141
20.0
290
     0
  0
SCALE
  5
33B
102
{ACAD_REACTORS
330
332
102
}
330
332
100
AcDbScale
 70
     0
300
1:30
140
1.0
141
30.0
290
     0
  0
SCALE
  5
33C
102
{ACAD_REACTORS
330
332
102
}
330
332
100
AcDbScale
 70
     0
300
1:40
140
1.0
141
40.0
290
     0
  0
SCALE
  5
33D
102
{ACAD_REACTORS
330
332
102
}
330
332
100
AcDbScale
 70
     0
300
1:50
140
1.0
141
50.0
290
     0
  0
SCALE
  5
33E
102
{ACAD_REACTORS
330
332
102
}
330
332
100
AcDbScale
 70
     0
300
1:100
140
1.0
141
100.0
290
     0
  0
SCALE
  5
33F
102
{ACAD_REACTORS
330
332
102
}
330
332
100
AcDbScale
 70
     0
300
2:1
140
2.0
141
1.0
290
     0
  0
SCALE
  5
340
102
{ACAD_REACTORS
330
332
102
}
330
332
100
AcDbScale
 70
     0
300
4:1
140
4.0
141
1.0
290
     0
  0
SCALE
  5
341
102
{ACAD_REACTORS
330
332
102
}
330
332
100
AcDbScale
 70
     0
300
8:1
140
8.0
141
1.0
290
     0
  0
SCALE
  5
342
102
{ACAD_REACTORS
330
332
102
}
330
332
100
AcDbScale
 70
     0
300
10:1
140
10.0
141
1.0
290
     0
  0
SCALE
  5
343
102
{ACAD_REACTORS
330
332
102
}
330
332
100
AcDbScale
 70
     0
300
100:1
140
100.0
141
1.0
290
     0
  0
SCALE
  5
344
102
{ACAD_REACTORS
330
332
102
}
330
332
100
AcDbScale
 70
     0
300
1/128" = 1'-0"
140
0.0078125
141
12.0
290
     0
  0
SCALE
  5
345
102
{ACAD_REACTORS
330
332
102
}
330
332
100
AcDbScale
 70
     0
300
1/64" = 1'-0"
140
0.015625
141
12.0
290
     0
  0
SCALE
  5
346
102
{ACAD_REACTORS
330
332
102
}
330
332
100
AcDbScale
 70
     0
300
1/32" = 1'-0"
140
0.03125
141
12.0
290
     0
  0
SCALE
  5
347
102
{ACAD_REACTORS
330
332
102
}
330
332
100
AcDbScale
 70
     0
300
1/16" = 1'-0"
140
0.0625
141
12.0
290
     0
  0
SCALE
  5
348
102
{ACAD_REACTORS
330
332
102
}
330
332
100
AcDbScale
 70
     0
300
3/32" = 1'-0"
140
0.09375
141
12.0
290
     0
  0
SCALE
  5
349
102
{ACAD_REACTORS
330
332
102
}
330
332
100
AcDbScale
 70
     0
300
1/8" = 1'-0"
140
0.125
141
12.0
290
     0
  0
SCALE
  5
34A
102
{ACAD_REACTORS
330
332
102
}
330
332
100
AcDbScale
 70
     0
300
3/16" = 1'-0"
140
0.1875
141
12.0
290
     0
  0
SCALE
  5
34B
102
{ACAD_REACTORS
330
332
102
}
330
332
100
AcDbScale
 70
     0
300
1/4" = 1'-0"
140
0.25
141
12.0
290
     0
  0
SCALE
  5
34C
102
{ACAD_REACTORS
330
332
102
}
330
332
100
AcDbScale
 70
     0
300
3/8" = 1'-0"
140
0.375
141
12.0
290
     0
  0
SCALE
  5
34D
102
{ACAD_REACTORS
330
332
102
}
330
332
100
AcDbScale
 70
     0
300
1/2" = 1'-0"
140
0.5
141
12.0
290
     0
  0
SCALE
  5
34E
102
{ACAD_REACTORS
330
332
102
}
330
332
100
AcDbScale
 70
     0
300
3/4" = 1'-0"
140
0.75
141
12.0
290
     0
  0
SCALE
  5
34F
102
{ACAD_REACTORS
330
332
102
}
330
332
100
AcDbScale
 70
     0
300
1" = 1'-0"
140
1.0
141
12.0
290
     0
  0
SCALE
  5
350
102
{ACAD_REACTORS
330
332
102
}
330
332
100
AcDbScale
 70
     0
300
1-1/2" = 1'-0"
140
1.5
141
12.0
290
     0
  0
SCALE
  5
351
102
{ACAD_REACTORS
330
332
102
}
330
332
100
AcDbScale
 70
     0
300
3" = 1'-0"
140
3.0
141
12.0
290
     0
  0
SCALE
  5
352
102
{ACAD_REACTORS
330
332
102
}
330
332
100
AcDbScale
 70
     0
300
6" = 1'-0"
140
6.0
141
12.0
290
     0
  0
SCALE
  5
353
102
{ACAD_REACTORS
330
332
102
}
330
332
100
AcDbScale
 70
     0
300
1'-0" = 1'-0"
140
12.0
141
12.0
290
     0
  0
ACDBSECTIONVIEWSTYLE
  5
A24
102
{ACAD_XDICTIONARY
360
B28
102
}
102
{ACAD_REACTORS
330
A23
102
}
330
A23
100
AcDbModelDocViewStyle
 70
     0
  3
Metric50
290
     0
100
AcDbSectionViewStyle
 70
     0
 71
     0
 90
      102
 71
     1
340
C
 62
   256
 40
5.0
340
0
340
0
 62
   256
 40
5.0
300
I, O, Q, S, X, Z
 40
10.0
 90
        0
 40
2.5
 90
        0
 71
     2
340
5
 90
       25
 62
   256
340
5
 90
       50
 62
   256
 40
5.0
 40
2.5
 40
5.0
 71
     3
340
C
 62
   256
 40
5.0
 90
        0
 40
15.0
 90
        1
300
%<\AcVar ViewSectionStartId>%-%<\AcVar ViewSectionEndId>% (%<\AcVar ViewScale \f "%sn">%)
 71
     4
 62
   256
 62
   257
300
ANSI31
 40
1.0
 90
        0
290
     0
290
     0
 90
        6
 40
0.0
 40
1.570796326794896
 40
0.2617993877991494
 40
1.308996938995747
 40
-0.2617993877991494
 40
1.832595714594046
  0
TABLESTYLE
  5
31A
102
{ACAD_XDICTIONARY
360
366
102
}
102
{ACAD_REACTORS
330
2C6
102
}
330
2C6
100
AcDbTableStyle
280
     0
  3
Standard
 70
     1
 71
     0
 40
1.5
 41
1.5
280
     1
281
     0
  7
ROMANS
140
3.0
170
     5
 62
     7
 63
     7
283
     0
 90
      512
 91
        0
  1

274
    -2
284
     1
 64
     0
275
    -2
285
     1
 65
     0
276
    -2
286
     1
 66
     0
277
    -2
287
     1
 67
     0
278
    -2
288
     1
 68
     0
279
    -2
289
     1
 69
     0
  7
ROMANS
140
6.0
170
     5
 62
     1
 63
     7
283
     0
 90
      512
 91
        0
  1

274
    -2
284
     1
 64
     0
275
    -2
285
     1
 65
     0
276
    -2
286
     1
 66
     0
277
    -2
287
     1
 67
     0
278
    -2
288
     1
 68
     0
279
    -2
289
     1
 69
     0
  7
ROMANS
140
3.5
170
     5
 62
     3
 63
     7
283
     0
 90
      512
 91
        0
  1

274
    -2
284
     1
 64
     0
275
    -2
285
     1
 65
     0
276
    -2
286
     1
 66
     0
277
    -2
287
     1
 67
     0
278
    -2
288
     1
 68
     0
279
    -2
289
     1
 69
     0
  0
TABLESTYLE
  5
A4B
102
{ACAD_XDICTIONARY
360
A4C
102
}
102
{ACAD_REACTORS
330
2C6
102
}
330
2C6
100
AcDbTableStyle
280
     0
  3
Standard
 70
     1
 71
     0
 40
1.0
 41
1.0
280
     0
281
     0
  7
SS-TABPALL
140
2.5
170
     4
 62
     7
 63
     7
283
     0
 90
      512
 91
        0
  1

274
    -2
284
     1
 64
     3
275
    -2
285
     1
 65
     3
276
    -2
286
     1
 66
     3
277
    -2
287
     1
 67
     3
278
    -2
288
     1
 68
     1
279
    -2
289
     1
 69
     1
  7
SS-TABPALL
140
2.5
170
     5
 62
     1
 63
     7
283
     0
 90
      512
 91
        0
  1

274
    -2
284
     1
 64
     3
275
    -2
285
     1
 65
     3
276
    -2
286
     1
 66
     3
277
    -2
287
     1
 67
     3
278
    -2
288
     1
 68
     3
279
    -2
289
     1
 69
     3
  7
SS-TABPALL
140
2.5
170
     5
 62
     1
 63
     7
283
     0
 90
      512
 91
        0
  1

274
    -2
284
     1
 64
     3
275
    -2
285
     1
 65
     3
276
    -2
286
     1
 66
     3
277
    -2
287
     1
 67
     3
278
    -2
288
     1
 68
     1
279
    -2
289
     1
 69
     1
  0
TABLESTYLE
  5
2CC
102
{ACAD_XDICTIONARY
360
364
102
}
102
{ACAD_REACTORS
330
2C6
102
}
330
2C6
100
AcDbTableStyle
280
     0
  3
Standard
 70
     0
 71
     0
 40
1.5
 41
1.5
280
     0
281
     0
  7
ROMANS
140
4.5
170
     5
 62
     7
 63
     7
283
     0
 90
      512
 91
        0
  1

274
    -2
284
     1
 64
     0
275
    -2
285
     1
 65
     0
276
    -2
286
     1
 66
     0
277
    -2
287
     1
 67
     0
278
    -2
288
     1
 68
     0
279
    -2
289
     1
 69
     0
  7
ROMANS
140
6.0
170
     5
 62
     1
 63
     7
283
     0
 90
      512
 91
        0
  1

274
    -2
284
     1
 64
     0
275
    -2
285
     1
 65
     0
276
    -2
286
     1
 66
     0
277
    -2
287
     1
 67
     0
278
    -2
288
     1
 68
     0
279
    -2
289
     1
 69
     0
  7
ROMANS
140
5.0
170
     5
 62
     3
 63
     7
283
     0
 90
      512
 91
        0
  1

274
    -2
284
     1
 64
     0
275
    -2
285
     1
 65
     0
276
    -2
286
     1
 66
     0
277
    -2
287
     1
 67
     0
278
    -2
288
     1
 68
     0
279
    -2
289
     1
 69
     0
  0
TABLESTYLE
  5
A4D
102
{ACAD_XDICTIONARY
360
A4E
102
}
102
{ACAD_REACTORS
330
2C6
102
}
330
2C6
100
AcDbTableStyle
280
     0
  3
Standard
 70
     1
 71
     0
 40
1.5
 41
1.5
280
     0
281
     0
  7
SS-TABPALL
140
2.5
170
     4
 62
     2
 63
     7
283
     0
 90
      512
 91
        0
  1

274
    -2
284
     1
 64
     3
275
    -2
285
     1
 65
     3
276
    -2
286
     1
 66
     3
277
    -2
287
     1
 67
     3
278
    -2
288
     1
 68
     3
279
    -2
289
     1
 69
     3
  7
SS-TABPALL
140
2.5
170
     5
 62
     7
 63
     7
283
     0
 90
      512
 91
        0
  1

274
    -2
284
     1
 64
     3
275
    -2
285
     1
 65
     3
276
    -2
286
     1
 66
     3
277
    -2
287
     1
 67
     3
278
    -2
288
     1
 68
     3
279
    -2
289
     1
 69
     3
  7
SS-TABPALL
140
1.75
170
     5
 62
     7
 63
     7
283
     0
 90
      512
 91
        0
  1

274
    -2
284
     1
 64
     3
275
    -2
285
     1
 65
     3
276
    -2
286
     1
 66
     3
277
    -2
287
     1
 67
     3
278
    -2
288
     1
 68
     3
279
    -2
289
     1
 69
     3
  0
TABLESTYLE
  5
2C7
102
{ACAD_XDICTIONARY
360
362
102
}
102
{ACAD_REACTORS
330
2C6
102
}
330
2C6
100
AcDbTableStyle
280
     0
  3
Standard
 70
     0
 71
     0
 40
1.5
 41
1.5
280
     0
281
     0
  7
STANDARD
140
4.5
170
     2
 62
     0
 63
     7
283
     0
 90
      512
 91
        0
  1

274
    -2
284
     1
 64
     0
275
    -2
285
     1
 65
     0
276
    -2
286
     1
 66
     0
277
    -2
287
     1
 67
     0
278
    -2
288
     1
 68
     0
279
    -2
289
     1
 69
     0
  7
STANDARD
140
6.0
170
     5
 62
     0
 63
     7
283
     0
 90
      512
 91
        0
  1

274
    -2
284
     1
 64
     0
275
    -2
285
     1
 65
     0
276
    -2
286
     1
 66
     0
277
    -2
287
     1
 67
     0
278
    -2
288
     1
 68
     0
279
    -2
289
     1
 69
     0
  7
STANDARD
140
4.5
170
     5
 62
     0
 63
     7
283
     0
 90
      512
 91
        0
  1

274
    -2
284
     1
 64
     0
275
    -2
285
     1
 65
     0
276
    -2
286
     1
 66
     0
277
    -2
287
     1
 67
     0
278
    -2
288
     1
 68
     0
279
    -2
289
     1
 69
     0
  0
VISUALSTYLE
  5
2BA
102
{ACAD_REACTORS
330
2B4
102
}
330
2B4
100
AcDbVisualStyle
  2
2dWireframe
 70
     4
177
     3
291
     0
 70
    58
 90
        0
176
     1
 90
        2
176
     1
 90
        0
176
     1
 90
        0
176
     1
 40
0.6
176
     1
 40
30.0
176
     1
 62
     7
176
     1
 90
        1
176
     1
 90
        4
176
     1
 62
     7
176
     1
 62
   257
176
     1
 90
        1
176
     1
 90
        1
176
     1
 40
1.0
176
     1
 90
        0
176
     1
 62
   257
176
     1
 40
1.0
176
     1
 90
        1
176
     1
 90
        6
176
     1
 90
        2
176
     1
 62
     7
176
     1
 90
        5
176
     1
 90
        0
176
     1
 90
        0
176
     1
290
     0
176
     1
 90
        1
176
     1
 40
0.0
176
     1
 90
        0
176
     1
290
     1
176
     1
290
     1
176
     1
290
     0
176
     1
290
     0
176
     1
290
     0
176
     1
290
     0
176
     1
290
     0
176
     1
290
     0
176
     1
290
     0
176
     1
 90
       50
176
     1
 40
0.0
176
     1
 40
1.0
176
     1
 90
        0
176
     1
 62
    18
420
        0
176
     1
 90
       50
176
     1
 90
        3
176
     1
 62
     5
420
      255
176
     1
290
     0
176
     1
 90
       50
176
     1
 90
       50
176
     1
 90
       50
176
     1
290
     0
176
     1
 90
       50
176
     1
 62
   256
176
     0
 40
1.0
176
     0
 90
        2
176
     1
  1
strokes_ogs.tif
176
     1
290
     0
176
     1
 40
1.0
176
     1
 40
1.0
176
     1
  0
VISUALSTYLE
  5
2BC
102
{ACAD_REACTORS
330
2B4
102
}
330
2B4
100
AcDbVisualStyle
  2
3D Hidden
 70
     6
177
     3
291
     0
 70
    58
 90
        1
176
     1
 90
        2
176
     1
 90
        2
176
     1
 90
        0
176
     1
 40
0.6
176
     1
 40
30.0
176
     1
 62
     7
176
     1
 90
        2
176
     1
 90
        2
176
     1
 62
     7
176
     1
 62
   257
176
     1
 90
        2
176
     1
 90
        1
176
     1
 40
40.0
176
     1
 90
        0
176
     1
 62
   257
176
     1
 40
1.0
176
     1
 90
        1
176
     1
 90
        6
176
     1
 90
        2
176
     1
 62
     7
176
     1
 90
        3
176
     1
 90
        0
176
     1
 90
        0
176
     1
290
     0
176
     1
 90
        1
176
     1
 40
0.0
176
     1
 90
        0
176
     1
290
     0
176
     1
290
     1
176
     1
290
     1
176
     1
290
     0
176
     1
290
     0
176
     1
290
     0
176
     1
290
     0
176
     1
290
     0
176
     1
290
     0
176
     1
 90
       50
176
     1
 40
0.0
176
     1
 40
1.0
176
     1
 90
        0
176
     1
 62
    18
420
        0
176
     1
 90
       50
176
     1
 90
        3
176
     1
 62
     5
420
      255
176
     1
290
     0
176
     1
 90
       50
176
     1
 90
       50
176
     1
 90
       50
176
     1
290
     0
176
     1
 90
       50
176
     1
 62
   256
176
     0
 40
1.0
176
     0
 90
        2
176
     1
  1
strokes_ogs.tif
176
     1
290
     0
176
     1
 40
1.0
176
     1
 40
1.0
176
     1
  0
VISUALSTYLE
  5
2BB
102
{ACAD_REACTORS
330
2B4
102
}
330
2B4
100
AcDbVisualStyle
  2
3dWireframe
 70
     5
177
     3
291
     0
 70
    58
 90
        0
176
     1
 90
        2
176
     1
 90
        0
176
     1
 90
        0
176
     1
 40
0.6
176
     1
 40
30.0
176
     1
 62
     7
176
     1
 90
        1
176
     1
 90
        4
176
     1
 62
     7
176
     1
 62
   257
176
     1
 90
        1
176
     1
 90
        1
176
     1
 40
1.0
176
     1
 90
        0
176
     1
 62
   257
176
     1
 40
1.0
176
     1
 90
        1
176
     1
 90
        6
176
     1
 90
        2
176
     1
 62
     7
176
     1
 90
        5
176
     1
 90
        0
176
     1
 90
        0
176
     1
290
     0
176
     1
 90
        1
176
     1
 40
0.0
176
     1
 90
        0
176
     1
290
     0
176
     1
290
     1
176
     1
290
     1
176
     1
290
     0
176
     1
290
     0
176
     1
290
     0
176
     1
290
     0
176
     1
290
     0
176
     1
290
     0
176
     1
 90
       50
176
     1
 40
0.0
176
     1
 40
1.0
176
     1
 90
        0
176
     1
 62
    18
420
        0
176
     1
 90
       50
176
     1
 90
        3
176
     1
 62
     5
420
      255
176
     1
290
     0
176
     1
 90
       50
176
     1
 90
       50
176
     1
 90
       50
176
     1
290
     0
176
     1
 90
       50
176
     1
 62
   256
176
     0
 40
1.0
176
     0
 90
        2
176
     1
  1
strokes_ogs.tif
176
     1
290
     0
176
     1
 40
1.0
176
     1
 40
1.0
176
     1
  0
VISUALSTYLE
  5
2B9
102
{ACAD_REACTORS
330
2B4
102
}
330
2B4
100
AcDbVisualStyle
  2
Basic
 70
     7
177
     3
291
     1
 70
    58
 90
        1
176
     1
 90
        0
176
     1
 90
        1
176
     1
 90
        0
176
     1
 40
0.6
176
     1
 40
30.0
176
     1
 62
     7
176
     1
 90
        0
176
     1
 90
        4
176
     1
 62
     7
176
     1
 62
   257
176
     1
 90
        1
176
     1
 90
        1
176
     1
 40
1.0
176
     1
 90
        8
176
     1
 62
     7
176
     1
 40
1.0
176
     1
 90
        1
176
     1
 90
        6
176
     1
 90
        2
176
     1
 62
     7
176
     1
 90
        5
176
     1
 90
        0
176
     1
 90
        0
176
     1
290
     0
176
     1
 90
        1
176
     1
 40
0.0
176
     1
 90
        0
176
     1
290
     0
176
     1
290
     1
176
     1
290
     1
176
     1
290
     0
176
     1
290
     0
176
     1
290
     0
176
     1
290
     0
176
     1
290
     0
176
     1
290
     0
176
     1
 90
       50
176
     1
 40
0.0
176
     1
 40
1.0
176
     1
 90
        0
176
     1
 62
    18
420
        0
176
     1
 90
       50
176
     1
 90
        3
176
     1
 62
     5
420
      255
176
     1
290
     0
176
     1
 90
       50
176
     1
 90
       50
176
     1
 90
       50
176
     1
290
     0
176
     1
 90
       50
176
     1
 62
   256
176
     0
 40
1.0
176
     0
 90
        2
176
     1
  1
strokes_ogs.tif
176
     1
290
     0
176
     1
 40
1.0
176
     1
 40
1.0
176
     1
  0
VISUALSTYLE
  5
2C0
102
{ACAD_REACTORS
330
2B4
102
}
330
2B4
100
AcDbVisualStyle
  2
Brighten
 70
    12
177
     3
291
     1
 70
    58
 90
        2
176
     1
 90
        2
176
     1
 90
        0
176
     1
 90
        0
176
     1
 40
0.6
176
     1
 40
30.0
176
     1
 62
     7
176
     1
 90
        1
176
     1
 90
        4
176
     1
 62
     7
176
     1
 62
   257
176
     1
 90
        1
176
     1
 90
        1
176
     1
 40
1.0
176
     1
 90
        8
176
     1
 62
     7
176
     1
 40
1.0
176
     1
 90
        1
176
     1
 90
        6
176
     1
 90
        2
176
     1
 62
     7
176
     1
 90
        5
176
     1
 90
        0
176
     1
 90
        0
176
     1
290
     0
176
     1
 90
        1
176
     1
 40
50.0
176
     1
 90
        0
176
     1
290
     0
176
     1
290
     1
176
     1
290
     1
176
     1
290
     0
176
     1
290
     0
176
     1
290
     0
176
     1
290
     0
176
     1
290
     0
176
     1
290
     0
176
     1
 90
       50
176
     1
 40
0.0
176
     1
 40
1.0
176
     1
 90
        0
176
     1
 62
    18
420
        0
176
     1
 90
       50
176
     1
 90
        3
176
     1
 62
     5
420
      255
176
     1
290
     0
176
     1
 90
       50
176
     1
 90
       50
176
     1
 90
       50
176
     1
290
     0
176
     1
 90
       50
176
     1
 62
   256
176
     0
 40
1.0
176
     0
 90
        2
176
     1
  1
strokes_ogs.tif
176
     1
290
     0
176
     1
 40
1.0
176
     1
 40
1.0
176
     1
  0
VISUALSTYLE
  5
2C4
102
{ACAD_REACTORS
330
2B4
102
}
330
2B4
100
AcDbVisualStyle
  2
ColorChange
 70
    16
177
     3
291
     1
 70
    58
 90
        2
176
     1
 90
        2
176
     1
 90
        3
176
     1
 90
        0
176
     1
 40
0.6
176
     1
 40
30.0
176
     1
 62
     8
176
     1
 90
        1
176
     1
 90
        4
176
     1
 62
     7
176
     1
 62
   257
176
     1
 90
        1
176
     1
 90
        1
176
     1
 40
1.0
176
     1
 90
        8
176
     1
 62
     8
176
     1
 40
1.0
176
     1
 90
        1
176
     1
 90
        6
176
     1
 90
        2
176
     1
 62
     7
176
     1
 90
        5
176
     1
 90
        0
176
     1
 90
        0
176
     1
290
     0
176
     1
 90
        1
176
     1
 40
0.0
176
     1
 90
        0
176
     1
290
     0
176
     1
290
     1
176
     1
290
     1
176
     1
290
     0
176
     1
290
     0
176
     1
290
     0
176
     1
290
     0
176
     1
290
     0
176
     1
290
     0
176
     1
 90
       50
176
     1
 40
0.0
176
     1
 40
1.0
176
     1
 90
        0
176
     1
 62
    18
420
        0
176
     1
 90
       50
176
     1
 90
        3
176
     1
 62
     5
420
      255
176
     1
290
     0
176
     1
 90
       50
176
     1
 90
       50
176
     1
 90
       50
176
     1
290
     0
176
     1
 90
       50
176
     1
 62
   256
176
     0
 40
1.0
176
     0
 90
        2
176
     1
  1
strokes_ogs.tif
176
     1
290
     0
176
     1
 40
1.0
176
     1
 40
1.0
176
     1
  0
VISUALSTYLE
  5
2BD
102
{ACAD_REACTORS
330
2B4
102
}
330
2B4
100
AcDbVisualStyle
  2
Conceptual
 70
     9
177
     3
291
     0
 70
    58
 90
        3
176
     1
 90
        2
176
     1
 90
        0
176
     1
 90
        0
176
     1
 40
0.6
176
     1
 40
30.0
176
     1
 62
     7
176
     1
 90
        2
176
     1
 90
        2
176
     1
 62
     7
176
     1
 62
   257
176
     1
 90
        1
176
     1
 90
        1
176
     1
 40
40.0
176
     1
 90
        8
176
     1
 62
     7
176
     1
 40
1.0
176
     1
 90
        1
176
     1
 90
        6
176
     1
 90
        2
176
     1
 62
     7
176
     1
 90
        3
176
     1
 90
        0
176
     1
 90
        0
176
     1
290
     0
176
     1
 90
        1
176
     1
 40
0.0
176
     1
 90
        0
176
     1
290
     0
176
     1
290
     1
176
     1
290
     1
176
     1
290
     0
176
     1
290
     0
176
     1
290
     0
176
     1
290
     0
176
     1
290
     0
176
     1
290
     0
176
     1
 90
       50
176
     1
 40
0.0
176
     1
 40
1.0
176
     1
 90
        0
176
     1
 62
    18
420
        0
176
     1
 90
       50
176
     1
 90
        3
176
     1
 62
     5
420
      255
176
     1
290
     0
176
     1
 90
       50
176
     1
 90
       50
176
     1
 90
       50
176
     1
290
     0
176
     1
 90
       50
176
     1
 62
   256
176
     0
 40
1.0
176
     0
 90
        2
176
     1
  1
strokes_ogs.tif
176
     1
290
     0
176
     1
 40
1.0
176
     1
 40
1.0
176
     1
  0
VISUALSTYLE
  5
2BF
102
{ACAD_REACTORS
330
2B4
102
}
330
2B4
100
AcDbVisualStyle
  2
Dim
 70
    11
177
     3
291
     1
 70
    58
 90
        2
176
     1
 90
        2
176
     1
 90
        0
176
     1
 90
        0
176
     1
 40
0.6
176
     1
 40
30.0
176
     1
 62
     7
176
     1
 90
        1
176
     1
 90
        4
176
     1
 62
     7
176
     1
 62
   257
176
     1
 90
        1
176
     1
 90
        1
176
     1
 40
1.0
176
     1
 90
        8
176
     1
 62
     7
176
     1
 40
1.0
176
     1
 90
        1
176
     1
 90
        6
176
     1
 90
        2
176
     1
 62
     7
176
     1
 90
        5
176
     1
 90
        0
176
     1
 90
        0
176
     1
290
     0
176
     1
 90
        1
176
     1
 40
-50.0
176
     1
 90
        0
176
     1
290
     0
176
     1
290
     1
176
     1
290
     1
176
     1
290
     0
176
     1
290
     0
176
     1
290
     0
176
     1
290
     0
176
     1
290
     0
176
     1
290
     0
176
     1
 90
       50
176
     1
 40
0.0
176
     1
 40
1.0
176
     1
 90
        0
176
     1
 62
    18
420
        0
176
     1
 90
       50
176
     1
 90
        3
176
     1
 62
     5
420
      255
176
     1
290
     0
176
     1
 90
       50
176
     1
 90
       50
176
     1
 90
       50
176
     1
290
     0
176
     1
 90
       50
176
     1
 62
   256
176
     0
 40
1.0
176
     0
 90
        2
176
     1
  1
strokes_ogs.tif
176
     1
290
     0
176
     1
 40
1.0
176
     1
 40
1.0
176
     1
  0
VISUALSTYLE
  5
6E4
102
{ACAD_REACTORS
330
2B4
102
}
330
2B4
100
AcDbVisualStyle
  2
EdgeColorOff
 70
    22
177
     3
291
     1
 70
    58
 90
        2
176
     0
 90
        2
176
     0
 90
        0
176
     0
 90
        0
176
     0
 40
0.6
176
     0
 40
30.0
176
     0
 62
     7
176
     0
 90
        1
176
     0
 90
        4
176
     0
 62
     7
176
     0
 62
   257
176
     0
 90
        1
176
     0
 90
        1
176
     0
 40
1.0
176
     0
 90
        8
176
     2
 62
     7
176
     0
 40
1.0
176
     0
 90
        1
176
     0
 90
        6
176
     0
 90
        2
176
     0
 62
     7
176
     0
 90
        5
176
     0
 90
        0
176
     0
 90
        0
176
     0
290
     0
176
     0
 90
        1
176
     0
 40
0.0
176
     0
 90
        0
176
     0
290
     0
176
     1
290
     1
176
     1
290
     1
176
     1
290
     0
176
     1
290
     0
176
     1
290
     0
176
     1
290
     0
176
     1
290
     0
176
     1
290
     0
176
     1
 90
       50
176
     1
 40
0.0
176
     1
 40
1.0
176
     1
 90
        0
176
     1
 62
    18
420
        0
176
     1
 90
       50
176
     1
 90
        3
176
     1
 62
     5
420
      255
176
     1
290
     0
176
     1
 90
       50
176
     1
 90
       50
176
     1
 90
       50
176
     1
290
     0
176
     1
 90
       50
176
     1
 62
   256
176
     0
 40
1.0
176
     0
 90
        2
176
     1
  1
strokes_ogs.tif
176
     1
290
     0
176
     1
 40
1.0
176
     1
 40
1.0
176
     1
  0
VISUALSTYLE
  5
2C3
102
{ACAD_REACTORS
330
2B4
102
}
330
2B4
100
AcDbVisualStyle
  2
Facepattern
 70
    15
177
     3
291
     1
 70
    58
 90
        2
176
     1
 90
        2
176
     1
 90
        0
176
     1
 90
        0
176
     1
 40
0.6
176
     1
 40
30.0
176
     1
 62
     7
176
     1
 90
        1
176
     1
 90
        4
176
     1
 62
     7
176
     1
 62
   257
176
     1
 90
        1
176
     1
 90
        1
176
     1
 40
1.0
176
     1
 90
        8
176
     1
 62
     7
176
     1
 40
1.0
176
     1
 90
        1
176
     1
 90
        6
176
     1
 90
        2
176
     1
 62
     7
176
     1
 90
        5
176
     1
 90
        0
176
     1
 90
        0
176
     1
290
     0
176
     1
 90
        1
176
     1
 40
0.0
176
     1
 90
        0
176
     1
290
     0
176
     1
290
     1
176
     1
290
     1
176
     1
290
     0
176
     1
290
     0
176
     1
290
     0
176
     1
290
     0
176
     1
290
     0
176
     1
290
     0
176
     1
 90
       50
176
     1
 40
0.0
176
     1
 40
1.0
176
     1
 90
        0
176
     1
 62
    18
420
        0
176
     1
 90
       50
176
     1
 90
        3
176
     1
 62
     5
420
      255
176
     1
290
     0
176
     1
 90
       50
176
     1
 90
       50
176
     1
 90
       50
176
     1
290
     0
176
     1
 90
       50
176
     1
 62
   256
176
     0
 40
1.0
176
     0
 90
        2
176
     1
  1
strokes_ogs.tif
176
     1
290
     0
176
     1
 40
1.0
176
     1
 40
1.0
176
     1
  0
VISUALSTYLE
  5
2B5
102
{ACAD_REACTORS
330
2B4
102
}
330
2B4
100
AcDbVisualStyle
  2
Flat
 70
     0
177
     3
291
     1
 70
    58
 90
        2
176
     1
 90
        1
176
     1
 90
        1
176
     1
 90
        2
176
     1
 40
0.6
176
     1
 40
30.0
176
     1
 62
     7
176
     1
 90
        0
176
     1
 90
        4
176
     1
 62
     7
176
     1
 62
   257
176
     1
 90
        1
176
     1
 90
        1
176
     1
 40
1.0
176
     1
 90
        8
176
     1
 62
     7
176
     1
 40
1.0
176
     1
 90
        1
176
     1
 90
        6
176
     1
 90
        2
176
     1
 62
     7
176
     1
 90
        5
176
     1
 90
        0
176
     1
 90
        0
176
     1
290
     0
176
     1
 90
       13
176
     1
 40
0.0
176
     1
 90
        0
176
     1
290
     0
176
     1
290
     1
176
     1
290
     1
176
     1
290
     0
176
     1
290
     0
176
     1
290
     0
176
     1
290
     0
176
     1
290
     0
176
     1
290
     0
176
     1
 90
       50
176
     1
 40
0.0
176
     1
 40
1.0
176
     1
 90
        0
176
     1
 62
    18
420
        0
176
     1
 90
       50
176
     1
 90
        3
176
     1
 62
     5
420
      255
176
     1
290
     0
176
     1
 90
       50
176
     1
 90
       50
176
     1
 90
       50
176
     1
290
     0
176
     1
 90
       50
176
     1
 62
   256
176
     0
 40
1.0
176
     0
 90
        2
176
     1
  1
strokes_ogs.tif
176
     1
290
     0
176
     1
 40
1.0
176
     1
 40
1.0
176
     1
  0
VISUALSTYLE
  5
2B6
102
{ACAD_REACTORS
330
2B4
102
}
330
2B4
100
AcDbVisualStyle
  2
FlatWithEdges
 70
     1
177
     3
291
     1
 70
    58
 90
        2
176
     1
 90
        1
176
     1
 90
        1
176
     1
 90
        2
176
     1
 40
0.6
176
     1
 40
30.0
176
     1
 62
     7
176
     1
 90
        1
176
     1
 90
        4
176
     1
 62
     7
176
     1
 62
   257
176
     1
 90
        1
176
     1
 90
        1
176
     1
 40
1.0
176
     1
 90
        0
176
     1
 62
   257
176
     1
 40
1.0
176
     1
 90
        1
176
     1
 90
        6
176
     1
 90
        2
176
     1
 62
     7
176
     1
 90
        5
176
     1
 90
        0
176
     1
 90
        0
176
     1
290
     0
176
     1
 90
       13
176
     1
 40
0.0
176
     1
 90
        0
176
     1
290
     0
176
     1
290
     1
176
     1
290
     1
176
     1
290
     0
176
     1
290
     0
176
     1
290
     0
176
     1
290
     0
176
     1
290
     0
176
     1
290
     0
176
     1
 90
       50
176
     1
 40
0.0
176
     1
 40
1.0
176
     1
 90
        0
176
     1
 62
    18
420
        0
176
     1
 90
       50
176
     1
 90
        3
176
     1
 62
     5
420
      255
176
     1
290
     0
176
     1
 90
       50
176
     1
 90
       50
176
     1
 90
       50
176
     1
290
     0
176
     1
 90
       50
176
     1
 62
   256
176
     0
 40
1.0
176
     0
 90
        2
176
     1
  1
strokes_ogs.tif
176
     1
290
     0
176
     1
 40
1.0
176
     1
 40
1.0
176
     1
  0
VISUALSTYLE
  5
2B7
102
{ACAD_REACTORS
330
2B4
102
}
330
2B4
100
AcDbVisualStyle
  2
Gouraud
 70
     2
177
     3
291
     1
 70
    58
 90
        2
176
     1
 90
        2
176
     1
 90
        1
176
     1
 90
        2
176
     1
 40
0.6
176
     1
 40
30.0
176
     1
 62
     7
176
     1
 90
        0
176
     1
 90
        4
176
     1
 62
     7
176
     1
 62
   257
176
     1
 90
        1
176
     1
 90
        1
176
     1
 40
1.0
176
     1
 90
        0
176
     1
 62
     7
176
     1
 40
1.0
176
     1
 90
        1
176
     1
 90
        6
176
     1
 90
        2
176
     1
 62
     7
176
     1
 90
        5
176
     1
 90
        0
176
     1
 90
        0
176
     1
290
     0
176
     1
 90
       13
176
     1
 40
0.0
176
     1
 90
        0
176
     1
290
     0
176
     1
290
     1
176
     1
290
     1
176
     1
290
     0
176
     1
290
     0
176
     1
290
     0
176
     1
290
     0
176
     1
290
     0
176
     1
290
     0
176
     1
 90
       50
176
     1
 40
0.0
176
     1
 40
1.0
176
     1
 90
        0
176
     1
 62
    18
420
        0
176
     1
 90
       50
176
     1
 90
        3
176
     1
 62
     5
420
      255
176
     1
290
     0
176
     1
 90
       50
176
     1
 90
       50
176
     1
 90
       50
176
     1
290
     0
176
     1
 90
       50
176
     1
 62
   256
176
     0
 40
1.0
176
     0
 90
        2
176
     1
  1
strokes_ogs.tif
176
     1
290
     0
176
     1
 40
1.0
176
     1
 40
1.0
176
     1
  0
VISUALSTYLE
  5
2B8
102
{ACAD_REACTORS
330
2B4
102
}
330
2B4
100
AcDbVisualStyle
  2
GouraudWithEdges
 70
     3
177
     3
291
     1
 70
    58
 90
        2
176
     1
 90
        2
176
     1
 90
        1
176
     1
 90
        2
176
     1
 40
0.6
176
     1
 40
30.0
176
     1
 62
     7
176
     1
 90
        1
176
     1
 90
        4
176
     1
 62
     7
176
     1
 62
   257
176
     1
 90
        1
176
     1
 90
        1
176
     1
 40
1.0
176
     1
 90
        0
176
     1
 62
   257
176
     1
 40
1.0
176
     1
 90
        1
176
     1
 90
        6
176
     1
 90
        2
176
     1
 62
     7
176
     1
 90
        5
176
     1
 90
        0
176
     1
 90
        0
176
     1
290
     0
176
     1
 90
       13
176
     1
 40
0.0
176
     1
 90
        0
176
     1
290
     0
176
     1
290
     1
176
     1
290
     1
176
     1
290
     0
176
     1
290
     0
176
     1
290
     0
176
     1
290
     0
176
     1
290
     0
176
     1
290
     0
176
     1
 90
       50
176
     1
 40
0.0
176
     1
 40
1.0
176
     1
 90
        0
176
     1
 62
    18
420
        0
176
     1
 90
       50
176
     1
 90
        3
176
     1
 62
     5
420
      255
176
     1
290
     0
176
     1
 90
       50
176
     1
 90
       50
176
     1
 90
       50
176
     1
290
     0
176
     1
 90
       50
176
     1
 62
   256
176
     0
 40
1.0
176
     0
 90
        2
176
     1
  1
strokes_ogs.tif
176
     1
290
     0
176
     1
 40
1.0
176
     1
 40
1.0
176
     1
  0
VISUALSTYLE
  5
A1D
102
{ACAD_REACTORS
330
2B4
102
}
330
2B4
100
AcDbVisualStyle
  2
Hidden
 70
     6
177
     3
291
     0
 70
    58
 90
        1
176
     1
 90
        2
176
     1
 90
        2
176
     1
 90
        0
176
     1
 40
0.6
176
     1
 40
30.0
176
     1
 62
     7
420
 16777215
176
     1
 90
        2
176
     1
 90
        2
176
     1
 62
     7
176
     1
 62
   257
176
     1
 90
        2
176
     1
 90
        1
176
     1
 40
40.0
176
     1
 90
        0
176
     1
 62
   257
176
     1
 40
1.0
176
     1
 90
        1
176
     1
 90
        6
176
     1
 90
        2
176
     1
 62
     7
176
     1
 90
        3
176
     1
 90
        0
176
     1
 90
        0
176
     1
290
     0
176
     1
 90
        1
176
     1
 40
0.0
176
     1
 90
        0
176
     1
290
     0
176
     1
290
     1
176
     1
290
     1
176
     1
290
     0
176
     1
290
     0
176
     1
290
     0
176
     1
290
     0
176
     1
290
     0
176
     1
290
     0
176
     1
 90
       50
176
     1
 40
0.0
176
     1
 40
1.0
176
     1
 90
        0
176
     1
 62
    18
420
        0
176
     1
 90
       50
176
     1
 90
        3
176
     1
 62
     5
420
      255
176
     1
290
     0
176
     1
 90
       50
176
     1
 90
       50
176
     1
 90
       50
176
     1
290
     0
176
     1
 90
       50
176
     1
 62
   256
176
     0
 40
1.0
176
     0
 90
        2
176
     1
  1
strokes_ogs.tif
176
     1
290
     0
176
     1
 40
1.0
176
     1
 40
1.0
176
     1
  0
VISUALSTYLE
  5
6E2
102
{ACAD_REACTORS
330
2B4
102
}
330
2B4
100
AcDbVisualStyle
  2
JitterOff
 70
    20
177
     3
291
     1
 70
    58
 90
        2
176
     0
 90
        2
176
     0
 90
        0
176
     0
 90
        0
176
     0
 40
0.6
176
     0
 40
30.0
176
     0
 62
     7
176
     0
 90
        1
176
     0
 90
        4
176
     0
 62
     7
176
     0
 62
   257
176
     0
 90
        1
176
     0
 90
        1
176
     0
 40
1.0
176
     0
 90
       10
176
     2
 62
     7
176
     0
 40
1.0
176
     0
 90
        1
176
     0
 90
        6
176
     0
 90
        2
176
     0
 62
     7
176
     0
 90
        5
176
     0
 90
        0
176
     0
 90
        0
176
     0
290
     0
176
     0
 90
        1
176
     0
 40
0.0
176
     0
 90
        0
176
     0
290
     0
176
     1
290
     1
176
     1
290
     1
176
     1
290
     0
176
     1
290
     0
176
     1
290
     0
176
     1
290
     0
176
     1
290
     0
176
     1
290
     0
176
     1
 90
       50
176
     1
 40
0.0
176
     1
 40
1.0
176
     1
 90
        0
176
     1
 62
    18
420
        0
176
     1
 90
       50
176
     1
 90
        3
176
     1
 62
     5
420
      255
176
     1
290
     0
176
     1
 90
       50
176
     1
 90
       50
176
     1
 90
       50
176
     1
290
     0
176
     1
 90
       50
176
     1
 62
   256
176
     0
 40
1.0
176
     0
 90
        2
176
     1
  1
strokes_ogs.tif
176
     1
290
     0
176
     1
 40
1.0
176
     1
 40
1.0
176
     1
  0
VISUALSTYLE
  5
2C2
102
{ACAD_REACTORS
330
2B4
102
}
330
2B4
100
AcDbVisualStyle
  2
Linepattern
 70
    14
177
     3
291
     1
 70
    58
 90
        2
176
     1
 90
        2
176
     1
 90
        0
176
     1
 90
        0
176
     1
 40
0.6
176
     1
 40
30.0
176
     1
 62
     7
176
     1
 90
        1
176
     1
 90
        4
176
     1
 62
     7
176
     1
 62
   257
176
     1
 90
        7
176
     1
 90
        7
176
     1
 40
1.0
176
     1
 90
        8
176
     1
 62
     7
176
     1
 40
1.0
176
     1
 90
        1
176
     1
 90
        6
176
     1
 90
        2
176
     1
 62
     7
176
     1
 90
        5
176
     1
 90
        0
176
     1
 90
        0
176
     1
290
     0
176
     1
 90
        1
176
     1
 40
0.0
176
     1
 90
        0
176
     1
290
     0
176
     1
290
     1
176
     1
290
     1
176
     1
290
     0
176
     1
290
     0
176
     1
290
     0
176
     1
290
     0
176
     1
290
     0
176
     1
290
     0
176
     1
 90
       50
176
     1
 40
0.0
176
     1
 40
1.0
176
     1
 90
        0
176
     1
 62
    18
420
        0
176
     1
 90
       50
176
     1
 90
        3
176
     1
 62
     5
420
      255
176
     1
290
     0
176
     1
 90
       50
176
     1
 90
       50
176
     1
 90
       50
176
     1
290
     0
176
     1
 90
       50
176
     1
 62
   256
176
     0
 40
1.0
176
     0
 90
        2
176
     1
  1
strokes_ogs.tif
176
     1
290
     0
176
     1
 40
1.0
176
     1
 40
1.0
176
     1
  0
VISUALSTYLE
  5
6E3
102
{ACAD_REACTORS
330
2B4
102
}
330
2B4
100
AcDbVisualStyle
  2
OverhangOff
 70
    21
177
     3
291
     1
 70
    58
 90
        2
176
     0
 90
        2
176
     0
 90
        0
176
     0
 90
        0
176
     0
 40
0.6
176
     0
 40
30.0
176
     0
 62
     7
176
     0
 90
        1
176
     0
 90
        4
176
     0
 62
     7
176
     0
 62
   257
176
     0
 90
        1
176
     0
 90
        1
176
     0
 40
1.0
176
     0
 90
        9
176
     2
 62
     7
176
     0
 40
1.0
176
     0
 90
        1
176
     0
 90
        6
176
     0
 90
        2
176
     0
 62
     7
176
     0
 90
        5
176
     0
 90
        0
176
     0
 90
        0
176
     0
290
     0
176
     0
 90
        1
176
     0
 40
0.0
176
     0
 90
        0
176
     0
290
     0
176
     1
290
     1
176
     1
290
     1
176
     1
290
     0
176
     1
290
     0
176
     1
290
     0
176
     1
290
     0
176
     1
290
     0
176
     1
290
     0
176
     1
 90
       50
176
     1
 40
0.0
176
     1
 40
1.0
176
     1
 90
        0
176
     1
 62
    18
420
        0
176
     1
 90
       50
176
     1
 90
        3
176
     1
 62
     5
420
      255
176
     1
290
     0
176
     1
 90
       50
176
     1
 90
       50
176
     1
 90
       50
176
     1
290
     0
176
     1
 90
       50
176
     1
 62
   256
176
     0
 40
1.0
176
     0
 90
        2
176
     1
  1
strokes_ogs.tif
176
     1
290
     0
176
     1
 40
1.0
176
     1
 40
1.0
176
     1
  0
VISUALSTYLE
  5
2BE
102
{ACAD_REACTORS
330
2B4
102
}
330
2B4
100
AcDbVisualStyle
  2
Realistic
 70
     8
177
     3
291
     0
 70
    58
 90
        2
176
     1
 90
        2
176
     1
 90
        0
176
     1
 90
        0
176
     1
 40
0.6
176
     1
 40
30.0
176
     1
 62
     7
176
     1
 90
        1
176
     1
 90
        0
176
     1
 62
     7
176
     1
 62
   257
176
     1
 90
        1
176
     1
 90
        1
176
     1
 40
1.0
176
     1
 90
        8
176
     1
 62
     8
176
     1
 40
1.0
176
     1
 90
        1
176
     1
 90
        6
176
     1
 90
        2
176
     1
 62
     7
176
     1
 90
        5
176
     1
 90
        0
176
     1
 90
        0
176
     1
290
     0
176
     1
 90
       13
176
     1
 40
0.0
176
     1
 90
        0
176
     1
290
     0
176
     1
290
     1
176
     1
290
     1
176
     1
290
     0
176
     1
290
     0
176
     1
290
     0
176
     1
290
     0
176
     1
290
     0
176
     1
290
     0
176
     1
 90
       50
176
     1
 40
0.0
176
     1
 40
1.0
176
     1
 90
        0
176
     1
 62
    18
420
        0
176
     1
 90
       50
176
     1
 90
        3
176
     1
 62
     5
420
      255
176
     1
290
     0
176
     1
 90
       50
176
     1
 90
       50
176
     1
 90
       50
176
     1
290
     0
176
     1
 90
       50
176
     1
 62
   256
176
     0
 40
1.0
176
     0
 90
        2
176
     1
  1
strokes_ogs.tif
176
     1
290
     0
176
     1
 40
1.0
176
     1
 40
1.0
176
     1
  0
VISUALSTYLE
  5
A22
102
{ACAD_REACTORS
330
2B4
102
}
330
2B4
100
AcDbVisualStyle
  2
Shaded
 70
    27
177
     3
291
     0
 70
    58
 90
        2
176
     1
 90
        2
176
     1
 90
        1
176
     1
 90
        2
176
     1
 40
0.6
176
     1
 40
30.0
176
     1
 62
     7
420
 16777215
176
     1
 90
        0
176
     1
 90
        4
176
     1
 62
     7
176
     1
 62
   257
176
     1
 90
        1
176
     1
 90
        1
176
     1
 40
1.0
176
     1
 90
        8
176
     1
 62
   257
176
     1
 40
1.0
176
     1
 90
        1
176
     1
 90
        6
176
     1
 90
        2
176
     1
 62
     8
420
  7895160
176
     1
 90
        3
176
     1
 90
        0
176
     1
 90
        0
176
     1
290
     0
176
     1
 90
        5
176
     1
 40
0.0
176
     1
 90
        0
176
     1
290
     0
176
     1
290
     1
176
     1
290
     1
176
     1
290
     0
176
     1
290
     0
176
     1
290
     0
176
     1
290
     0
176
     1
290
     0
176
     1
290
     0
176
     1
 90
       50
176
     1
 40
0.0
176
     1
 40
1.0
176
     1
 90
        0
176
     1
 62
    18
420
        0
176
     1
 90
       50
176
     1
 90
        3
176
     1
 62
     5
420
      255
176
     1
290
     0
176
     1
 90
       50
176
     1
 90
       50
176
     1
 90
       50
176
     1
290
     0
176
     1
 90
       50
176
     1
 62
   256
176
     0
 40
1.0
176
     0
 90
        2
176
     1
  1
strokes_ogs.tif
176
     1
290
     0
176
     1
 40
1.0
176
     1
 40
1.0
176
     1
  0
VISUALSTYLE
  5
A21
102
{ACAD_REACTORS
330
2B4
102
}
330
2B4
100
AcDbVisualStyle
  2
Shaded with edges
 70
    26
177
     3
291
     0
 70
    58
 90
        2
176
     1
 90
        2
176
     1
 90
        1
176
     1
 90
        2
176
     1
 40
0.6
176
     1
 40
30.0
176
     1
 62
     7
420
 16777215
176
     1
 90
        1
176
     1
 90
       10
176
     1
 62
     7
176
     1
 62
   257
176
     1
 90
        2
176
     1
 90
        1
176
     1
 40
1.0
176
     1
 90
        8
176
     1
 62
   257
176
     1
 40
1.0
176
     1
 90
        1
176
     1
 90
        6
176
     1
 90
        2
176
     1
 62
     7
176
     1
 90
        3
176
     1
 90
        0
176
     1
 90
        0
176
     1
290
     0
176
     1
 90
        5
176
     1
 40
0.0
176
     1
 90
        0
176
     1
290
     0
176
     1
290
     1
176
     1
290
     1
176
     1
290
     0
176
     1
290
     0
176
     1
290
     0
176
     1
290
     0
176
     1
290
     0
176
     1
290
     0
176
     1
 90
       50
176
     1
 40
0.0
176
     1
 40
1.0
176
     1
 90
        0
176
     1
 62
    18
420
        0
176
     1
 90
       50
176
     1
 90
        3
176
     1
 62
     5
420
      255
176
     1
290
     0
176
     1
 90
       50
176
     1
 90
       50
176
     1
 90
       50
176
     1
290
     0
176
     1
 90
       50
176
     1
 62
   256
176
     0
 40
1.0
176
     0
 90
        2
176
     1
  1
strokes_ogs.tif
176
     1
290
     0
176
     1
 40
1.0
176
     1
 40
1.0
176
     1
  0
VISUALSTYLE
  5
A1E
102
{ACAD_REACTORS
330
2B4
102
}
330
2B4
100
AcDbVisualStyle
  2
Shades of Gray
 70
    23
177
     3
291
     0
 70
    58
 90
        2
176
     1
 90
        2
176
     1
 90
        3
176
     1
 90
        0
176
     1
 40
0.6
176
     1
 40
30.0
176
     1
 62
     7
420
 16777215
176
     1
 90
        2
176
     1
 90
        2
176
     1
 62
     7
176
     1
 62
     7
176
     1
 90
        1
176
     1
 90
        1
176
     1
 40
40.0
176
     1
 90
        8
176
     1
 62
     7
176
     1
 40
1.0
176
     1
 90
        1
176
     1
 90
        6
176
     1
 90
        2
176
     1
 62
     7
176
     1
 90
        3
176
     1
 90
        0
176
     1
 90
        0
176
     1
290
     0
176
     1
 90
        1
176
     1
 40
0.0
176
     1
 90
        0
176
     1
290
     0
176
     1
290
     1
176
     1
290
     1
176
     1
290
     0
176
     1
290
     0
176
     1
290
     0
176
     1
290
     0
176
     1
290
     0
176
     1
290
     0
176
     1
 90
       50
176
     1
 40
0.0
176
     1
 40
1.0
176
     1
 90
        0
176
     1
 62
    18
420
        0
176
     1
 90
       50
176
     1
 90
        3
176
     1
 62
     5
420
      255
176
     1
290
     0
176
     1
 90
       50
176
     1
 90
       50
176
     1
 90
       50
176
     1
290
     0
176
     1
 90
       50
176
     1
 62
   256
176
     0
 40
1.0
176
     0
 90
        2
176
     1
  1
strokes_ogs.tif
176
     1
290
     0
176
     1
 40
1.0
176
     1
 40
1.0
176
     1
  0
VISUALSTYLE
  5
A1F
102
{ACAD_REACTORS
330
2B4
102
}
330
2B4
100
AcDbVisualStyle
  2
Sketchy
 70
    24
177
     3
291
     0
 70
    58
 90
        1
176
     1
 90
        2
176
     1
 90
        2
176
     1
 90
        0
176
     1
 40
0.6
176
     1
 40
30.0
176
     1
 62
     7
420
 16777215
176
     1
 90
        2
176
     1
 90
        2
176
     1
 62
     7
176
     1
 62
     7
176
     1
 90
        1
176
     1
 90
        1
176
     1
 40
40.0
176
     1
 90
       11
176
     1
 62
     7
176
     1
 40
1.0
176
     1
 90
        1
176
     1
 90
        6
176
     1
 90
        2
176
     1
 62
     7
176
     1
 90
        6
176
     1
 90
        0
176
     1
 90
        0
176
     1
290
     0
176
     1
 90
        1
176
     1
 40
0.0
176
     1
 90
        0
176
     1
290
     0
176
     1
290
     1
176
     1
290
     1
176
     1
290
     0
176
     1
290
     0
176
     1
290
     0
176
     1
290
     0
176
     1
290
     0
176
     1
290
     0
176
     1
 90
       50
176
     1
 40
0.0
176
     1
 40
1.0
176
     1
 90
        0
176
     1
 62
    18
420
        0
176
     1
 90
       50
176
     1
 90
        3
176
     1
 62
     5
420
      255
176
     1
290
     0
176
     1
 90
       50
176
     1
 90
       50
176
     1
 90
       50
176
     1
290
     0
176
     1
 90
       50
176
     1
 62
   256
176
     0
 40
1.0
176
     0
 90
        2
176
     1
  1
strokes_ogs.tif
176
     1
290
     0
176
     1
 40
1.0
176
     1
 40
1.0
176
     1
  0
VISUALSTYLE
  5
2C1
102
{ACAD_REACTORS
330
2B4
102
}
330
2B4
100
AcDbVisualStyle
  2
Thicken
 70
    13
177
     3
291
     1
 70
    58
 90
        2
176
     1
 90
        2
176
     1
 90
        0
176
     1
 90
        0
176
     1
 40
0.6
176
     1
 40
30.0
176
     1
 62
     7
176
     1
 90
        1
176
     1
 90
        4
176
     1
 62
     7
176
     1
 62
   257
176
     1
 90
        1
176
     1
 90
        1
176
     1
 40
1.0
176
     1
 90
       12
176
     1
 62
     7
176
     1
 40
1.0
176
     1
 90
        1
176
     1
 90
        6
176
     1
 90
        2
176
     1
 62
     7
176
     1
 90
        5
176
     1
 90
        0
176
     1
 90
        0
176
     1
290
     0
176
     1
 90
        1
176
     1
 40
0.0
176
     1
 90
        0
176
     1
290
     0
176
     1
290
     1
176
     1
290
     1
176
     1
290
     0
176
     1
290
     0
176
     1
290
     0
176
     1
290
     0
176
     1
290
     0
176
     1
290
     0
176
     1
 90
       50
176
     1
 40
0.0
176
     1
 40
1.0
176
     1
 90
        0
176
     1
 62
    18
420
        0
176
     1
 90
       50
176
     1
 90
        3
176
     1
 62
     5
420
      255
176
     1
290
     0
176
     1
 90
       50
176
     1
 90
       50
176
     1
 90
       50
176
     1
290
     0
176
     1
 90
       50
176
     1
 62
   256
176
     0
 40
1.0
176
     0
 90
        2
176
     1
  1
strokes_ogs.tif
176
     1
290
     0
176
     1
 40
1.0
176
     1
 40
1.0
176
     1
  0
VISUALSTYLE
  5
A1C
102
{ACAD_REACTORS
330
2B4
102
}
330
2B4
100
AcDbVisualStyle
  2
Wireframe
 70
     5
177
     3
291
     0
 70
    58
 90
        0
176
     1
 90
        2
176
     1
 90
        0
176
     1
 90
        0
176
     1
 40
0.6
176
     1
 40
30.0
176
     1
 62
     7
420
 16777215
176
     1
 90
        1
176
     1
 90
        4
176
     1
 62
     7
176
     1
 62
   257
176
     1
 90
        1
176
     1
 90
        1
176
     1
 40
1.0
176
     1
 90
        0
176
     1
 62
   257
176
     1
 40
1.0
176
     1
 90
        1
176
     1
 90
        6
176
     1
 90
        2
176
     1
 62
     7
176
     1
 90
        3
176
     1
 90
        0
176
     1
 90
        0
176
     1
290
     0
176
     1
 90
        1
176
     1
 40
0.0
176
     1
 90
        0
176
     1
290
     0
176
     1
290
     1
176
     1
290
     1
176
     1
290
     0
176
     1
290
     0
176
     1
290
     0
176
     1
290
     0
176
     1
290
     0
176
     1
290
     0
176
     1
 90
       50
176
     1
 40
0.0
176
     1
 40
1.0
176
     1
 90
        0
176
     1
 62
    18
420
        0
176
     1
 90
       50
176
     1
 90
        3
176
     1
 62
     5
420
      255
176
     1
290
     0
176
     1
 90
       50
176
     1
 90
       50
176
     1
 90
       50
176
     1
290
     0
176
     1
 90
       50
176
     1
 62
   256
176
     0
 40
1.0
176
     0
 90
        2
176
     1
  1
strokes_ogs.tif
176
     1
290
     0
176
     1
 40
1.0
176
     1
 40
1.0
176
     1
  0
VISUALSTYLE
  5
A20
102
{ACAD_REACTORS
330
2B4
102
}
330
2B4
100
AcDbVisualStyle
  2
X-Ray
 70
    25
177
     3
291
     0
 70
    58
 90
        2
176
     1
 90
        2
176
     1
 90
        1
176
     1
 90
        1
176
     1
 40
0.5
176
     1
 40
30.0
176
     1
 62
     7
420
 16777215
176
     1
 90
        1
176
     1
 90
        0
176
     1
 62
     7
176
     1
 62
   257
176
     1
 90
        1
176
     1
 90
        1
176
     1
 40
1.0
176
     1
 90
        8
176
     1
 62
     7
176
     1
 40
1.0
176
     1
 90
        1
176
     1
 90
        6
176
     1
 90
        2
176
     1
 62
     7
176
     1
 90
        3
176
     1
 90
        0
176
     1
 90
        0
176
     1
290
     0
176
     1
 90
       13
176
     1
 40
0.0
176
     1
 90
        0
176
     1
290
     0
176
     1
290
     1
176
     1
290
     1
176
     1
290
     0
176
     1
290
     0
176
     1
290
     0
176
     1
290
     0
176
     1
290
     0
176
     1
290
     0
176
     1
 90
       50
176
     1
 40
0.0
176
     1
 40
1.0
176
     1
 90
        0
176
     1
 62
    18
420
        0
176
     1
 90
       50
176
     1
 90
        3
176
     1
 62
     5
420
      255
176
     1
290
     0
176
     1
 90
       50
176
     1
 90
       50
176
     1
 90
       50
176
     1
290
     0
176
     1
 90
       50
176
     1
 62
   256
176
     0
 40
1.0
176
     0
 90
        2
176
     1
  1
strokes_ogs.tif
176
     1
290
     0
176
     1
 40
1.0
176
     1
 40
1.0
176
     1
  0
DICTIONARYVAR
  5
36B
102
{ACAD_REACTORS
330
2AA
102
}
330
2AA
100
DictionaryVariables
280
     0
  1
1:1
  0
DICTIONARYVAR
  5
369
102
{ACAD_REACTORS
330
2AA
102
}
330
2AA
100
DictionaryVariables
280
     0
  1
STANDARD
  0
DICTIONARYVAR
  5
312
102
{ACAD_REACTORS
330
2AA
102
}
330
2AA
100
DictionaryVariables
280
     0
  1
STANDARD
  0
DICTIONARYVAR
  5
A74
102
{ACAD_REACTORS
330
2AA
102
}
330
2AA
100
DictionaryVariables
280
     0
  1
Metric50
  0
DICTIONARYVAR
  5
A75
102
{ACAD_REACTORS
330
2AA
102
}
330
2AA
100
DictionaryVariables
280
     0
  1
Metric50
  0
DICTIONARYVAR
  5
2AB
102
{ACAD_REACTORS
330
2AA
102
}
330
2AA
100
DictionaryVariables
280
     0
  1
1
  0
DICTIONARYVAR
  5
A76
102
{ACAD_REACTORS
330
2AA
102
}
330
2AA
100
DictionaryVariables
280
     0
  1
0
  0
DICTIONARYVAR
  5
314
102
{ACAD_REACTORS
330
2AA
102
}
330
2AA
100
DictionaryVariables
280
     0
  1
0
  0
DICTIONARYVAR
  5
A77
102
{ACAD_REACTORS
330
2AA
102
}
330
2AA
100
DictionaryVariables
280
     0
  1
1
  0
DICTIONARYVAR
  5
A78
102
{ACAD_REACTORS
330
2AA
102
}
330
2AA
100
DictionaryVariables
280
     0
  1
15
  0
DICTIONARYVAR
  5
36C
102
{ACAD_REACTORS
330
2AA
102
}
330
2AA
100
DictionaryVariables
280
     0
  1
0
  0
DICTIONARYVAR
  5
36A
102
{ACAD_REACTORS
330
2AA
102
}
330
2AA
100
DictionaryVariables
280
     0
  1
0
  0
DICTIONARYVAR
  5
313
102
{ACAD_REACTORS
330
2AA
102
}
330
2AA
100
DictionaryVariables
280
     0
  1
127
  0
XRECORD
  5
A38
102
{ACAD_REACTORS
330
A37
102
}
330
A37
100
AcDbXrecord
280
     1
 91
        2
  0
ACDBQSCATEGORY
  5
A35
102
{ACAD_REACTORS
330
A34
102
}
330
A34
100
AcQsCategory
 70
     1
300
DEFAULT
290
     1
291
     1
 90
        0
  0
ACDBQSPALLSTYLE
  5
A3B
102
{ACAD_XDICTIONARY
360
A3C
102
}
102
{ACAD_REACTORS
330
A36
102
}
330
A36
  0
XRECORD
  5
A3F
102
{ACAD_REACTORS
330
A3E
102
}
330
A3E
100
AcDbXrecord
280
     1
 90
      202
 91
      144
  0
DICTIONARY
  5
B2A
330
A26
100
AcDbDictionary
280
     1
281
     1
  3
ACAD_XREC_ROUNDTRIP
360
B2B
  0
DICTIONARY
  5
B28
330
A24
100
AcDbDictionary
280
     1
281
     1
  3
ACAD_XREC_ROUNDTRIP
360
B29
  0
DICTIONARY
  5
366
330
31A
100
AcDbDictionary
280
     1
281
     1
  3
ACAD_ROUNDTRIP_2008_TABLESTYLE_CELLSTYLEMAP
360
B01
  0
DICTIONARY
  5
A4C
330
A4B
100
AcDbDictionary
280
     1
281
     1
  3
ACAD_ROUNDTRIP_2008_TABLESTYLE_CELLSTYLEMAP
360
B2C
  0
DICTIONARY
  5
364
330
2CC
100
AcDbDictionary
280
     1
281
     1
  3
ACAD_ROUNDTRIP_2008_TABLESTYLE_CELLSTYLEMAP
360
B00
  0
DICTIONARY
  5
A4E
330
A4D
100
AcDbDictionary
280
     1
281
     1
  3
ACAD_ROUNDTRIP_2008_TABLESTYLE_CELLSTYLEMAP
360
B2D
  0
DICTIONARY
  5
362
330
2C7
100
AcDbDictionary
280
     1
281
     1
  3
ACAD_ROUNDTRIP_2008_TABLESTYLE_CELLSTYLEMAP
360
AFF
  0
DICTIONARY
  5
A3C
330
A3B
100
AcDbDictionary
280
     1
281
     1
  3
XTRA_PROP
360
A3D
  0
XRECORD
  5
B2B
102
{ACAD_REACTORS
330
B2A
102
}
330
B2A
100
AcDbXrecord
280
     1
102
DISPLAYNAME
  1
Metric50
102
FLAGS
 90
        0
  0
XRECORD
  5
B29
102
{ACAD_REACTORS
330
B28
102
}
330
B28
100
AcDbXrecord
280
     1
102
DISPLAYNAME
  1
Metric50
102
FLAGS
 90
        0
  0
CELLSTYLEMAP
  5
B01
102
{ACAD_REACTORS
330
366
102
}
330
366
100
AcDbCellStyleMap
 90
        3
300
CELLSTYLE
  1
TABLEFORMAT_BEGIN
 90
        5
170
     1
 91
        0
 92
    32768
 62
   257
 93
        1
300
CONTENTFORMAT
  1
CONTENTFORMAT_BEGIN
 90
        0
 91
        0
 92
      512
 93
        0
300

 40
0.0
140
1.0
 94
        5
 62
     1
340
1B
144
6.0
309
CONTENTFORMAT_END
171
     1
301
MARGIN
  1
CELLMARGIN_BEGIN
 40
1.5
 40
1.5
 40
1.5
 40
1.5
 40
0.18
 40
0.18
309
CELLMARGIN_END
 94
        6
 95
        1
302
GRIDFORMAT
  1
GRIDFORMAT_BEGIN
 90
        0
 91
        1
 62
     0
 92
       -2
340
0
 93
        0
 40
0.045
309
GRIDFORMAT_END
 95
        2
302
GRIDFORMAT
  1
GRIDFORMAT_BEGIN
 90
        0
 91
        1
 62
     0
 92
       -2
340
0
 93
        0
 40
0.045
309
GRIDFORMAT_END
 95
        4
302
GRIDFORMAT
  1
GRIDFORMAT_BEGIN
 90
        0
 91
        1
 62
     0
 92
       -2
340
0
 93
        0
 40
0.045
309
GRIDFORMAT_END
 95
        8
302
GRIDFORMAT
  1
GRIDFORMAT_BEGIN
 90
        0
 91
        1
 62
     0
 92
       -2
340
0
 93
        0
 40
0.045
309
GRIDFORMAT_END
 95
       16
302
GRIDFORMAT
  1
GRIDFORMAT_BEGIN
 90
        0
 91
        1
 62
     0
 92
       -2
340
0
 93
        0
 40
0.045
309
GRIDFORMAT_END
 95
       32
302
GRIDFORMAT
  1
GRIDFORMAT_BEGIN
 90
        0
 91
        1
 62
     0
 92
       -2
340
0
 93
        0
 40
0.045
309
GRIDFORMAT_END
309
TABLEFORMAT_END
  1
CELLSTYLE_BEGIN
 90
        1
 91
        1
300
_TITLE
309
CELLSTYLE_END
300
CELLSTYLE
  1
TABLEFORMAT_BEGIN
 90
        5
170
     1
 91
        0
 92
        0
 62
   257
 93
        1
300
CONTENTFORMAT
  1
CONTENTFORMAT_BEGIN
 90
        0
 91
        0
 92
      512
 93
        0
300

 40
0.0
140
1.0
 94
        5
 62
     3
340
1B
144
3.5
309
CONTENTFORMAT_END
171
     1
301
MARGIN
  1
CELLMARGIN_BEGIN
 40
1.5
 40
1.5
 40
1.5
 40
1.5
 40
0.18
 40
0.18
309
CELLMARGIN_END
 94
        6
 95
        1
302
GRIDFORMAT
  1
GRIDFORMAT_BEGIN
 90
        0
 91
        1
 62
     0
 92
       -2
340
0
 93
        0
 40
0.045
309
GRIDFORMAT_END
 95
        2
302
GRIDFORMAT
  1
GRIDFORMAT_BEGIN
 90
        0
 91
        1
 62
     0
 92
       -2
340
0
 93
        0
 40
0.045
309
GRIDFORMAT_END
 95
        4
302
GRIDFORMAT
  1
GRIDFORMAT_BEGIN
 90
        0
 91
        1
 62
     0
 92
       -2
340
0
 93
        0
 40
0.045
309
GRIDFORMAT_END
 95
        8
302
GRIDFORMAT
  1
GRIDFORMAT_BEGIN
 90
        0
 91
        1
 62
     0
 92
       -2
340
0
 93
        0
 40
0.045
309
GRIDFORMAT_END
 95
       16
302
GRIDFORMAT
  1
GRIDFORMAT_BEGIN
 90
        0
 91
        1
 62
     0
 92
       -2
340
0
 93
        0
 40
0.045
309
GRIDFORMAT_END
 95
       32
302
GRIDFORMAT
  1
GRIDFORMAT_BEGIN
 90
        0
 91
        1
 62
     0
 92
       -2
340
0
 93
        0
 40
0.045
309
GRIDFORMAT_END
309
TABLEFORMAT_END
  1
CELLSTYLE_BEGIN
 90
        2
 91
        1
300
_HEADER
309
CELLSTYLE_END
300
CELLSTYLE
  1
TABLEFORMAT_BEGIN
 90
        5
170
     1
 91
        0
 92
        0
 62
   257
 93
        1
300
CONTENTFORMAT
  1
CONTENTFORMAT_BEGIN
 90
        0
 91
        0
 92
      512
 93
        0
300

 40
0.0
140
1.0
 94
        5
 62
     7
340
1B
144
3.0
309
CONTENTFORMAT_END
171
     1
301
MARGIN
  1
CELLMARGIN_BEGIN
 40
1.5
 40
1.5
 40
1.5
 40
1.5
 40
0.18
 40
0.18
309
CELLMARGIN_END
 94
        6
 95
        1
302
GRIDFORMAT
  1
GRIDFORMAT_BEGIN
 90
        0
 91
        1
 62
     0
 92
       -2
340
0
 93
        0
 40
0.045
309
GRIDFORMAT_END
 95
        2
302
GRIDFORMAT
  1
GRIDFORMAT_BEGIN
 90
        0
 91
        1
 62
     0
 92
       -2
340
0
 93
        0
 40
0.045
309
GRIDFORMAT_END
 95
        4
302
GRIDFORMAT
  1
GRIDFORMAT_BEGIN
 90
        0
 91
        1
 62
     0
 92
       -2
340
0
 93
        0
 40
0.045
309
GRIDFORMAT_END
 95
        8
302
GRIDFORMAT
  1
GRIDFORMAT_BEGIN
 90
        0
 91
        1
 62
     0
 92
       -2
340
0
 93
        0
 40
0.045
309
GRIDFORMAT_END
 95
       16
302
GRIDFORMAT
  1
GRIDFORMAT_BEGIN
 90
        0
 91
        1
 62
     0
 92
       -2
340
0
 93
        0
 40
0.045
309
GRIDFORMAT_END
 95
       32
302
GRIDFORMAT
  1
GRIDFORMAT_BEGIN
 90
        0
 91
        1
 62
     0
 92
       -2
340
0
 93
        0
 40
0.045
309
GRIDFORMAT_END
309
TABLEFORMAT_END
  1
CELLSTYLE_BEGIN
 90
        3
 91
        2
300
_DATA
309
CELLSTYLE_END
  0
CELLSTYLEMAP
  5
B2C
102
{ACAD_REACTORS
330
A4C
102
}
330
A4C
100
AcDbCellStyleMap
 90
        3
300
CELLSTYLE
  1
TABLEFORMAT_BEGIN
 90
        5
170
     1
 91
        0
 92
    32768
 62
   257
 93
        1
300
CONTENTFORMAT
  1
CONTENTFORMAT_BEGIN
 90
        0
 91
        0
 92
      512
 93
        0
300

 40
0.0
140
1.0
 94
        5
 62
     1
340
A41
144
2.5
309
CONTENTFORMAT_END
171
     1
301
MARGIN
  1
CELLMARGIN_BEGIN
 40
1.0
 40
1.0
 40
1.5
 40
1.5
 40
0.18
 40
0.18
309
CELLMARGIN_END
 94
        6
 95
        1
302
GRIDFORMAT
  1
GRIDFORMAT_BEGIN
 90
        0
 91
        1
 62
     3
 92
       -2
340
5
 93
        0
 40
0.045
309
GRIDFORMAT_END
 95
        2
302
GRIDFORMAT
  1
GRIDFORMAT_BEGIN
 90
        0
 91
        1
 62
     3
 92
       -2
340
5
 93
        0
 40
0.045
309
GRIDFORMAT_END
 95
        4
302
GRIDFORMAT
  1
GRIDFORMAT_BEGIN
 90
        0
 91
        1
 62
     3
 92
       -2
340
5
 93
        0
 40
0.045
309
GRIDFORMAT_END
 95
        8
302
GRIDFORMAT
  1
GRIDFORMAT_BEGIN
 90
        0
 91
        1
 62
     3
 92
       -2
340
5
 93
        0
 40
0.045
309
GRIDFORMAT_END
 95
       16
302
GRIDFORMAT
  1
GRIDFORMAT_BEGIN
 90
        0
 91
        1
 62
     3
 92
       -2
340
5
 93
        0
 40
0.045
309
GRIDFORMAT_END
 95
       32
302
GRIDFORMAT
  1
GRIDFORMAT_BEGIN
 90
        0
 91
        1
 62
     3
 92
       -2
340
5
 93
        0
 40
0.045
309
GRIDFORMAT_END
309
TABLEFORMAT_END
  1
CELLSTYLE_BEGIN
 90
        1
 91
        1
300
_TITLE
309
CELLSTYLE_END
300
CELLSTYLE
  1
TABLEFORMAT_BEGIN
 90
        5
170
     1
 91
        0
 92
        0
 62
   257
 93
        1
300
CONTENTFORMAT
  1
CONTENTFORMAT_BEGIN
 90
        0
 91
        0
 92
      512
 93
        0
300

 40
0.0
140
1.0
 94
        5
 62
     1
340
A41
144
2.5
309
CONTENTFORMAT_END
171
     1
301
MARGIN
  1
CELLMARGIN_BEGIN
 40
1.0
 40
1.0
 40
1.5
 40
1.5
 40
0.18
 40
0.18
309
CELLMARGIN_END
 94
        6
 95
        1
302
GRIDFORMAT
  1
GRIDFORMAT_BEGIN
 90
        0
 91
        1
 62
     3
 92
       -2
340
5
 93
        0
 40
0.045
309
GRIDFORMAT_END
 95
        2
302
GRIDFORMAT
  1
GRIDFORMAT_BEGIN
 90
        0
 91
        1
 62
     3
 92
       -2
340
5
 93
        0
 40
0.045
309
GRIDFORMAT_END
 95
        4
302
GRIDFORMAT
  1
GRIDFORMAT_BEGIN
 90
        0
 91
        1
 62
     3
 92
       -2
340
5
 93
        0
 40
0.045
309
GRIDFORMAT_END
 95
        8
302
GRIDFORMAT
  1
GRIDFORMAT_BEGIN
 90
        0
 91
        1
 62
     3
 92
       -2
340
5
 93
        0
 40
0.045
309
GRIDFORMAT_END
 95
       16
302
GRIDFORMAT
  1
GRIDFORMAT_BEGIN
 90
        0
 91
        1
 62
     1
 92
       -2
340
5
 93
        0
 40
0.045
309
GRIDFORMAT_END
 95
       32
302
GRIDFORMAT
  1
GRIDFORMAT_BEGIN
 90
        0
 91
        1
 62
     1
 92
       -2
340
5
 93
        0
 40
0.045
309
GRIDFORMAT_END
309
TABLEFORMAT_END
  1
CELLSTYLE_BEGIN
 90
        2
 91
        1
300
_HEADER
309
CELLSTYLE_END
300
CELLSTYLE
  1
TABLEFORMAT_BEGIN
 90
        5
170
     1
 91
        0
 92
        0
 62
   257
 93
        1
300
CONTENTFORMAT
  1
CONTENTFORMAT_BEGIN
 90
        0
 91
        0
 92
      512
 93
        0
300

 40
0.0
140
1.0
 94
        4
 62
     7
340
A41
144
2.5
309
CONTENTFORMAT_END
171
     1
301
MARGIN
  1
CELLMARGIN_BEGIN
 40
1.0
 40
1.0
 40
1.5
 40
1.5
 40
0.18
 40
0.18
309
CELLMARGIN_END
 94
        6
 95
        1
302
GRIDFORMAT
  1
GRIDFORMAT_BEGIN
 90
        0
 91
        1
 62
     3
 92
       -2
340
5
 93
        0
 40
0.045
309
GRIDFORMAT_END
 95
        2
302
GRIDFORMAT
  1
GRIDFORMAT_BEGIN
 90
        0
 91
        1
 62
     3
 92
       -2
340
5
 93
        0
 40
0.045
309
GRIDFORMAT_END
 95
        4
302
GRIDFORMAT
  1
GRIDFORMAT_BEGIN
 90
        0
 91
        1
 62
     3
 92
       -2
340
5
 93
        0
 40
0.045
309
GRIDFORMAT_END
 95
        8
302
GRIDFORMAT
  1
GRIDFORMAT_BEGIN
 90
        0
 91
        1
 62
     3
 92
       -2
340
5
 93
        0
 40
0.045
309
GRIDFORMAT_END
 95
       16
302
GRIDFORMAT
  1
GRIDFORMAT_BEGIN
 90
        0
 91
        1
 62
     1
 92
       -2
340
5
 93
        0
 40
0.045
309
GRIDFORMAT_END
 95
       32
302
GRIDFORMAT
  1
GRIDFORMAT_BEGIN
 90
        0
 91
        1
 62
     1
 92
       -2
340
5
 93
        0
 40
0.045
309
GRIDFORMAT_END
309
TABLEFORMAT_END
  1
CELLSTYLE_BEGIN
 90
        3
 91
        2
300
_DATA
309
CELLSTYLE_END
  0
CELLSTYLEMAP
  5
B00
102
{ACAD_REACTORS
330
364
102
}
330
364
100
AcDbCellStyleMap
 90
        3
300
CELLSTYLE
  1
TABLEFORMAT_BEGIN
 90
        5
170
     1
 91
        0
 92
    32768
 62
   257
 93
        1
300
CONTENTFORMAT
  1
CONTENTFORMAT_BEGIN
 90
        0
 91
        0
 92
      512
 93
        0
300

 40
0.0
140
1.0
 94
        5
 62
     1
340
1B
144
6.0
309
CONTENTFORMAT_END
171
     1
301
MARGIN
  1
CELLMARGIN_BEGIN
 40
1.5
 40
1.5
 40
1.5
 40
1.5
 40
0.18
 40
0.18
309
CELLMARGIN_END
 94
        6
 95
        1
302
GRIDFORMAT
  1
GRIDFORMAT_BEGIN
 90
        0
 91
        1
 62
     0
 92
       -2
340
0
 93
        0
 40
0.045
309
GRIDFORMAT_END
 95
        2
302
GRIDFORMAT
  1
GRIDFORMAT_BEGIN
 90
        0
 91
        1
 62
     0
 92
       -2
340
0
 93
        0
 40
0.045
309
GRIDFORMAT_END
 95
        4
302
GRIDFORMAT
  1
GRIDFORMAT_BEGIN
 90
        0
 91
        1
 62
     0
 92
       -2
340
0
 93
        0
 40
0.045
309
GRIDFORMAT_END
 95
        8
302
GRIDFORMAT
  1
GRIDFORMAT_BEGIN
 90
        0
 91
        1
 62
     0
 92
       -2
340
0
 93
        0
 40
0.045
309
GRIDFORMAT_END
 95
       16
302
GRIDFORMAT
  1
GRIDFORMAT_BEGIN
 90
        0
 91
        1
 62
     0
 92
       -2
340
0
 93
        0
 40
0.045
309
GRIDFORMAT_END
 95
       32
302
GRIDFORMAT
  1
GRIDFORMAT_BEGIN
 90
        0
 91
        1
 62
     0
 92
       -2
340
0
 93
        0
 40
0.045
309
GRIDFORMAT_END
309
TABLEFORMAT_END
  1
CELLSTYLE_BEGIN
 90
        1
 91
        1
300
_TITLE
309
CELLSTYLE_END
300
CELLSTYLE
  1
TABLEFORMAT_BEGIN
 90
        5
170
     1
 91
        0
 92
        0
 62
   257
 93
        1
300
CONTENTFORMAT
  1
CONTENTFORMAT_BEGIN
 90
        0
 91
        0
 92
      512
 93
        0
300

 40
0.0
140
1.0
 94
        5
 62
     3
340
1B
144
5.0
309
CONTENTFORMAT_END
171
     1
301
MARGIN
  1
CELLMARGIN_BEGIN
 40
1.5
 40
1.5
 40
1.5
 40
1.5
 40
0.18
 40
0.18
309
CELLMARGIN_END
 94
        6
 95
        1
302
GRIDFORMAT
  1
GRIDFORMAT_BEGIN
 90
        0
 91
        1
 62
     0
 92
       -2
340
0
 93
        0
 40
0.045
309
GRIDFORMAT_END
 95
        2
302
GRIDFORMAT
  1
GRIDFORMAT_BEGIN
 90
        0
 91
        1
 62
     0
 92
       -2
340
0
 93
        0
 40
0.045
309
GRIDFORMAT_END
 95
        4
302
GRIDFORMAT
  1
GRIDFORMAT_BEGIN
 90
        0
 91
        1
 62
     0
 92
       -2
340
0
 93
        0
 40
0.045
309
GRIDFORMAT_END
 95
        8
302
GRIDFORMAT
  1
GRIDFORMAT_BEGIN
 90
        0
 91
        1
 62
     0
 92
       -2
340
0
 93
        0
 40
0.045
309
GRIDFORMAT_END
 95
       16
302
GRIDFORMAT
  1
GRIDFORMAT_BEGIN
 90
        0
 91
        1
 62
     0
 92
       -2
340
0
 93
        0
 40
0.045
309
GRIDFORMAT_END
 95
       32
302
GRIDFORMAT
  1
GRIDFORMAT_BEGIN
 90
        0
 91
        1
 62
     0
 92
       -2
340
0
 93
        0
 40
0.045
309
GRIDFORMAT_END
309
TABLEFORMAT_END
  1
CELLSTYLE_BEGIN
 90
        2
 91
        1
300
_HEADER
309
CELLSTYLE_END
300
CELLSTYLE
  1
TABLEFORMAT_BEGIN
 90
        5
170
     1
 91
        0
 92
        0
 62
   257
 93
        1
300
CONTENTFORMAT
  1
CONTENTFORMAT_BEGIN
 90
        0
 91
        0
 92
      512
 93
        0
300

 40
0.0
140
1.0
 94
        5
 62
     7
340
1B
144
4.5
309
CONTENTFORMAT_END
171
     1
301
MARGIN
  1
CELLMARGIN_BEGIN
 40
1.5
 40
1.5
 40
1.5
 40
1.5
 40
0.18
 40
0.18
309
CELLMARGIN_END
 94
        6
 95
        1
302
GRIDFORMAT
  1
GRIDFORMAT_BEGIN
 90
        0
 91
        1
 62
     0
 92
       -2
340
0
 93
        0
 40
0.045
309
GRIDFORMAT_END
 95
        2
302
GRIDFORMAT
  1
GRIDFORMAT_BEGIN
 90
        0
 91
        1
 62
     0
 92
       -2
340
0
 93
        0
 40
0.045
309
GRIDFORMAT_END
 95
        4
302
GRIDFORMAT
  1
GRIDFORMAT_BEGIN
 90
        0
 91
        1
 62
     0
 92
       -2
340
0
 93
        0
 40
0.045
309
GRIDFORMAT_END
 95
        8
302
GRIDFORMAT
  1
GRIDFORMAT_BEGIN
 90
        0
 91
        1
 62
     0
 92
       -2
340
0
 93
        0
 40
0.045
309
GRIDFORMAT_END
 95
       16
302
GRIDFORMAT
  1
GRIDFORMAT_BEGIN
 90
        0
 91
        1
 62
     0
 92
       -2
340
0
 93
        0
 40
0.045
309
GRIDFORMAT_END
 95
       32
302
GRIDFORMAT
  1
GRIDFORMAT_BEGIN
 90
        0
 91
        1
 62
     0
 92
       -2
340
0
 93
        0
 40
0.045
309
GRIDFORMAT_END
309
TABLEFORMAT_END
  1
CELLSTYLE_BEGIN
 90
        3
 91
        2
300
_DATA
309
CELLSTYLE_END
  0
CELLSTYLEMAP
  5
B2D
102
{ACAD_REACTORS
330
A4E
102
}
330
A4E
100
AcDbCellStyleMap
 90
        3
300
CELLSTYLE
  1
TABLEFORMAT_BEGIN
 90
        5
170
     1
 91
        0
 92
    32768
 62
   257
 93
        1
300
CONTENTFORMAT
  1
CONTENTFORMAT_BEGIN
 90
        0
 91
        0
 92
      512
 93
        0
300

 40
0.0
140
1.0
 94
        5
 62
     7
340
A41
144
2.5
309
CONTENTFORMAT_END
171
     1
301
MARGIN
  1
CELLMARGIN_BEGIN
 40
1.5
 40
1.5
 40
1.5
 40
1.5
 40
0.18
 40
0.18
309
CELLMARGIN_END
 94
        6
 95
        1
302
GRIDFORMAT
  1
GRIDFORMAT_BEGIN
 90
        0
 91
        1
 62
     3
 92
       -2
340
5
 93
        0
 40
0.045
309
GRIDFORMAT_END
 95
        2
302
GRIDFORMAT
  1
GRIDFORMAT_BEGIN
 90
        0
 91
        1
 62
     3
 92
       -2
340
5
 93
        0
 40
0.045
309
GRIDFORMAT_END
 95
        4
302
GRIDFORMAT
  1
GRIDFORMAT_BEGIN
 90
        0
 91
        1
 62
     3
 92
       -2
340
5
 93
        0
 40
0.045
309
GRIDFORMAT_END
 95
        8
302
GRIDFORMAT
  1
GRIDFORMAT_BEGIN
 90
        0
 91
        1
 62
     3
 92
       -2
340
5
 93
        0
 40
0.045
309
GRIDFORMAT_END
 95
       16
302
GRIDFORMAT
  1
GRIDFORMAT_BEGIN
 90
        0
 91
        1
 62
     3
 92
       -2
340
5
 93
        0
 40
0.045
309
GRIDFORMAT_END
 95
       32
302
GRIDFORMAT
  1
GRIDFORMAT_BEGIN
 90
        0
 91
        1
 62
     3
 92
       -2
340
5
 93
        0
 40
0.045
309
GRIDFORMAT_END
309
TABLEFORMAT_END
  1
CELLSTYLE_BEGIN
 90
        1
 91
        1
300
_TITLE
309
CELLSTYLE_END
300
CELLSTYLE
  1
TABLEFORMAT_BEGIN
 90
        5
170
     1
 91
        0
 92
        0
 62
   257
 93
        1
300
CONTENTFORMAT
  1
CONTENTFORMAT_BEGIN
 90
        0
 91
        0
 92
      512
 93
        0
300

 40
0.0
140
1.0
 94
        5
 62
     7
340
A41
144
1.75
309
CONTENTFORMAT_END
171
     1
301
MARGIN
  1
CELLMARGIN_BEGIN
 40
1.5
 40
1.5
 40
1.5
 40
1.5
 40
0.18
 40
0.18
309
CELLMARGIN_END
 94
        6
 95
        1
302
GRIDFORMAT
  1
GRIDFORMAT_BEGIN
 90
        0
 91
        1
 62
     3
 92
       -2
340
5
 93
        0
 40
0.045
309
GRIDFORMAT_END
 95
        2
302
GRIDFORMAT
  1
GRIDFORMAT_BEGIN
 90
        0
 91
        1
 62
     3
 92
       -2
340
5
 93
        0
 40
0.045
309
GRIDFORMAT_END
 95
        4
302
GRIDFORMAT
  1
GRIDFORMAT_BEGIN
 90
        0
 91
        1
 62
     3
 92
       -2
340
5
 93
        0
 40
0.045
309
GRIDFORMAT_END
 95
        8
302
GRIDFORMAT
  1
GRIDFORMAT_BEGIN
 90
        0
 91
        1
 62
     3
 92
       -2
340
5
 93
        0
 40
0.045
309
GRIDFORMAT_END
 95
       16
302
GRIDFORMAT
  1
GRIDFORMAT_BEGIN
 90
        0
 91
        1
 62
     3
 92
       -2
340
5
 93
        0
 40
0.045
309
GRIDFORMAT_END
 95
       32
302
GRIDFORMAT
  1
GRIDFORMAT_BEGIN
 90
        0
 91
        1
 62
     3
 92
       -2
340
5
 93
        0
 40
0.045
309
GRIDFORMAT_END
309
TABLEFORMAT_END
  1
CELLSTYLE_BEGIN
 90
        2
 91
        1
300
_HEADER
309
CELLSTYLE_END
300
CELLSTYLE
  1
TABLEFORMAT_BEGIN
 90
        5
170
     1
 91
        0
 92
        0
 62
   257
 93
        1
300
CONTENTFORMAT
  1
CONTENTFORMAT_BEGIN
 90
        0
 91
        0
 92
      512
 93
        0
300

 40
0.0
140
1.0
 94
        4
 62
     2
340
A41
144
2.5
309
CONTENTFORMAT_END
171
     1
301
MARGIN
  1
CELLMARGIN_BEGIN
 40
1.5
 40
1.5
 40
1.5
 40
1.5
 40
0.18
 40
0.18
309
CELLMARGIN_END
 94
        6
 95
        1
302
GRIDFORMAT
  1
GRIDFORMAT_BEGIN
 90
        0
 91
        1
 62
     3
 92
       -2
340
5
 93
        0
 40
0.045
309
GRIDFORMAT_END
 95
        2
302
GRIDFORMAT
  1
GRIDFORMAT_BEGIN
 90
        0
 91
        1
 62
     3
 92
       -2
340
5
 93
        0
 40
0.045
309
GRIDFORMAT_END
 95
        4
302
GRIDFORMAT
  1
GRIDFORMAT_BEGIN
 90
        0
 91
        1
 62
     3
 92
       -2
340
5
 93
        0
 40
0.045
309
GRIDFORMAT_END
 95
        8
302
GRIDFORMAT
  1
GRIDFORMAT_BEGIN
 90
        0
 91
        1
 62
     3
 92
       -2
340
5
 93
        0
 40
0.045
309
GRIDFORMAT_END
 95
       16
302
GRIDFORMAT
  1
GRIDFORMAT_BEGIN
 90
        0
 91
        1
 62
     3
 92
       -2
340
5
 93
        0
 40
0.045
309
GRIDFORMAT_END
 95
       32
302
GRIDFORMAT
  1
GRIDFORMAT_BEGIN
 90
        0
 91
        1
 62
     3
 92
       -2
340
5
 93
        0
 40
0.045
309
GRIDFORMAT_END
309
TABLEFORMAT_END
  1
CELLSTYLE_BEGIN
 90
        3
 91
        2
300
_DATA
309
CELLSTYLE_END
  0
CELLSTYLEMAP
  5
AFF
102
{ACAD_REACTORS
330
362
102
}
330
362
100
AcDbCellStyleMap
 90
        3
300
CELLSTYLE
  1
TABLEFORMAT_BEGIN
 90
        5
170
     1
 91
        0
 92
    32768
 62
   257
 93
        1
300
CONTENTFORMAT
  1
CONTENTFORMAT_BEGIN
 90
        0
 91
        0
 92
      512
 93
        0
300

 40
0.0
140
1.0
 94
        5
 62
     0
340
C
144
6.0
309
CONTENTFORMAT_END
171
     1
301
MARGIN
  1
CELLMARGIN_BEGIN
 40
1.5
 40
1.5
 40
1.5
 40
1.5
 40
0.18
 40
0.18
309
CELLMARGIN_END
 94
        6
 95
        1
302
GRIDFORMAT
  1
GRIDFORMAT_BEGIN
 90
        0
 91
        1
 62
     0
 92
       -2
340
0
 93
        0
 40
0.045
309
GRIDFORMAT_END
 95
        2
302
GRIDFORMAT
  1
GRIDFORMAT_BEGIN
 90
        0
 91
        1
 62
     0
 92
       -2
340
0
 93
        0
 40
0.045
309
GRIDFORMAT_END
 95
        4
302
GRIDFORMAT
  1
GRIDFORMAT_BEGIN
 90
        0
 91
        1
 62
     0
 92
       -2
340
0
 93
        0
 40
0.045
309
GRIDFORMAT_END
 95
        8
302
GRIDFORMAT
  1
GRIDFORMAT_BEGIN
 90
        0
 91
        1
 62
     0
 92
       -2
340
0
 93
        0
 40
0.045
309
GRIDFORMAT_END
 95
       16
302
GRIDFORMAT
  1
GRIDFORMAT_BEGIN
 90
        0
 91
        1
 62
     0
 92
       -2
340
0
 93
        0
 40
0.045
309
GRIDFORMAT_END
 95
       32
302
GRIDFORMAT
  1
GRIDFORMAT_BEGIN
 90
        0
 91
        1
 62
     0
 92
       -2
340
0
 93
        0
 40
0.045
309
GRIDFORMAT_END
309
TABLEFORMAT_END
  1
CELLSTYLE_BEGIN
 90
        1
 91
        1
300
_TITLE
309
CELLSTYLE_END
300
CELLSTYLE
  1
TABLEFORMAT_BEGIN
 90
        5
170
     1
 91
        0
 92
        0
 62
   257
 93
        1
300
CONTENTFORMAT
  1
CONTENTFORMAT_BEGIN
 90
        0
 91
        0
 92
      512
 93
        0
300

 40
0.0
140
1.0
 94
        5
 62
     0
340
C
144
4.5
309
CONTENTFORMAT_END
171
     1
301
MARGIN
  1
CELLMARGIN_BEGIN
 40
1.5
 40
1.5
 40
1.5
 40
1.5
 40
0.18
 40
0.18
309
CELLMARGIN_END
 94
        6
 95
        1
302
GRIDFORMAT
  1
GRIDFORMAT_BEGIN
 90
        0
 91
        1
 62
     0
 92
       -2
340
0
 93
        0
 40
0.045
309
GRIDFORMAT_END
 95
        2
302
GRIDFORMAT
  1
GRIDFORMAT_BEGIN
 90
        0
 91
        1
 62
     0
 92
       -2
340
0
 93
        0
 40
0.045
309
GRIDFORMAT_END
 95
        4
302
GRIDFORMAT
  1
GRIDFORMAT_BEGIN
 90
        0
 91
        1
 62
     0
 92
       -2
340
0
 93
        0
 40
0.045
309
GRIDFORMAT_END
 95
        8
302
GRIDFORMAT
  1
GRIDFORMAT_BEGIN
 90
        0
 91
        1
 62
     0
 92
       -2
340
0
 93
        0
 40
0.045
309
GRIDFORMAT_END
 95
       16
302
GRIDFORMAT
  1
GRIDFORMAT_BEGIN
 90
        0
 91
        1
 62
     0
 92
       -2
340
0
 93
        0
 40
0.045
309
GRIDFORMAT_END
 95
       32
302
GRIDFORMAT
  1
GRIDFORMAT_BEGIN
 90
        0
 91
        1
 62
     0
 92
       -2
340
0
 93
        0
 40
0.045
309
GRIDFORMAT_END
309
TABLEFORMAT_END
  1
CELLSTYLE_BEGIN
 90
        2
 91
        1
300
_HEADER
309
CELLSTYLE_END
300
CELLSTYLE
  1
TABLEFORMAT_BEGIN
 90
        5
170
     1
 91
        0
 92
        0
 62
   257
 93
        1
300
CONTENTFORMAT
  1
CONTENTFORMAT_BEGIN
 90
        0
 91
        0
 92
      512
 93
        0
300

 40
0.0
140
1.0
 94
        2
 62
     0
340
C
144
4.5
309
CONTENTFORMAT_END
171
     1
301
MARGIN
  1
CELLMARGIN_BEGIN
 40
1.5
 40
1.5
 40
1.5
 40
1.5
 40
0.18
 40
0.18
309
CELLMARGIN_END
 94
        6
 95
        1
302
GRIDFORMAT
  1
GRIDFORMAT_BEGIN
 90
        0
 91
        1
 62
     0
 92
       -2
340
0
 93
        0
 40
0.045
309
GRIDFORMAT_END
 95
        2
302
GRIDFORMAT
  1
GRIDFORMAT_BEGIN
 90
        0
 91
        1
 62
     0
 92
       -2
340
0
 93
        0
 40
0.045
309
GRIDFORMAT_END
 95
        4
302
GRIDFORMAT
  1
GRIDFORMAT_BEGIN
 90
        0
 91
        1
 62
     0
 92
       -2
340
0
 93
        0
 40
0.045
309
GRIDFORMAT_END
 95
        8
302
GRIDFORMAT
  1
GRIDFORMAT_BEGIN
 90
        0
 91
        1
 62
     0
 92
       -2
340
0
 93
        0
 40
0.045
309
GRIDFORMAT_END
 95
       16
302
GRIDFORMAT
  1
GRIDFORMAT_BEGIN
 90
        0
 91
        1
 62
     0
 92
       -2
340
0
 93
        0
 40
0.045
309
GRIDFORMAT_END
 95
       32
302
GRIDFORMAT
  1
GRIDFORMAT_BEGIN
 90
        0
 91
        1
 62
     0
 92
       -2
340
0
 93
        0
 40
0.045
309
GRIDFORMAT_END
309
TABLEFORMAT_END
  1
CELLSTYLE_BEGIN
 90
        3
 91
        2
300
_DATA
309
CELLSTYLE_END
  0
XRECORD
  5
A3D
102
{ACAD_REACTORS
330
A3C
102
}
330
A3C
100
AcDbXrecord
280
     1
102
qsTableStyle
  1
QS
102
usesAcadTableStyle
 90
        0
102
sommaQtaSoloPrtConStessoPos
 90
        0
102
ricalcolaPosAttrDaAttrRaggruppamento
 90
        0
102
azionePallinaParte
 90
        1
102
posMask
  1
{POS.}
102
tableFitCellText
 90
        1
102
attrSortTab
  1
POS.
102
simplifyPallOnStretch
 90
        1
102
distPall
 40
15.0
102
sortByTree
 90
        0
  0
ENDSEC
  0
EOF
