  0
SECTION
  2
HEADER
  9
$ACADVER
  1
AC1015
  9
$ACADMAINTVER
 70
    20
  9
$DWGCODEPAGE
  3
ANSI_1252
  9
$INSBASE
 10
0.0
 20
0.0
 30
0.0
  9
$EXTMIN
 10
-0.1409902332128468
 20
-0.3716118577536918
 30
-0.0015258207003583
  9
$EXTMAX
 10
109.7360235659126
 20
86.68542525135615
 30
0.0000000349246037
  9
$LIMMIN
 10
0.0
 20
0.0
  9
$LIMMAX
 10
420.0
 20
297.0
  9
$ORTHOMODE
 70
     0
  9
$REGENMODE
 70
     1
  9
$FILLMODE
 70
     1
  9
$QTEXTMODE
 70
     0
  9
$MIRRTEXT
 70
     1
  9
$LTSCALE
 40
3.549999999999999
  9
$ATTMODE
 70
     1
  9
$TEXTSIZE
 40
2.5
  9
$TRACEWID
 40
1.0
  9
$TEXTSTYLE
  7
Standard
  9
$CLAYER
  8
0
  9
$CELTYPE
  6
ByLayer
  9
$CECOLOR
 62
   256
  9
$CELTSCALE
 40
1.0
  9
$DISPSILH
 70
     0
  9
$DIMSCALE
 40
1.0
  9
$DIMASZ
 40
2.5
  9
$DIMEXO
 40
0.625
  9
$DIMDLI
 40
3.75
  9
$DIMRND
 40
0.0
  9
$DIMDLE
 40
0.0
  9
$DIMEXE
 40
1.25
  9
$DIMTP
 40
0.0
  9
$DIMTM
 40
0.0
  9
$DIMTXT
 40
2.5
  9
$DIMCEN
 40
2.5
  9
$DIMTSZ
 40
0.0
  9
$DIMTOL
 70
     0
  9
$DIMLIM
 70
     0
  9
$DIMTIH
 70
     0
  9
$DIMTOH
 70
     0
  9
$DIMSE1
 70
     0
  9
$DIMSE2
 70
     0
  9
$DIMTAD
 70
     1
  9
$DIMZIN
 70
     8
  9
$DIMBLK
  1

  9
$DIMASO
 70
     1
  9
$DIMSHO
 70
     1
  9
$DIMPOST
  1

  9
$DIMAPOST
  1

  9
$DIMALT
 70
     0
  9
$DIMALTD
 70
     3
  9
$DIMALTF
 40
0.03937007874016
  9
$DIMLFAC
 40
1.0
  9
$DIMTOFL
 70
     1
  9
$DIMTVP
 40
0.0
  9
$DIMTIX
 70
     0
  9
$DIMSOXD
 70
     0
  9
$DIMSAH
 70
     0
  9
$DIMBLK1
  1

  9
$DIMBLK2
  1

  9
$DIMSTYLE
  2
ISO-25
  9
$DIMCLRD
 70
     0
  9
$DIMCLRE
 70
     0
  9
$DIMCLRT
 70
     0
  9
$DIMTFAC
 40
1.0
  9
$DIMGAP
 40
0.625
  9
$DIMJUST
 70
     0
  9
$DIMSD1
 70
     0
  9
$DIMSD2
 70
     0
  9
$DIMTOLJ
 70
     0
  9
$DIMTZIN
 70
     8
  9
$DIMALTZ
 70
     0
  9
$DIMALTTZ
 70
     0
  9
$DIMUPT
 70
     0
  9
$DIMDEC
 70
     2
  9
$DIMTDEC
 70
     2
  9
$DIMALTU
 70
     2
  9
$DIMALTTD
 70
     3
  9
$DIMTXSTY
  7
Standard
  9
$DIMAUNIT
 70
     0
  9
$DIMADEC
 70
     0
  9
$DIMALTRND
 40
0.0
  9
$DIMAZIN
 70
     0
  9
$DIMDSEP
 70
    44
  9
$DIMATFIT
 70
     3
  9
$DIMFRAC
 70
     0
  9
$DIMLDRBLK
  1

  9
$DIMLUNIT
 70
     2
  9
$DIMLWD
 70
    -2
  9
$DIMLWE
 70
    -2
  9
$DIMTMOVE
 70
     0
  9
$LUNITS
 70
     2
  9
$LUPREC
 70
     4
  9
$SKETCHINC
 40
1.0
  9
$FILLETRAD
 40
10.0
  9
$AUNITS
 70
     0
  9
$AUPREC
 70
     0
  9
$MENU
  1
.
  9
$ELEVATION
 40
0.0
  9
$PELEVATION
 40
0.0
  9
$THICKNESS
 40
0.0
  9
$LIMCHECK
 70
     0
  9
$CHAMFERA
 40
10.0
  9
$CHAMFERB
 40
10.0
  9
$CHAMFERC
 40
20.0
  9
$CHAMFERD
 40
0.0
  9
$SKPOLY
 70
     0
  9
$TDCREATE
 40
2455684.729166666
  9
$TDUCREATE
 40
2455684.645833334
  9
$TDUPDATE
 40
2455684.655248021
  9
$TDUUPDATE
 40
2455684.571914687
  9
$TDINDWG
 40
0.0039014005
  9
$TDUSRTIMER
 40
0.0039014005
  9
$USRTIMER
 70
     1
  9
$ANGBASE
 50
0.0
  9
$ANGDIR
 70
     0
  9
$PDMODE
 70
     0
  9
$PDSIZE
 40
0.0
  9
$PLINEWID
 40
0.0
  9
$SPLFRAME
 70
     0
  9
$SPLINETYPE
 70
     6
  9
$SPLINESEGS
 70
     8
  9
$HANDSEED
  5
6C7
  9
$SURFTAB1
 70
     6
  9
$SURFTAB2
 70
     6
  9
$SURFTYPE
 70
     6
  9
$SURFU
 70
     6
  9
$SURFV
 70
     6
  9
$UCSBASE
  2

  9
$UCSNAME
  2

  9
$UCSORG
 10
0.0
 20
0.0
 30
0.0
  9
$UCSXDIR
 10
1.0
 20
0.0
 30
0.0
  9
$UCSYDIR
 10
0.0
 20
1.0
 30
0.0
  9
$UCSORTHOREF
  2

  9
$UCSORTHOVIEW
 70
     0
  9
$UCSORGTOP
 10
0.0
 20
0.0
 30
0.0
  9
$UCSORGBOTTOM
 10
0.0
 20
0.0
 30
0.0
  9
$UCSORGLEFT
 10
0.0
 20
0.0
 30
0.0
  9
$UCSORGRIGHT
 10
0.0
 20
0.0
 30
0.0
  9
$UCSORGFRONT
 10
0.0
 20
0.0
 30
0.0
  9
$UCSORGBACK
 10
0.0
 20
0.0
 30
0.0
  9
$PUCSBASE
  2

  9
$PUCSNAME
  2

  9
$PUCSORG
 10
0.0
 20
0.0
 30
0.0
  9
$PUCSXDIR
 10
1.0
 20
0.0
 30
0.0
  9
$PUCSYDIR
 10
0.0
 20
1.0
 30
0.0
  9
$PUCSORTHOREF
  2

  9
$PUCSORTHOVIEW
 70
     0
  9
$PUCSORGTOP
 10
0.0
 20
0.0
 30
0.0
  9
$PUCSORGBOTTOM
 10
0.0
 20
0.0
 30
0.0
  9
$PUCSORGLEFT
 10
0.0
 20
0.0
 30
0.0
  9
$PUCSORGRIGHT
 10
0.0
 20
0.0
 30
0.0
  9
$PUCSORGFRONT
 10
0.0
 20
0.0
 30
0.0
  9
$PUCSORGBACK
 10
0.0
 20
0.0
 30
0.0
  9
$USERI1
 70
     0
  9
$USERI2
 70
     0
  9
$USERI3
 70
     0
  9
$USERI4
 70
     0
  9
$USERI5
 70
     0
  9
$USERR1
 40
0.0
  9
$USERR2
 40
0.0
  9
$USERR3
 40
0.0
  9
$USERR4
 40
0.0
  9
$USERR5
 40
0.0
  9
$WORLDVIEW
 70
     1
  9
$SHADEDGE
 70
     3
  9
$SHADEDIF
 70
    70
  9
$TILEMODE
 70
     1
  9
$MAXACTVP
 70
    64
  9
$PINSBASE
 10
0.0
 20
0.0
 30
0.0
  9
$PLIMCHECK
 70
     0
  9
$PEXTMIN
 10
1.000000000000000E+20
 20
1.000000000000000E+20
 30
1.000000000000000E+20
  9
$PEXTMAX
 10
-1.000000000000000E+20
 20
-1.000000000000000E+20
 30
-1.000000000000000E+20
  9
$PLIMMIN
 10
0.0
 20
0.0
  9
$PLIMMAX
 10
420.0
 20
297.0
  9
$UNITMODE
 70
     0
  9
$VISRETAIN
 70
     1
  9
$PLINEGEN
 70
     0
  9
$PSLTSCALE
 70
     1
  9
$TREEDEPTH
 70
  3020
  9
$CMLSTYLE
  2
Standard
  9
$CMLJUST
 70
     0
  9
$CMLSCALE
 40
20.0
  9
$PROXYGRAPHICS
 70
     1
  9
$MEASUREMENT
 70
     1
  9
$CELWEIGHT
370
    -1
  9
$ENDCAPS
280
     0
  9
$JOINSTYLE
280
     0
  9
$LWDISPLAY
290
     0
  9
$INSUNITS
 70
     4
  9
$HYPERLINKBASE
  1

  9
$STYLESHEET
  1

  9
$XEDIT
290
     1
  9
$CEPSNTYPE
380
     0
  9
$PSTYLEMODE
290
     1
  9
$FINGERPRINTGUID
  2
{3190CE58-8234-49B2-AA8F-3389349FB97D}
  9
$VERSIONGUID
  2
{72AFA559-F299-4107-AF53-986C26CBE2C6}
  9
$EXTNAMES
290
     1
  9
$PSVPSCALE
 40
0.0
  9
$OLESTARTUP
290
     0
  0
ENDSEC
  0
SECTION
  2
CLASSES
  0
CLASS
  1
ACDBDICTIONARYWDFLT
  2
AcDbDictionaryWithDefault
  3
ObjectDBX Classes
 90
        0
280
     0
281
     0
  0
CLASS
  1
VISUALSTYLE
  2
AcDbVisualStyle
  3
ObjectDBX Classes
 90
     4095
280
     0
281
     0
  0
CLASS
  1
MATERIAL
  2
AcDbMaterial
  3
ObjectDBX Classes
 90
     1153
280
     0
281
     0
  0
CLASS
  1
SCALE
  2
AcDbScale
  3
ObjectDBX Classes
 90
     1153
280
     0
281
     0
  0
CLASS
  1
DICTIONARYVAR
  2
AcDbDictionaryVar
  3
ObjectDBX Classes
 90
        0
280
     0
281
     0
  0
CLASS
  1
ACDBPLACEHOLDER
  2
AcDbPlaceHolder
  3
ObjectDBX Classes
 90
        0
280
     0
281
     0
  0
CLASS
  1
LAYOUT
  2
AcDbLayout
  3
ObjectDBX Classes
 90
        0
280
     0
281
     0
  0
CLASS
  1
TABLESTYLE
  2
AcDbTableStyle
  3
ObjectDBX Classes
 90
     4095
280
     0
281
     0
  0
CLASS
  1
MLEADERSTYLE
  2
AcDbMLeaderStyle
  3
ACDB_MLEADERSTYLE_CLASS
 90
     4095
280
     0
281
     0
  0
CLASS
  1
CELLSTYLEMAP
  2
AcDbCellStyleMap
  3
ObjectDBX Classes
 90
     1152
280
     0
281
     0
  0
ENDSEC
  0
SECTION
  2
TABLES
  0
TABLE
  2
VPORT
  5
8
330
0
100
AcDbSymbolTable
 70
     1
  0
VPORT
  5
29
330
8
100
AcDbSymbolTableRecord
100
AcDbViewportTableRecord
  2
*Active
 70
     0
 10
0.0
 20
0.0
 11
1.0
 21
1.0
 12
54.7975166663499
 22
43.15690669680123
 13
0.0
 23
0.0
 14
10.0
 24
10.0
 15
10.0
 25
10.0
 16
0.0
 26
0.0
 36
1.0
 17
0.0
 27
0.0
 37
0.0
 40
87.69794781175361
 41
2.292383292383292
 42
50.0
 43
0.0
 44
0.0
 50
0.0
 51
0.0
 71
     0
 72
   100
 73
     1
 74
     3
 75
     0
 76
     0
 77
     0
 78
     0
281
     0
 65
     1
110
0.0
120
0.0
130
0.0
111
1.0
121
0.0
131
0.0
112
0.0
122
1.0
132
0.0
 79
     0
146
0.0
  0
ENDTAB
  0
TABLE
  2
LTYPE
  5
5
330
0
100
AcDbSymbolTable
 70
     1
  0
LTYPE
  5
14
330
5
100
AcDbSymbolTableRecord
100
AcDbLinetypeTableRecord
  2
ByBlock
 70
     0
  3

 72
    65
 73
     0
 40
0.0
  0
LTYPE
  5
15
330
5
100
AcDbSymbolTableRecord
100
AcDbLinetypeTableRecord
  2
ByLayer
 70
     0
  3

 72
    65
 73
     0
 40
0.0
  0
LTYPE
  5
16
330
5
100
AcDbSymbolTableRecord
100
AcDbLinetypeTableRecord
  2
Continuous
 70
     0
  3
Solid line
 72
    65
 73
     0
 40
0.0
  0
ENDTAB
  0
TABLE
  2
LAYER
  5
2
330
0
100
AcDbSymbolTable
 70
     1
  0
LAYER
  5
10
102
{ACAD_XDICTIONARY
360
678
102
}
330
2
100
AcDbSymbolTableRecord
100
AcDbLayerTableRecord
  2
0
 70
     0
 62
     7
  6
Continuous
370
    -3
390
F
  0
ENDTAB
  0
TABLE
  2
STYLE
  5
3
330
0
100
AcDbSymbolTable
 70
     1
  0
STYLE
  5
11
330
3
100
AcDbSymbolTableRecord
100
AcDbTextStyleTableRecord
  2
Standard
 70
     0
 40
0.0
 41
1.0
 50
0.0
 71
     0
 42
2.5
  3
txt
  4

  0
ENDTAB
  0
TABLE
  2
VIEW
  5
6
330
0
100
AcDbSymbolTable
 70
     0
  0
ENDTAB
  0
TABLE
  2
UCS
  5
7
330
0
100
AcDbSymbolTable
 70
     0
  0
ENDTAB
  0
TABLE
  2
APPID
  5
9
330
0
100
AcDbSymbolTable
 70
     3
  0
APPID
  5
12
330
9
100
AcDbSymbolTableRecord
100
AcDbRegAppTableRecord
  2
ACAD
 70
     0
  0
APPID
  5
3F
330
9
100
AcDbSymbolTableRecord
100
AcDbRegAppTableRecord
  2
ccLab
 70
     0
  0
APPID
  5
6C6
330
9
100
AcDbSymbolTableRecord
100
AcDbRegAppTableRecord
  2
ACAD_MLEADERVER
 70
     0
  0
ENDTAB
  0
TABLE
  2
DIMSTYLE
  5
A
330
0
100
AcDbSymbolTable
 70
     1
100
AcDbDimStyleTable
 71
     0
  0
DIMSTYLE
105
27
330
A
100
AcDbSymbolTableRecord
100
AcDbDimStyleTableRecord
  2
ISO-25
 70
     0
 41
2.5
 42
0.625
 43
3.75
 44
1.25
 73
     0
 74
     0
 77
     1
 78
     8
140
2.5
141
2.5
143
0.03937007874016
147
0.625
171
     3
172
     1
271
     2
272
     2
274
     3
278
    44
283
     0
284
     8
340
11
  0
ENDTAB
  0
TABLE
  2
BLOCK_RECORD
  5
1
330
0
100
AcDbSymbolTable
 70
     3
  0
BLOCK_RECORD
  5
1F
330
1
100
AcDbSymbolTableRecord
100
AcDbBlockTableRecord
  2
*Model_Space
340
22
  0
BLOCK_RECORD
  5
1B
330
1
100
AcDbSymbolTableRecord
100
AcDbBlockTableRecord
  2
*Paper_Space
340
1E
  0
BLOCK_RECORD
  5
23
330
1
100
AcDbSymbolTableRecord
100
AcDbBlockTableRecord
  2
*Paper_Space0
340
26
  0
ENDTAB
  0
ENDSEC
  0
SECTION
  2
BLOCKS
  0
BLOCK
  5
20
330
1F
100
AcDbEntity
  8
0
100
AcDbBlockBegin
  2
*Model_Space
 70
     0
 10
0.0
 20
0.0
 30
0.0
  3
*Model_Space
  1

  0
ENDBLK
  5
21
330
1F
100
AcDbEntity
  8
0
100
AcDbBlockEnd
  0
BLOCK
  5
1C
330
1B
100
AcDbEntity
 67
     1
  8
0
100
AcDbBlockBegin
  2
*Paper_Space
 70
     0
 10
0.0
 20
0.0
 30
0.0
  3
*Paper_Space
  1

  0
ENDBLK
  5
1D
330
1B
100
AcDbEntity
 67
     1
  8
0
100
AcDbBlockEnd
  0
BLOCK
  5
24
330
23
100
AcDbEntity
 67
     1
  8
0
100
AcDbBlockBegin
  2
*Paper_Space0
 70
     0
 10
0.0
 20
0.0
 30
0.0
  3
*Paper_Space0
  1

  0
ENDBLK
  5
25
330
23
100
AcDbEntity
 67
     1
  8
0
100
AcDbBlockEnd
  0
ENDSEC
  0
SECTION
  2
ENTITIES
  0
LINE
  5
168
330
1F
100
AcDbEntity
  8
0
100
AcDbLine
 10
2.0
 20
31.93743896484375
 30
0.0
 11
2.0
 21
57.96550750732421
 31
0.0
  0
LINE
  5
169
330
1F
100
AcDbEntity
  8
0
100
AcDbLine
 10
0.0
 20
31.93743896484375
 30
0.0
 11
0.0
 21
57.96550750732421
 31
0.0
  0
LINE
  5
16A
330
1F
100
AcDbEntity
  8
0
100
AcDbLine
 10
31.79470062255859
 20
0.0049999998882413
 30
0.0
 11
31.79476547241211
 21
0.0068790367804468
 31
0.0
  0
LINE
  5
16B
330
1F
100
AcDbEntity
  8
0
100
AcDbLine
 10
31.79476547241211
 20
0.0068790367804468
 30
0.0
 11
31.79496574401856
 21
0.0125478031113744
 31
0.0
  0
LINE
  5
16C
330
1F
100
AcDbEntity
  8
0
100
AcDbLine
 10
31.79496574401856
 20
0.0125478031113744
 30
0.0
 11
31.79530334472656
 21
0.0220537818968296
 31
0.0
  0
LINE
  5
16D
330
1F
100
AcDbEntity
  8
0
100
AcDbLine
 10
31.79530334472656
 20
0.0220537818968296
 30
0.0
 11
31.79578018188477
 21
0.0354444570839405
 31
0.0
  0
LINE
  5
16E
330
1F
100
AcDbEntity
  8
0
100
AcDbLine
 10
31.79578018188477
 20
0.0354444570839405
 30
0.0
 11
31.79640007019043
 21
0.052767314016819
 31
0.0
  0
LINE
  5
16F
330
1F
100
AcDbEntity
  8
0
100
AcDbLine
 10
31.79640007019043
 20
0.052767314016819
 30
0.0
 11
31.79716491699219
 21
0.0740609467029572
 31
0.0
  0
LINE
  5
170
330
1F
100
AcDbEntity
  8
0
100
AcDbLine
 10
31.79716491699219
 20
0.0740609467029572
 30
0.0
 11
31.79807472229004
 21
0.0992921590805054
 31
0.0
  0
LINE
  5
171
330
1F
100
AcDbEntity
  8
0
100
AcDbLine
 10
31.79807472229004
 20
0.0992921590805054
 30
0.0
 11
31.79913330078125
 21
0.128393366932869
 31
0.0
  0
LINE
  5
172
330
1F
100
AcDbEntity
  8
0
100
AcDbLine
 10
31.79913330078125
 20
0.128393366932869
 30
0.0
 11
31.80034065246582
 21
0.1612967848777771
 31
0.0
  0
LINE
  5
173
330
1F
100
AcDbEntity
  8
0
100
AcDbLine
 10
31.80034065246582
 20
0.1612967848777771
 30
0.0
 11
31.80169868469238
 21
0.1979346424341202
 31
0.0
  0
LINE
  5
174
330
1F
100
AcDbEntity
  8
0
100
AcDbLine
 10
31.80169868469238
 20
0.1979346424341202
 30
0.0
 11
31.80320739746094
 21
0.2382411807775497
 31
0.0
  0
LINE
  5
175
330
1F
100
AcDbEntity
  8
0
100
AcDbLine
 10
31.80320739746094
 20
0.2382411807775497
 30
0.0
 11
31.80486869812012
 21
0.2821294069290161
 31
0.0
  0
LINE
  5
176
330
1F
100
AcDbEntity
  8
0
100
AcDbLine
 10
31.80486869812012
 20
0.2821294069290161
 30
0.0
 11
31.80668449401856
 21
0.3294471204280853
 31
0.0
  0
LINE
  5
177
330
1F
100
AcDbEntity
  8
0
100
AcDbLine
 10
2.077817440032958
 20
59.96207809448242
 30
0.0
 11
2.077892541885375
 21
59.96400833129882
 31
0.0
  0
LINE
  5
178
330
1F
100
AcDbEntity
  8
0
100
AcDbLine
 10
31.80668449401856
 20
0.3294471204280853
 30
0.0
 11
31.80865478515625
 21
0.3800353109836578
 31
0.0
  0
LINE
  5
179
330
1F
100
AcDbEntity
  8
0
100
AcDbLine
 10
2.077199697494506
 20
59.94623184204101
 30
0.0
 11
2.077588081359863
 21
59.95619964599609
 31
0.0
  0
LINE
  5
17A
330
1F
100
AcDbEntity
  8
0
100
AcDbLine
 10
2.070241212844848
 20
59.76769638061523
 30
0.0
 11
2.07164192199707
 21
59.80363845825195
 31
0.0
  0
LINE
  5
17B
330
1F
100
AcDbEntity
  8
0
100
AcDbLine
 10
2.07664680480957
 20
59.93204498291015
 30
0.0
 11
2.077199697494506
 21
59.94623184204101
 31
0.0
  0
LINE
  5
17C
330
1F
100
AcDbEntity
  8
0
100
AcDbLine
 10
2.045849323272705
 20
59.14186859130859
 30
0.0
 11
2.048679590225219
 21
59.21448898315429
 31
0.0
  0
LINE
  5
17D
330
1F
100
AcDbEntity
  8
0
100
AcDbLine
 10
2.060800313949584
 20
59.52547073364257
 30
0.0
 11
2.062965869903564
 21
59.58103561401367
 31
0.0
  0
LINE
  5
17E
330
1F
100
AcDbEntity
  8
0
100
AcDbLine
 10
2.036766767501831
 20
58.90883636474609
 30
0.0
 11
2.039860486984252
 21
58.98821640014649
 31
0.0
  0
LINE
  5
17F
330
1F
100
AcDbEntity
  8
0
100
AcDbLine
 10
2.074023723602294
 20
59.86474609375
 30
0.0
 11
2.07504391670227
 21
59.89092254638672
 31
0.0
  0
LINE
  5
180
330
1F
100
AcDbEntity
  8
0
100
AcDbLine
 10
2.024226665496826
 20
58.58709335327148
 30
0.0
 11
2.027474641799926
 21
58.67042922973633
 31
0.0
  0
LINE
  5
181
330
1F
100
AcDbEntity
  8
0
100
AcDbLine
 10
2.065013647079467
 20
59.63357162475586
 30
0.0
 11
2.066916704177856
 21
59.68239974975586
 31
0.0
  0
LINE
  5
182
330
1F
100
AcDbEntity
  8
0
100
AcDbLine
 10
2.0
 20
57.96550750732421
 30
0.0
 11
2.003358602523803
 21
58.05168151855468
 31
0.0
  0
LINE
  5
183
330
1F
100
AcDbEntity
  8
0
100
AcDbLine
 10
2.05854845046997
 20
59.46769332885742
 30
0.0
 11
2.060800313949584
 21
59.52547073364257
 31
0.0
  0
LINE
  5
184
330
1F
100
AcDbEntity
  8
0
100
AcDbLine
 10
2.027474641799926
 20
58.67042922973633
 30
0.0
 11
2.030571460723876
 21
58.74988555908203
 31
0.0
  0
LINE
  5
185
330
1F
100
AcDbEntity
  8
0
100
AcDbLine
 10
2.017390966415405
 20
58.41170883178711
 30
0.0
 11
2.020853996276855
 21
58.50056076049805
 31
0.0
  0
LINE
  5
186
330
1F
100
AcDbEntity
  8
0
100
AcDbLine
 10
2.066916704177856
 20
59.68239974975586
 30
0.0
 11
2.068662643432617
 21
59.72719573974609
 31
0.0
  0
LINE
  5
187
330
1F
100
AcDbEntity
  8
0
100
AcDbLine
 10
2.056241989135742
 20
59.40851593017578
 30
0.0
 11
2.05854845046997
 21
59.46769332885742
 31
0.0
  0
LINE
  5
188
330
1F
100
AcDbEntity
  8
0
100
AcDbLine
 10
2.048679590225219
 20
59.21448898315429
 30
0.0
 11
2.051367282867431
 21
59.283447265625
 31
0.0
  0
LINE
  5
189
330
1F
100
AcDbEntity
  8
0
100
AcDbLine
 10
2.053888082504272
 20
59.34812164306641
 30
0.0
 11
2.056241989135742
 21
59.40851593017578
 31
0.0
  0
LINE
  5
18A
330
1F
100
AcDbEntity
  8
0
100
AcDbLine
 10
2.006816625595092
 20
58.14040374755859
 30
0.0
 11
2.010334253311157
 21
58.23065567016602
 31
0.0
  0
LINE
  5
18B
330
1F
100
AcDbEntity
  8
0
100
AcDbLine
 10
2.013872146606445
 20
58.32142639160156
 30
0.0
 11
2.017390966415405
 21
58.41170883178711
 31
0.0
  0
LINE
  5
18C
330
1F
100
AcDbEntity
  8
0
100
AcDbLine
 10
2.020853996276855
 20
58.50056076049805
 30
0.0
 11
2.024226665496826
 21
58.58709335327148
 31
0.0
  0
LINE
  5
18D
330
1F
100
AcDbEntity
  8
0
100
AcDbLine
 10
2.033657550811767
 20
58.82906341552734
 30
0.0
 11
2.036766767501831
 21
58.90883636474609
 31
0.0
  0
LINE
  5
18E
330
1F
100
AcDbEntity
  8
0
100
AcDbLine
 10
2.003358602523803
 20
58.05168151855468
 30
0.0
 11
2.006816625595092
 21
58.14040374755859
 31
0.0
  0
LINE
  5
18F
330
1F
100
AcDbEntity
  8
0
100
AcDbLine
 10
2.072884082794189
 20
59.83550643920898
 30
0.0
 11
2.074023723602294
 21
59.86474609375
 31
0.0
  0
LINE
  5
190
330
1F
100
AcDbEntity
  8
0
100
AcDbLine
 10
2.010334253311157
 20
58.23065567016602
 30
0.0
 11
2.013872146606445
 21
58.32142639160156
 31
0.0
  0
LINE
  5
191
330
1F
100
AcDbEntity
  8
0
100
AcDbLine
 10
2.068662643432617
 20
59.72719573974609
 30
0.0
 11
2.070241212844848
 21
59.76769638061523
 31
0.0
  0
LINE
  5
192
330
1F
100
AcDbEntity
  8
0
100
AcDbLine
 10
2.039860486984252
 20
58.98821640014649
 30
0.0
 11
2.042900323867797
 21
59.06620788574219
 31
0.0
  0
LINE
  5
193
330
1F
100
AcDbEntity
  8
0
100
AcDbLine
 10
2.042900323867797
 20
59.06620788574219
 30
0.0
 11
2.045849323272705
 21
59.14186859130859
 31
0.0
  0
LINE
  5
194
330
1F
100
AcDbEntity
  8
0
100
AcDbLine
 10
2.030571460723876
 20
58.74988555908203
 30
0.0
 11
2.033657550811767
 21
58.82906341552734
 31
0.0
  0
LINE
  5
195
330
1F
100
AcDbEntity
  8
0
100
AcDbLine
 10
2.051367282867431
 20
59.283447265625
 30
0.0
 11
2.053888082504272
 21
59.34812164306641
 31
0.0
  0
LINE
  5
196
330
1F
100
AcDbEntity
  8
0
100
AcDbLine
 10
2.07504391670227
 20
59.89092254638672
 30
0.0
 11
2.07592487335205
 21
59.91352462768555
 31
0.0
  0
LINE
  5
197
330
1F
100
AcDbEntity
  8
0
100
AcDbLine
 10
2.07164192199707
 20
59.80363845825195
 30
0.0
 11
2.072884082794189
 21
59.83550643920898
 31
0.0
  0
LINE
  5
198
330
1F
100
AcDbEntity
  8
0
100
AcDbLine
 10
2.062965869903564
 20
59.58103561401367
 30
0.0
 11
2.065013647079467
 21
59.63357162475586
 31
0.0
  0
LINE
  5
199
330
1F
100
AcDbEntity
  8
0
100
AcDbLine
 10
2.07592487335205
 20
59.91352462768555
 30
0.0
 11
2.07664680480957
 21
59.93204498291015
 31
0.0
  0
LINE
  5
19A
330
1F
100
AcDbEntity
  8
0
100
AcDbLine
 10
2.077588081359863
 20
59.95619964599609
 30
0.0
 11
2.077817440032958
 21
59.96207809448242
 31
0.0
  0
LINE
  5
19B
330
1F
100
AcDbEntity
  8
0
100
AcDbLine
 10
31.80865478515625
 20
0.3800353109836578
 30
0.0
 11
31.81078147888184
 21
0.4337348937988282
 31
0.0
  0
LINE
  5
19C
330
1F
100
AcDbEntity
  8
0
100
AcDbLine
 10
31.81078147888184
 20
0.4337348937988282
 30
0.0
 11
31.81306457519531
 21
0.4903867542743683
 31
0.0
  0
LINE
  5
19D
330
1F
100
AcDbEntity
  8
0
100
AcDbLine
 10
31.81306457519531
 20
0.4903867542743683
 30
0.0
 11
31.81550407409668
 21
0.5498083233833313
 31
0.0
  0
LINE
  5
19E
330
1F
100
AcDbEntity
  8
0
100
AcDbLine
 10
31.81550407409668
 20
0.5498083233833313
 30
0.0
 11
31.81810188293457
 21
0.6117587685585022
 31
0.0
  0
LINE
  5
19F
330
1F
100
AcDbEntity
  8
0
100
AcDbLine
 10
31.81810188293457
 20
0.6117587685585022
 30
0.0
 11
31.82085800170899
 21
0.6759885549545288
 31
0.0
  0
LINE
  5
1A0
330
1F
100
AcDbEntity
  8
0
100
AcDbLine
 10
31.82085800170899
 20
0.6759885549545288
 30
0.0
 11
31.82377052307129
 21
0.7422480583190918
 31
0.0
  0
LINE
  5
1A1
330
1F
100
AcDbEntity
  8
0
100
AcDbLine
 10
31.82377052307129
 20
0.7422480583190918
 30
0.0
 11
31.82684516906738
 21
0.8102878332138061
 31
0.0
  0
LINE
  5
1A2
330
1F
100
AcDbEntity
  8
0
100
AcDbLine
 10
31.82684516906738
 20
0.8102878332138061
 30
0.0
 11
31.83014488220215
 21
0.8812945485115051
 31
0.0
  0
LINE
  5
1A3
330
1F
100
AcDbEntity
  8
0
100
AcDbLine
 10
31.83014488220215
 20
0.8812945485115051
 30
0.0
 11
31.83376502990723
 21
0.9566221833229064
 31
0.0
  0
LINE
  5
1A4
330
1F
100
AcDbEntity
  8
0
100
AcDbLine
 10
31.83376502990723
 20
0.9566221833229064
 30
0.0
 11
31.83770561218262
 21
1.035699248313903
 31
0.0
  0
LINE
  5
1A5
330
1F
100
AcDbEntity
  8
0
100
AcDbLine
 10
31.83770561218262
 20
1.035699248313903
 30
0.0
 11
31.84197807312012
 21
1.117866396903991
 31
0.0
  0
LINE
  5
1A6
330
1F
100
AcDbEntity
  8
0
100
AcDbLine
 10
31.84197807312012
 20
1.117866396903991
 30
0.0
 11
31.84658432006836
 21
1.202395439147949
 31
0.0
  0
LINE
  5
1A7
330
1F
100
AcDbEntity
  8
0
100
AcDbLine
 10
31.84658432006836
 20
1.202395439147949
 30
0.0
 11
31.85153579711914
 21
1.288543462753295
 31
0.0
  0
LINE
  5
1A8
330
1F
100
AcDbEntity
  8
0
100
AcDbLine
 10
31.85153579711914
 20
1.288543462753295
 30
0.0
 11
31.85684776306152
 21
1.375473976135253
 31
0.0
  0
LINE
  5
1A9
330
1F
100
AcDbEntity
  8
0
100
AcDbLine
 10
31.85684776306152
 20
1.375473976135253
 30
0.0
 11
31.86253356933594
 21
1.462318181991577
 31
0.0
  0
LINE
  5
1AA
330
1F
100
AcDbEntity
  8
0
100
AcDbLine
 10
31.86253356933594
 20
1.462318181991577
 30
0.0
 11
31.86862564086914
 21
1.548145055770874
 31
0.0
  0
LINE
  5
1AB
330
1F
100
AcDbEntity
  8
0
100
AcDbLine
 10
1.856863617897033
 20
29.95030975341797
 30
0.0
 11
1.857580184936523
 21
29.96025848388672
 31
0.0
  0
LINE
  5
1AC
330
1F
100
AcDbEntity
  8
0
100
AcDbLine
 10
1.863439679145812
 20
30.04160308837891
 30
0.0
 11
1.865541934967041
 21
30.07078933715821
 31
0.0
  0
LINE
  5
1AD
330
1F
100
AcDbEntity
  8
0
100
AcDbLine
 10
1.867833495140075
 20
30.10260200500488
 30
0.0
 11
1.870417833328247
 21
30.13848114013672
 31
0.0
  0
LINE
  5
1AE
330
1F
100
AcDbEntity
  8
0
100
AcDbLine
 10
1.856302022933959
 20
29.94251441955567
 30
0.0
 11
1.856440782546997
 21
29.94444084167481
 31
0.0
  0
LINE
  5
1AF
330
1F
100
AcDbEntity
  8
0
100
AcDbLine
 10
1.900587081909179
 20
30.55731201171875
 30
0.0
 11
1.905237317085266
 21
30.62187194824219
 31
0.0
  0
LINE
  5
1B0
330
1F
100
AcDbEntity
  8
0
100
AcDbLine
 10
1.858600497245788
 20
29.97442245483398
 30
0.0
 11
1.85993218421936
 21
29.99291038513184
 31
0.0
  0
LINE
  5
1B1
330
1F
100
AcDbEntity
  8
0
100
AcDbLine
 10
1.873329997062683
 20
30.17890930175781
 30
0.0
 11
1.876551032066345
 21
30.2236270904541
 31
0.0
  0
LINE
  5
1B2
330
1F
100
AcDbEntity
  8
0
100
AcDbLine
 10
1.974408745765686
 20
31.58216094970703
 30
0.0
 11
1.980935335159301
 21
31.67276954650879
 31
0.0
  0
LINE
  5
1B3
330
1F
100
AcDbEntity
  8
0
100
AcDbLine
 10
1.880062103271484
 20
30.27236938476562
 30
0.0
 11
1.883839845657348
 21
30.32481575012207
 31
0.0
  0
LINE
  5
1B4
330
1F
100
AcDbEntity
  8
0
100
AcDbLine
 10
1.955306887626647
 20
31.31697463989258
 30
0.0
 11
1.961528897285461
 21
31.40335464477539
 31
0.0
  0
LINE
  5
1B5
330
1F
100
AcDbEntity
  8
0
100
AcDbLine
 10
1.943601965904235
 20
31.15447807312012
 30
0.0
 11
1.949314832687377
 21
31.23378944396973
 31
0.0
  0
LINE
  5
1B6
330
1F
100
AcDbEntity
  8
0
100
AcDbLine
 10
1.926465511322021
 20
30.91657638549805
 30
0.0
 11
1.932172894477844
 21
30.99581146240235
 31
0.0
  0
LINE
  5
1B7
330
1F
100
AcDbEntity
  8
0
100
AcDbLine
 10
1.910195708274841
 20
30.69070625305176
 30
0.0
 11
1.915417313575744
 21
30.76319694519043
 31
0.0
  0
LINE
  5
1B8
330
1F
100
AcDbEntity
  8
0
100
AcDbLine
 10
1.891989469528198
 20
30.43795394897461
 30
0.0
 11
1.896244406700134
 21
30.49702453613281
 31
0.0
  0
LINE
  5
1B9
330
1F
100
AcDbEntity
  8
0
100
AcDbLine
 10
1.987424731254577
 20
31.76285934448242
 30
0.0
 11
1.993803977966308
 21
31.85142135620117
 31
0.0
  0
LINE
  5
1BA
330
1F
100
AcDbEntity
  8
0
100
AcDbLine
 10
1.920857548713684
 20
30.83872222900391
 30
0.0
 11
1.926465511322021
 21
30.91657638549805
 31
0.0
  0
LINE
  5
1BB
330
1F
100
AcDbEntity
  8
0
100
AcDbLine
 10
1.85993218421936
 20
29.99291038513184
 30
0.0
 11
1.861557364463806
 21
30.01547241210938
 31
0.0
  0
LINE
  5
1BC
330
1F
100
AcDbEntity
  8
0
100
AcDbLine
 10
1.932172894477844
 20
30.99581146240235
 30
0.0
 11
1.937908768653869
 21
31.07544136047363
 31
0.0
  0
LINE
  5
1BD
330
1F
100
AcDbEntity
  8
0
100
AcDbLine
 10
1.883839845657348
 20
30.32481575012207
 30
0.0
 11
1.887835144996643
 21
30.38028144836426
 31
0.0
  0
LINE
  5
1BE
330
1F
100
AcDbEntity
  8
0
100
AcDbLine
 10
1.915417313575744
 20
30.76319694519043
 30
0.0
 11
1.920857548713684
 21
30.83872222900391
 31
0.0
  0
LINE
  5
1BF
330
1F
100
AcDbEntity
  8
0
100
AcDbLine
 10
1.993803977966308
 20
31.85142135620117
 30
0.0
 11
2.0
 21
31.93743896484375
 31
0.0
  0
LINE
  5
1C0
330
1F
100
AcDbEntity
  8
0
100
AcDbLine
 10
1.937908768653869
 20
31.07544136047363
 30
0.0
 11
1.943601965904235
 21
31.15447807312012
 31
0.0
  0
LINE
  5
1C1
330
1F
100
AcDbEntity
  8
0
100
AcDbLine
 10
1.967917442321777
 20
31.49204444885254
 30
0.0
 11
1.974408745765686
 21
31.58216094970703
 31
0.0
  0
LINE
  5
1C2
330
1F
100
AcDbEntity
  8
0
100
AcDbLine
 10
1.961528897285461
 20
31.40335464477539
 30
0.0
 11
1.967917442321777
 21
31.49204444885254
 31
0.0
  0
LINE
  5
1C3
330
1F
100
AcDbEntity
  8
0
100
AcDbLine
 10
1.980935335159301
 20
31.67276954650879
 30
0.0
 11
1.987424731254577
 21
31.76285934448242
 31
0.0
  0
LINE
  5
1C4
330
1F
100
AcDbEntity
  8
0
100
AcDbLine
 10
1.949314832687377
 20
31.23378944396973
 30
0.0
 11
1.955306887626647
 21
31.31697463989258
 31
0.0
  0
LINE
  5
1C5
330
1F
100
AcDbEntity
  8
0
100
AcDbLine
 10
1.896244406700134
 20
30.49702453613281
 30
0.0
 11
1.900587081909179
 21
30.55731201171875
 31
0.0
  0
LINE
  5
1C6
330
1F
100
AcDbEntity
  8
0
100
AcDbLine
 10
1.865541934967041
 20
30.07078933715821
 30
0.0
 11
1.867833495140075
 21
30.10260200500488
 31
0.0
  0
LINE
  5
1C7
330
1F
100
AcDbEntity
  8
0
100
AcDbLine
 10
1.887835144996643
 20
30.38028144836426
 30
0.0
 11
1.891989469528198
 21
30.43795394897461
 31
0.0
  0
LINE
  5
1C8
330
1F
100
AcDbEntity
  8
0
100
AcDbLine
 10
1.870417833328247
 20
30.13848114013672
 30
0.0
 11
1.873329997062683
 21
30.17890930175781
 31
0.0
  0
LINE
  5
1C9
330
1F
100
AcDbEntity
  8
0
100
AcDbLine
 10
1.876551032066345
 20
30.2236270904541
 30
0.0
 11
1.880062103271484
 21
30.27236938476562
 31
0.0
  0
LINE
  5
1CA
330
1F
100
AcDbEntity
  8
0
100
AcDbLine
 10
1.905237317085266
 20
30.62187194824219
 30
0.0
 11
1.910195708274841
 21
30.69070625305176
 31
0.0
  0
LINE
  5
1CB
330
1F
100
AcDbEntity
  8
0
100
AcDbLine
 10
1.861557364463806
 20
30.01547241210938
 30
0.0
 11
1.863439679145812
 21
30.04160308837891
 31
0.0
  0
LINE
  5
1CC
330
1F
100
AcDbEntity
  8
0
100
AcDbLine
 10
1.857580184936523
 20
29.96025848388672
 30
0.0
 11
1.858600497245788
 21
29.97442245483398
 31
0.0
  0
LINE
  5
1CD
330
1F
100
AcDbEntity
  8
0
100
AcDbLine
 10
1.856440782546997
 20
29.94444084167481
 30
0.0
 11
1.856863617897033
 21
29.95030975341797
 31
0.0
  0
LINE
  5
1CE
330
1F
100
AcDbEntity
  8
0
100
AcDbLine
 10
31.86862564086914
 20
1.548145055770874
 30
0.0
 11
31.87527084350586
 21
1.633312582969665
 31
0.0
  0
LINE
  5
1CF
330
1F
100
AcDbEntity
  8
0
100
AcDbLine
 10
31.87527084350586
 20
1.633312582969665
 30
0.0
 11
31.8832950592041
 21
1.724384903907775
 31
0.0
  0
LINE
  5
1D0
330
1F
100
AcDbEntity
  8
0
100
AcDbLine
 10
31.8832950592041
 20
1.724384903907775
 30
0.0
 11
31.89292716979981
 21
1.816829919815063
 31
0.0
  0
LINE
  5
1D1
330
1F
100
AcDbEntity
  8
0
100
AcDbLine
 10
31.89292716979981
 20
1.816829919815063
 30
0.0
 11
31.90480613708496
 21
1.905107021331787
 31
0.0
  0
LINE
  5
1D2
330
1F
100
AcDbEntity
  8
0
100
AcDbLine
 10
31.90480613708496
 20
1.905107021331787
 30
0.0
 11
31.92684555053711
 21
1.994049191474914
 31
0.0
  0
LINE
  5
1D3
330
1F
100
AcDbEntity
  8
0
100
AcDbLine
 10
31.92684173583984
 20
1.994051814079284
 30
0.0
 11
31.92831039428711
 21
1.99561583995819
 31
0.0
  0
LINE
  5
1D4
330
1F
100
AcDbEntity
  8
0
100
AcDbLine
 10
31.92831039428711
 20
1.99561583995819
 30
0.0
 11
31.92977905273437
 21
1.997179865837097
 31
0.0
  0
LINE
  5
1D5
330
1F
100
AcDbEntity
  8
0
100
AcDbLine
 10
31.93124961853027
 20
1.998743772506713
 30
0.0
 11
31.93271827697754
 21
2.00030779838562
 31
0.0
  0
LINE
  5
1D6
330
1F
100
AcDbEntity
  8
0
100
AcDbLine
 10
31.93271827697754
 20
2.00030779838562
 30
0.0
 11
31.93418693542481
 21
2.001871824264526
 31
0.0
  0
LINE
  5
1D7
330
1F
100
AcDbEntity
  8
0
100
AcDbLine
 10
31.93418693542481
 20
2.001871824264526
 30
0.0
 11
31.93565559387207
 21
2.003435850143432
 31
0.0
  0
LINE
  5
1D8
330
1F
100
AcDbEntity
  8
0
100
AcDbLine
 10
31.93565559387207
 20
2.003435850143432
 30
0.0
 11
31.93712615966797
 21
2.005000114440917
 31
0.0
  0
LINE
  5
1D9
330
1F
100
AcDbEntity
  8
0
100
AcDbLine
 10
31.92977905273437
 20
1.997179865837097
 30
0.0
 11
31.93124961853027
 21
1.998743772506713
 31
0.0
  0
LINE
  5
1DA
330
1F
100
AcDbEntity
  8
0
100
AcDbLine
 10
31.90402793884278
 20
1.988303065299987
 30
0.0
 11
31.92684173583984
 21
1.994051814079284
 31
0.0
  0
LINE
  5
1DB
330
1F
100
AcDbEntity
  8
0
100
AcDbLine
 10
29.95623016357422
 20
1.619975805282592
 30
0.0
 11
29.96210861206055
 21
1.621104478836059
 31
0.0
  0
LINE
  5
1DC
330
1F
100
AcDbEntity
  8
0
100
AcDbLine
 10
30.10613250732422
 20
1.648749589920043
 30
0.0
 11
30.16899681091309
 21
1.6608167886734
 31
0.0
  0
LINE
  5
1DD
330
1F
100
AcDbEntity
  8
0
100
AcDbLine
 10
29.980224609375
 20
1.624581694602966
 30
0.0
 11
30.01121330261231
 21
1.63053011894226
 31
0.0
  0
LINE
  5
1DE
330
1F
100
AcDbEntity
  8
0
100
AcDbLine
 10
31.61093711853027
 20
1.937597513198852
 30
0.0
 11
31.76609039306641
 21
1.967379450798034
 31
0.0
  0
LINE
  5
1DF
330
1F
100
AcDbEntity
  8
0
100
AcDbLine
 10
30.64169692993164
 20
1.751551508903503
 30
0.0
 11
30.7637882232666
 21
1.77498722076416
 31
0.0
  0
LINE
  5
1E0
330
1F
100
AcDbEntity
  8
0
100
AcDbLine
 10
31.30695724487305
 20
1.879248738288879
 30
0.0
 11
31.45628738403321
 21
1.907912850379943
 31
0.0
  0
LINE
  5
1E1
330
1F
100
AcDbEntity
  8
0
100
AcDbLine
 10
31.16742324829102
 20
1.852465152740478
 30
0.0
 11
31.30695724487305
 21
1.879248738288879
 31
0.0
  0
LINE
  5
1E2
330
1F
100
AcDbEntity
  8
0
100
AcDbLine
 10
31.03122520446778
 20
1.826321840286254
 30
0.0
 11
31.16742324829102
 21
1.852465152740478
 31
0.0
  0
LINE
  5
1E3
330
1F
100
AcDbEntity
  8
0
100
AcDbLine
 10
30.89499664306641
 20
1.800172686576843
 30
0.0
 11
31.03122520446778
 21
1.826321840286254
 31
0.0
  0
LINE
  5
1E4
330
1F
100
AcDbEntity
  8
0
100
AcDbLine
 10
30.7637882232666
 20
1.77498722076416
 30
0.0
 11
30.89499664306641
 21
1.800172686576843
 31
0.0
  0
LINE
  5
1E5
330
1F
100
AcDbEntity
  8
0
100
AcDbLine
 10
30.33312797546387
 20
1.69232165813446
 30
0.0
 11
30.43013381958008
 21
1.710942029953002
 31
0.0
  0
LINE
  5
1E6
330
1F
100
AcDbEntity
  8
0
100
AcDbLine
 10
30.53196525573731
 20
1.730488538742065
 30
0.0
 11
30.64169692993164
 21
1.751551508903503
 31
0.0
  0
LINE
  5
1E7
330
1F
100
AcDbEntity
  8
0
100
AcDbLine
 10
30.01121330261231
 20
1.63053011894226
 30
0.0
 11
30.05406761169434
 21
1.638756036758422
 31
0.0
  0
LINE
  5
1E8
330
1F
100
AcDbEntity
  8
0
100
AcDbLine
 10
30.43013381958008
 20
1.710942029953002
 30
0.0
 11
30.53196525573731
 21
1.730488538742065
 31
0.0
  0
LINE
  5
1E9
330
1F
100
AcDbEntity
  8
0
100
AcDbLine
 10
30.2451457977295
 20
1.67543351650238
 30
0.0
 11
30.33312797546387
 21
1.69232165813446
 31
0.0
  0
LINE
  5
1EA
330
1F
100
AcDbEntity
  8
0
100
AcDbLine
 10
30.16899681091309
 20
1.6608167886734
 30
0.0
 11
30.2451457977295
 21
1.67543351650238
 31
0.0
  0
LINE
  5
1EB
330
1F
100
AcDbEntity
  8
0
100
AcDbLine
 10
31.45628738403321
 20
1.907912850379943
 30
0.0
 11
31.61093711853027
 21
1.937597513198852
 31
0.0
  0
LINE
  5
1EC
330
1F
100
AcDbEntity
  8
0
100
AcDbLine
 10
30.05406761169434
 20
1.638756036758422
 30
0.0
 11
30.10613250732422
 21
1.648749589920043
 31
0.0
  0
LINE
  5
1ED
330
1F
100
AcDbEntity
  8
0
100
AcDbLine
 10
29.96210861206055
 20
1.621104478836059
 30
0.0
 11
29.980224609375
 21
1.624581694602966
 31
0.0
  0
LINE
  5
1EE
330
1F
100
AcDbEntity
  8
0
100
AcDbLine
 10
31.88126945495606
 20
1.983975291252136
 30
0.0
 11
31.90402793884278
 21
1.988303065299987
 31
0.0
  0
LINE
  5
1EF
330
1F
100
AcDbEntity
  8
0
100
AcDbLine
 10
31.85738563537598
 20
1.980037927627563
 30
0.0
 11
31.88126945495606
 21
1.983975291252136
 31
0.0
  0
LINE
  5
1F0
330
1F
100
AcDbEntity
  8
0
100
AcDbLine
 10
31.83385467529297
 20
1.976497888565063
 30
0.0
 11
31.85738563537598
 21
1.980037927627563
 31
0.0
  0
LINE
  5
1F1
330
1F
100
AcDbEntity
  8
0
100
AcDbLine
 10
31.81164932250977
 20
1.97336721420288
 30
0.0
 11
31.83385467529297
 21
1.976497888565063
 31
0.0
  0
LINE
  5
1F2
330
1F
100
AcDbEntity
  8
0
100
AcDbLine
 10
31.78912925720215
 20
1.97034478187561
 30
0.0
 11
31.81164932250977
 21
1.97336721420288
 31
0.0
  0
LINE
  5
1F3
330
1F
100
AcDbEntity
  8
0
100
AcDbLine
 10
31.76609039306641
 20
1.967379450798034
 30
0.0
 11
31.78912925720215
 21
1.97034478187561
 31
0.0
  0
LINE
  5
1F4
330
1F
100
AcDbEntity
  8
0
100
AcDbLine
 10
0.0
 20
57.96550750732421
 30
0.0
 11
2.0
 21
57.96550750732421
 31
0.0
  0
LINE
  5
1F5
330
1F
100
AcDbEntity
  8
0
100
AcDbLine
 10
0.0000000000000002
 20
31.93743896484375
 30
0.0
 11
2.0
 21
31.93743896484375
 31
0.0
  0
LINE
  5
1F6
330
1F
100
AcDbEntity
  8
0
100
AcDbLine
 10
31.79470062255859
 20
0.0049999998882413
 30
0.0
 11
32.07736587524414
 21
0.0049999998882413
 31
0.0
  0
LINE
  5
1F7
330
1F
100
AcDbEntity
  8
0
100
AcDbLine
 10
31.93712615966797
 20
2.005000114440917
 30
0.0
 11
57.96533584594726
 21
2.005000114440917
 31
0.0
  0
LINE
  5
1F8
330
1F
100
AcDbEntity
  8
0
100
AcDbLine
 10
32.12577056884766
 20
0.0049999998882413
 30
0.0
 11
58.10666656494141
 21
0.0049999998882413
 31
0.0
  0
LINE
  5
1F9
330
1F
100
AcDbEntity
  8
0
100
AcDbLine
 10
59.96892929077148
 20
1.930696368217468
 30
0.0
 11
59.96699523925781
 21
1.930763244628906
 31
0.0
  0
LINE
  5
1FA
330
1F
100
AcDbEntity
  8
0
100
AcDbLine
 10
59.95113372802734
 20
1.931311964988708
 30
0.0
 11
59.93692779541015
 21
1.931803226470947
 31
0.0
  0
LINE
  5
1FB
330
1F
100
AcDbEntity
  8
0
100
AcDbLine
 10
59.07098770141601
 20
1.961755871772766
 30
0.0
 11
58.9930305480957
 21
1.964452266693115
 31
0.0
  0
LINE
  5
1FC
330
1F
100
AcDbEntity
  8
0
100
AcDbLine
 10
59.41313552856446
 20
1.949921131134033
 30
0.0
 11
59.35274505615234
 21
1.952009916305541
 31
0.0
  0
LINE
  5
1FD
330
1F
100
AcDbEntity
  8
0
100
AcDbLine
 10
59.73191452026367
 20
1.938894629478454
 30
0.0
 11
59.68709564208984
 21
1.940444827079772
 31
0.0
  0
LINE
  5
1FE
330
1F
100
AcDbEntity
  8
0
100
AcDbLine
 10
59.80840682983398
 20
1.936248779296875
 30
0.0
 11
59.7724380493164
 21
1.937492847442626
 31
0.0
  0
LINE
  5
1FF
330
1F
100
AcDbEntity
  8
0
100
AcDbLine
 10
59.84030151367187
 20
1.935145616531372
 30
0.0
 11
59.80840682983398
 21
1.936248779296875
 31
0.0
  0
LINE
  5
200
330
1F
100
AcDbEntity
  8
0
100
AcDbLine
 10
58.0570182800293
 20
1.99682867527008
 30
0.0
 11
57.970703125
 21
1.999814271926879
 31
0.0
  0
LINE
  5
201
330
1F
100
AcDbEntity
  8
0
100
AcDbLine
 10
58.14581680297852
 20
1.993757247924804
 30
0.0
 11
58.0570182800293
 21
1.99682867527008
 31
0.0
  0
LINE
  5
202
330
1F
100
AcDbEntity
  8
0
100
AcDbLine
 10
58.23608779907226
 20
1.990634799003601
 30
0.0
 11
58.14581680297852
 21
1.993757247924804
 31
0.0
  0
LINE
  5
203
330
1F
100
AcDbEntity
  8
0
100
AcDbLine
 10
58.32682418823242
 20
1.987496256828308
 30
0.0
 11
58.23608779907226
 21
1.990634799003601
 31
0.0
  0
LINE
  5
204
330
1F
100
AcDbEntity
  8
0
100
AcDbLine
 10
58.50577163696289
 20
1.981306433677673
 30
0.0
 11
58.41702651977539
 21
1.984376072883605
 31
0.0
  0
LINE
  5
205
330
1F
100
AcDbEntity
  8
0
100
AcDbLine
 10
58.67536926269531
 20
1.975440144538879
 30
0.0
 11
58.59217834472656
 21
1.978317618370056
 31
0.0
  0
LINE
  5
206
330
1F
100
AcDbEntity
  8
0
100
AcDbLine
 10
58.75471878051758
 20
1.972695469856262
 30
0.0
 11
58.67536926269531
 21
1.975440144538879
 31
0.0
  0
LINE
  5
207
330
1F
100
AcDbEntity
  8
0
100
AcDbLine
 10
58.91367721557617
 20
1.967197179794311
 30
0.0
 11
58.83391189575196
 21
1.969956159591674
 31
0.0
  0
LINE
  5
208
330
1F
100
AcDbEntity
  8
0
100
AcDbLine
 10
59.21918487548828
 20
1.956629753112792
 30
0.0
 11
59.1466064453125
 21
1.959140181541442
 31
0.0
  0
LINE
  5
209
330
1F
100
AcDbEntity
  8
0
100
AcDbLine
 10
59.35274505615234
 20
1.952009916305541
 30
0.0
 11
59.28810501098633
 21
1.954245805740356
 31
0.0
  0
LINE
  5
20A
330
1F
100
AcDbEntity
  8
0
100
AcDbLine
 10
59.47232437133789
 20
1.947873830795288
 30
0.0
 11
59.41313552856446
 21
1.949921131134033
 31
0.0
  0
LINE
  5
20B
330
1F
100
AcDbEntity
  8
0
100
AcDbLine
 10
59.585693359375
 20
1.943952322006225
 30
0.0
 11
59.53011322021485
 21
1.945874810218811
 31
0.0
  0
LINE
  5
20C
330
1F
100
AcDbEntity
  8
0
100
AcDbLine
 10
59.63824844360352
 20
1.942134499549865
 30
0.0
 11
59.585693359375
 21
1.943952322006225
 31
0.0
  0
LINE
  5
20D
330
1F
100
AcDbEntity
  8
0
100
AcDbLine
 10
59.89576339721679
 20
1.933227181434631
 30
0.0
 11
59.86956405639649
 21
1.934133410453796
 31
0.0
  0
LINE
  5
20E
330
1F
100
AcDbEntity
  8
0
100
AcDbLine
 10
58.41702651977539
 20
1.984376072883605
 30
0.0
 11
58.32682418823242
 21
1.987496256828308
 31
0.0
  0
LINE
  5
20F
330
1F
100
AcDbEntity
  8
0
100
AcDbLine
 10
58.59217834472656
 20
1.978317618370056
 30
0.0
 11
58.50577163696289
 21
1.981306433677673
 31
0.0
  0
LINE
  5
210
330
1F
100
AcDbEntity
  8
0
100
AcDbLine
 10
58.83391189575196
 20
1.969956159591674
 30
0.0
 11
58.75471878051758
 21
1.972695469856262
 31
0.0
  0
LINE
  5
211
330
1F
100
AcDbEntity
  8
0
100
AcDbLine
 10
59.28810501098633
 20
1.954245805740356
 30
0.0
 11
59.21918487548828
 21
1.956629753112792
 31
0.0
  0
LINE
  5
212
330
1F
100
AcDbEntity
  8
0
100
AcDbLine
 10
58.9930305480957
 20
1.964452266693115
 30
0.0
 11
58.91367721557617
 21
1.967197179794311
 31
0.0
  0
LINE
  5
213
330
1F
100
AcDbEntity
  8
0
100
AcDbLine
 10
59.1466064453125
 20
1.959140181541442
 30
0.0
 11
59.07098770141601
 21
1.961755871772766
 31
0.0
  0
LINE
  5
214
330
1F
100
AcDbEntity
  8
0
100
AcDbLine
 10
59.86956405639649
 20
1.934133410453796
 30
0.0
 11
59.84030151367187
 21
1.935145616531372
 31
0.0
  0
LINE
  5
215
330
1F
100
AcDbEntity
  8
0
100
AcDbLine
 10
59.91838836669922
 20
1.93244457244873
 30
0.0
 11
59.89576339721679
 21
1.933227181434631
 31
0.0
  0
LINE
  5
216
330
1F
100
AcDbEntity
  8
0
100
AcDbLine
 10
59.53011322021485
 20
1.945874810218811
 30
0.0
 11
59.47232437133789
 21
1.947873830795288
 31
0.0
  0
LINE
  5
217
330
1F
100
AcDbEntity
  8
0
100
AcDbLine
 10
59.68709564208984
 20
1.940444827079772
 30
0.0
 11
59.63824844360352
 21
1.942134499549865
 31
0.0
  0
LINE
  5
218
330
1F
100
AcDbEntity
  8
0
100
AcDbLine
 10
59.7724380493164
 20
1.937492847442626
 30
0.0
 11
59.73191452026367
 21
1.938894629478454
 31
0.0
  0
LINE
  5
219
330
1F
100
AcDbEntity
  8
0
100
AcDbLine
 10
59.96699523925781
 20
1.930763244628906
 30
0.0
 11
59.96110916137695
 21
1.930966854095458
 31
0.0
  0
LINE
  5
21A
330
1F
100
AcDbEntity
  8
0
100
AcDbLine
 10
59.93692779541015
 20
1.931803226470947
 30
0.0
 11
59.91838836669922
 21
1.93244457244873
 31
0.0
  0
LINE
  5
21B
330
1F
100
AcDbEntity
  8
0
100
AcDbLine
 10
59.96110916137695
 20
1.930966854095458
 30
0.0
 11
59.95113372802734
 21
1.931311964988708
 31
0.0
  0
LINE
  5
21C
330
1F
100
AcDbEntity
  8
0
100
AcDbLine
 10
57.96712493896484
 20
2.003271579742431
 30
0.0
 11
57.96622848510742
 21
2.004135847091674
 31
0.0
  0
LINE
  5
21D
330
1F
100
AcDbEntity
  8
0
100
AcDbLine
 10
57.970703125
 20
1.999814271926879
 30
0.0
 11
57.96980667114258
 21
2.000678539276123
 31
0.0
  0
LINE
  5
21E
330
1F
100
AcDbEntity
  8
0
100
AcDbLine
 10
57.96891403198242
 20
2.001542806625366
 30
0.0
 11
57.968017578125
 21
2.002407312393188
 31
0.0
  0
LINE
  5
21F
330
1F
100
AcDbEntity
  8
0
100
AcDbLine
 10
57.96622848510742
 20
2.004135847091674
 30
0.0
 11
57.96533584594726
 21
2.005000114440917
 31
0.0
  0
LINE
  5
220
330
1F
100
AcDbEntity
  8
0
100
AcDbLine
 10
57.968017578125
 20
2.002407312393188
 30
0.0
 11
57.96712493896484
 21
2.003271579742431
 31
0.0
  0
LINE
  5
221
330
1F
100
AcDbEntity
  8
0
100
AcDbLine
 10
57.96980667114258
 20
2.000678539276123
 30
0.0
 11
57.96891403198242
 21
2.001542806625366
 31
0.0
  0
LINE
  5
222
330
1F
100
AcDbEntity
  8
0
100
AcDbLine
 10
57.99542617797851
 20
1.912107467651367
 30
0.0
 11
57.97050857543945
 21
1.999820828437805
 31
0.0
  0
LINE
  5
223
330
1F
100
AcDbEntity
  8
0
100
AcDbLine
 10
58.00765609741211
 20
1.823522686958312
 30
0.0
 11
57.99542617797851
 21
1.912107467651367
 31
0.0
  0
LINE
  5
224
330
1F
100
AcDbEntity
  8
0
100
AcDbLine
 10
58.01743698120117
 20
1.731040120124816
 30
0.0
 11
58.00765609741211
 21
1.823522686958312
 31
0.0
  0
LINE
  5
225
330
1F
100
AcDbEntity
  8
0
100
AcDbLine
 10
32.12577056884766
 20
0.0049999998882413
 30
0.0
 11
32.04141616821289
 21
0.8919666409492492
 31
0.0
  0
LINE
  5
226
330
1F
100
AcDbEntity
  8
0
100
AcDbLine
 10
58.02558898925781
 20
1.6394464969635
 30
0.0
 11
58.01743698120117
 21
1.731040120124816
 31
0.0
  0
LINE
  5
227
330
1F
100
AcDbEntity
  8
0
100
AcDbLine
 10
58.03231811523438
 20
1.553847193717956
 30
0.0
 11
58.02558898925781
 21
1.6394464969635
 31
0.0
  0
LINE
  5
228
330
1F
100
AcDbEntity
  8
0
100
AcDbLine
 10
58.03844833374023
 20
1.467929363250732
 30
0.0
 11
58.03231811523438
 21
1.553847193717956
 31
0.0
  0
LINE
  5
229
330
1F
100
AcDbEntity
  8
0
100
AcDbLine
 10
58.04417419433594
 20
1.380927443504333
 30
0.0
 11
58.03844833374023
 21
1.467929363250732
 31
0.0
  0
LINE
  5
22A
330
1F
100
AcDbEntity
  8
0
100
AcDbLine
 10
58.04951858520507
 20
1.293782472610473
 30
0.0
 11
58.04417419433594
 21
1.380927443504333
 31
0.0
  0
LINE
  5
22B
330
1F
100
AcDbEntity
  8
0
100
AcDbLine
 10
58.05450439453125
 20
1.207371354103088
 30
0.0
 11
58.04951858520507
 21
1.293782472610473
 31
0.0
  0
LINE
  5
22C
330
1F
100
AcDbEntity
  8
0
100
AcDbLine
 10
58.05913925170898
 20
1.12253999710083
 30
0.0
 11
58.05450439453125
 21
1.207371354103088
 31
0.0
  0
LINE
  5
22D
330
1F
100
AcDbEntity
  8
0
100
AcDbLine
 10
58.06343841552735
 20
1.040040254592895
 30
0.0
 11
58.05913925170898
 21
1.12253999710083
 31
0.0
  0
LINE
  5
22E
330
1F
100
AcDbEntity
  8
0
100
AcDbLine
 10
58.0674057006836
 20
0.9606059193611145
 30
0.0
 11
58.06343841552735
 21
1.040040254592895
 31
0.0
  0
LINE
  5
22F
330
1F
100
AcDbEntity
  8
0
100
AcDbLine
 10
58.07105255126953
 20
0.8849066495895385
 30
0.0
 11
58.0674057006836
 21
0.9606059193611145
 31
0.0
  0
LINE
  5
230
330
1F
100
AcDbEntity
  8
0
100
AcDbLine
 10
32.04528427124023
 20
0.8088838458061218
 30
0.0
 11
32.04141616821289
 21
0.8919724225997924
 31
0.0
  0
LINE
  5
231
330
1F
100
AcDbEntity
  8
0
100
AcDbLine
 10
58.07437515258789
 20
0.8135250210762023
 30
0.0
 11
58.07105255126953
 21
0.8849066495895385
 31
0.0
  0
LINE
  5
232
330
1F
100
AcDbEntity
  8
0
100
AcDbLine
 10
58.07746124267578
 20
0.7452571988105774
 30
0.0
 11
58.07437515258789
 21
0.8135250210762023
 31
0.0
  0
LINE
  5
233
330
1F
100
AcDbEntity
  8
0
100
AcDbLine
 10
32.04884719848633
 20
0.7297861576080323
 30
0.0
 11
32.04528427124023
 21
0.8088838458061218
 31
0.0
  0
LINE
  5
234
330
1F
100
AcDbEntity
  8
0
100
AcDbLine
 10
58.08039093017578
 20
0.6787663102149964
 30
0.0
 11
58.07746124267578
 21
0.7452571988105774
 31
0.0
  0
LINE
  5
235
330
1F
100
AcDbEntity
  8
0
100
AcDbLine
 10
32.05219650268555
 20
0.653169870376587
 30
0.0
 11
32.04884719848633
 21
0.7297861576080323
 31
0.0
  0
LINE
  5
236
330
1F
100
AcDbEntity
  8
0
100
AcDbLine
 10
58.08315658569336
 20
0.6143037080764771
 30
0.0
 11
58.08039093017578
 21
0.6787663102149964
 31
0.0
  0
LINE
  5
237
330
1F
100
AcDbEntity
  8
0
100
AcDbLine
 10
32.05532455444336
 20
0.5794301629066468
 30
0.0
 11
32.05219650268555
 21
0.653169870376587
 31
0.0
  0
LINE
  5
238
330
1F
100
AcDbEntity
  8
0
100
AcDbLine
 10
58.08576583862304
 20
0.5521205067634583
 30
0.0
 11
58.08315658569336
 21
0.6143037080764771
 31
0.0
  0
LINE
  5
239
330
1F
100
AcDbEntity
  8
0
100
AcDbLine
 10
32.05824279785157
 20
0.508962094783783
 30
0.0
 11
32.05532455444336
 21
0.5794301629066468
 31
0.0
  0
LINE
  5
23A
330
1F
100
AcDbEntity
  8
0
100
AcDbLine
 10
58.08821868896484
 20
0.4924679696559906
 30
0.0
 11
58.08576583862304
 21
0.5521205067634583
 31
0.0
  0
LINE
  5
23B
330
1F
100
AcDbEntity
  8
0
100
AcDbLine
 10
32.06094741821289
 20
0.4421560168266297
 30
0.0
 11
32.05824279785157
 21
0.508962094783783
 31
0.0
  0
LINE
  5
23C
330
1F
100
AcDbEntity
  8
0
100
AcDbLine
 10
58.09051132202148
 20
0.435589611530304
 30
0.0
 11
58.08821868896484
 21
0.4924679696559906
 31
0.0
  0
LINE
  5
23D
330
1F
100
AcDbEntity
  8
0
100
AcDbLine
 10
32.06343841552734
 20
0.3793261349201202
 30
0.0
 11
32.06094741821289
 21
0.4421560168266297
 31
0.0
  0
LINE
  5
23E
330
1F
100
AcDbEntity
  8
0
100
AcDbLine
 10
58.09264755249023
 20
0.3816713690757751
 30
0.0
 11
58.09051132202148
 21
0.435589611530304
 31
0.0
  0
LINE
  5
23F
330
1F
100
AcDbEntity
  8
0
100
AcDbLine
 10
58.09462738037109
 20
0.3308734595775604
 30
0.0
 11
58.09264755249023
 21
0.3816713690757751
 31
0.0
  0
LINE
  5
240
330
1F
100
AcDbEntity
  8
0
100
AcDbLine
 10
32.06571578979492
 20
0.3207259774208069
 30
0.0
 11
32.06343841552734
 21
0.3793261349201202
 31
0.0
  0
LINE
  5
241
330
1F
100
AcDbEntity
  8
0
100
AcDbLine
 10
58.09645080566406
 20
0.2833560109138489
 30
0.0
 11
58.09462738037109
 21
0.3308734595775604
 31
0.0
  0
LINE
  5
242
330
1F
100
AcDbEntity
  8
0
100
AcDbLine
 10
32.06778717041016
 20
0.2666072845458984
 30
0.0
 11
32.06571578979492
 21
0.3207259774208069
 31
0.0
  0
LINE
  5
243
330
1F
100
AcDbEntity
  8
0
100
AcDbLine
 10
58.09812164306641
 20
0.2392791360616684
 30
0.0
 11
58.09645080566406
 21
0.2833560109138489
 31
0.0
  0
LINE
  5
244
330
1F
100
AcDbEntity
  8
0
100
AcDbLine
 10
32.06964874267578
 20
0.2172219008207321
 30
0.0
 11
32.06778717041016
 21
0.2666072845458984
 31
0.0
  0
LINE
  5
245
330
1F
100
AcDbEntity
  8
0
100
AcDbLine
 10
58.09963607788086
 20
0.1987967640161514
 30
0.0
 11
58.09812164306641
 21
0.2392791360616684
 31
0.0
  0
LINE
  5
246
330
1F
100
AcDbEntity
  8
0
100
AcDbLine
 10
32.0713005065918
 20
0.1727713942527771
 30
0.0
 11
32.06964874267578
 21
0.2172219008207321
 31
0.0
  0
LINE
  5
247
330
1F
100
AcDbEntity
  8
0
100
AcDbLine
 10
58.10100173950195
 20
0.1619980931282043
 30
0.0
 11
58.09963607788086
 21
0.1987967640161514
 31
0.0
  0
LINE
  5
248
330
1F
100
AcDbEntity
  8
0
100
AcDbLine
 10
32.07275009155273
 20
0.1333641409873962
 30
0.0
 11
32.0713005065918
 21
0.1727713942527771
 31
0.0
  0
LINE
  5
249
330
1F
100
AcDbEntity
  8
0
100
AcDbLine
 10
58.10221481323242
 20
0.1289492249488831
 30
0.0
 11
58.10100173950195
 21
0.1619980931282043
 31
0.0
  0
LINE
  5
24A
330
1F
100
AcDbEntity
  8
0
100
AcDbLine
 10
32.0739974975586
 20
0.0991074591875077
 30
0.0
 11
32.07275009155273
 21
0.1333641409873962
 31
0.0
  0
LINE
  5
24B
330
1F
100
AcDbEntity
  8
0
100
AcDbLine
 10
58.10327529907226
 20
0.099718376994133
 30
0.0
 11
58.10221481323242
 21
0.1289492249488831
 31
0.0
  0
LINE
  5
24C
330
1F
100
AcDbEntity
  8
0
100
AcDbLine
 10
58.10419082641601
 20
0.0743738040328026
 30
0.0
 11
58.10327529907226
 21
0.099718376994133
 31
0.0
  0
LINE
  5
24D
330
1F
100
AcDbEntity
  8
0
100
AcDbLine
 10
32.07504272460937
 20
0.0701086670160294
 30
0.0
 11
32.0739974975586
 21
0.0991074591875077
 31
0.0
  0
LINE
  5
24E
330
1F
100
AcDbEntity
  8
0
100
AcDbLine
 10
58.10558319091796
 20
0.0355820134282112
 30
0.0
 11
58.1049575805664
 21
0.052983570843935
 31
0.0
  0
LINE
  5
24F
330
1F
100
AcDbEntity
  8
0
100
AcDbLine
 10
58.1049575805664
 20
0.052983570843935
 30
0.0
 11
58.10419082641601
 21
0.0743738040328026
 31
0.0
  0
LINE
  5
250
330
1F
100
AcDbEntity
  8
0
100
AcDbLine
 10
32.07736587524414
 20
0.0049999998882413
 30
0.0
 11
32.07727432250977
 21
0.0075543913990259
 31
0.0
  0
LINE
  5
251
330
1F
100
AcDbEntity
  8
0
100
AcDbLine
 10
32.07588958740235
 20
0.0464717224240303
 30
0.0
 11
32.07504272460937
 21
0.0701086670160294
 31
0.0
  0
LINE
  5
252
330
1F
100
AcDbEntity
  8
0
100
AcDbLine
 10
32.07654190063477
 20
0.0282150711864233
 30
0.0
 11
32.07588958740235
 21
0.0464717224240303
 31
0.0
  0
LINE
  5
253
330
1F
100
AcDbEntity
  8
0
100
AcDbLine
 10
32.07700347900391
 20
0.0152676878497005
 30
0.0
 11
32.07654190063477
 21
0.0282150711864233
 31
0.0
  0
LINE
  5
254
330
1F
100
AcDbEntity
  8
0
100
AcDbLine
 10
58.10639953613281
 20
0.0125817656517029
 30
0.0
 11
58.10606002807617
 21
0.0221306774765253
 31
0.0
  0
LINE
  5
255
330
1F
100
AcDbEntity
  8
0
100
AcDbLine
 10
58.10660171508789
 20
0.0068874745629728
 30
0.0
 11
58.10639953613281
 21
0.0125817656517029
 31
0.0
  0
LINE
  5
256
330
1F
100
AcDbEntity
  8
0
100
AcDbLine
 10
58.10606002807617
 20
0.0221306774765253
 30
0.0
 11
58.10558319091796
 21
0.0355820134282112
 31
0.0
  0
LINE
  5
257
330
1F
100
AcDbEntity
  8
0
100
AcDbLine
 10
32.07727432250977
 20
0.0075543913990259
 30
0.0
 11
32.07700347900391
 21
0.0152676878497005
 31
0.0
  0
LINE
  5
258
330
1F
100
AcDbEntity
  8
0
100
AcDbLine
 10
58.10666656494141
 20
0.0049999998882413
 30
0.0
 11
58.10660171508789
 21
0.0068874745629728
 31
0.0
  0
ARC
  5
259
330
1F
100
AcDbEntity
  8
0
100
AcDbCircle
 10
0.0
 20
0.0
 30
0.0
 40
30.0
100
AcDbArc
 50
3.095431489902435
 51
86.45245800897882
  0
ARC
  5
25A
330
1F
100
AcDbEntity
  8
0
100
AcDbCircle
 10
0.0
 20
0.0
 30
0.0
 40
32.0
100
AcDbArc
 50
3.592291744706576
 51
86.41667830204921
  0
ARC
  5
25B
330
1F
100
AcDbEntity
  8
0
100
AcDbCircle
 10
0.0
 20
0.0
 30
0.0
 40
58.0
100
AcDbArc
 50
1.981050523593663
 51
88.02389171428435
  0
ARC
  5
25C
330
1F
100
AcDbEntity
  8
0
100
AcDbCircle
 10
0.0
 20
0.0
 30
0.0
 40
60.0
100
AcDbArc
 50
1.843997563398738
 51
88.0153619363889
  0
ARC
  5
25D
330
1F
100
AcDbEntity
  8
0
100
AcDbCircle
 10
2.0
 20
31.93743885
 30
0.0
 40
2.0
100
AcDbArc
 50
180.0
 51
265.88
  0
ARC
  5
25E
330
1F
100
AcDbEntity
  8
0
100
AcDbCircle
 10
2.0
 20
57.96550698
 30
0.0
 40
1.999999999999999
100
AcDbArc
 50
87.76799999999999
 51
180.0
  0
ARC
  5
25F
330
1F
100
AcDbEntity
  8
0
100
AcDbCircle
 10
31.93603269
 20
2.0
 30
0.0
 40
2.000000000000001
100
AcDbArc
 50
190.8657884799998
 51
265.9477320556169
  0
ARC
  5
260
330
1F
100
AcDbEntity
  8
0
100
AcDbCircle
 10
31.93603269
 20
2.0
 30
0.0
 40
1.999999999999999
100
AcDbArc
 50
274.052267944383
 51
275.4328942399996
  0
ARC
  5
261
330
1F
100
AcDbEntity
  8
0
100
AcDbCircle
 10
57.96533424999999
 20
2.0
 30
0.0
 40
1.999999999999999
100
AcDbArc
 50
274.0522679443833
 51
358.0189494799999
  0
LINE
  5
262
330
1F
100
AcDbEntity
  8
0
100
AcDbLine
 10
32.12577056884766
 20
0.0049999998882413
 30
0.0
 11
58.10666656494141
 21
0.0049999998882413
 31
0.0
  0
LINE
  5
3B9
330
1F
100
AcDbEntity
  8
0
100
AcDbLine
 10
59.83210813927851
 20
83.68248752544872
 30
0.0
 11
59.83210813927851
 21
84.68248752544871
 31
0.0
  0
LINE
  5
3BA
330
1F
100
AcDbEntity
  8
0
100
AcDbLine
 10
-0.136821151492966
 20
83.68248752544872
 30
0.0
 11
-0.136821151492966
 21
84.68248752544871
 31
0.0
  0
LINE
  5
3BB
330
1F
100
AcDbEntity
  8
0
100
AcDbLine
 10
57.96984541344844
 20
83.68248752544872
 30
0.0
 11
57.96984541344844
 21
84.68248752544871
 31
0.0
  0
LINE
  5
3BC
330
1F
100
AcDbEntity
  8
0
100
AcDbLine
 10
59.82731687951289
 20
83.68248752544872
 30
0.0
 11
59.82731687951289
 21
84.68248752544871
 31
0.0
  0
LINE
  5
3BD
330
1F
100
AcDbEntity
  8
0
100
AcDbLine
 10
31.98894941735469
 20
83.68248752544872
 30
0.0
 11
31.98894941735469
 21
84.68248752544871
 31
0.0
  0
LINE
  5
3BE
330
1F
100
AcDbEntity
  8
0
100
AcDbLine
 10
1.719480871440993
 20
83.68248752544872
 30
0.0
 11
1.719480871440993
 21
84.68248752544871
 31
0.0
  0
LINE
  5
3BF
330
1F
100
AcDbEntity
  8
0
100
AcDbLine
 10
31.94054472375118
 20
83.68248752544872
 30
0.0
 11
31.94054472375118
 21
84.68248752544871
 31
0.0
  0
LINE
  5
3C0
330
1F
100
AcDbEntity
  8
0
100
AcDbLine
 10
31.65787947106563
 20
83.68248752544872
 30
0.0
 11
31.65787947106563
 21
84.68248752544871
 31
0.0
  0
LINE
  5
3C1
330
1F
100
AcDbEntity
  8
0
100
AcDbLine
 10
29.83506834435664
 20
83.68248752544872
 30
0.0
 11
29.83506834435664
 21
84.68248752544871
 31
0.0
  0
LINE
  5
3C2
330
1F
100
AcDbEntity
  8
0
100
AcDbLine
 10
31.98857176232539
 20
83.68248752544872
 30
0.0
 11
31.98857176232539
 21
84.68248752544871
 31
0.0
  0
LINE
  5
3C3
330
1F
100
AcDbEntity
  8
0
100
AcDbLine
 10
29.81940901208125
 20
83.68248752544872
 30
0.0
 11
29.81940901208125
 21
84.68248752544871
 31
0.0
  0
LINE
  5
3C4
330
1F
100
AcDbEntity
  8
0
100
AcDbLine
 10
31.65787947106563
 20
84.68248752544871
 30
0.0
 11
31.65794432091914
 21
84.76873377750866
 31
0.0
  0
LINE
  5
3C5
330
1F
100
AcDbEntity
  8
0
100
AcDbLine
 10
1.719480871440993
 20
84.68248752544871
 30
0.0
 11
1.719619631054031
 21
84.76872888992778
 31
0.0
  0
LINE
  5
3C6
330
1F
100
AcDbEntity
  8
0
100
AcDbLine
 10
31.65794432091914
 20
84.76873377750866
 30
0.0
 11
31.65814459252559
 21
84.85558024834148
 31
0.0
  0
LINE
  5
3C7
330
1F
100
AcDbEntity
  8
0
100
AcDbLine
 10
31.65814459252559
 20
84.85558024834148
 30
0.0
 11
31.6584821932336
 21
84.94275251816265
 31
0.0
  0
LINE
  5
3C8
330
1F
100
AcDbEntity
  8
0
100
AcDbLine
 10
1.719619631054031
 20
84.76872888992778
 30
0.0
 11
1.720042466404067
 21
84.85751918743602
 31
0.0
  0
LINE
  5
3C9
330
1F
100
AcDbEntity
  8
0
100
AcDbLine
 10
31.6584821932336
 20
84.94275251816265
 30
0.0
 11
31.6589590303918
 21
85.02997604797831
 31
0.0
  0
LINE
  5
3CA
330
1F
100
AcDbEntity
  8
0
100
AcDbLine
 10
31.6589590303918
 20
85.02997604797831
 30
0.0
 11
31.65957891869747
 21
85.11697641800395
 31
0.0
  0
LINE
  5
3CB
330
1F
100
AcDbEntity
  8
0
100
AcDbLine
 10
1.720042466404067
 20
84.85751918743602
 30
0.0
 11
1.720759033443557
 21
84.94784299324505
 31
0.0
  0
LINE
  5
3CC
330
1F
100
AcDbEntity
  8
0
100
AcDbLine
 10
31.65957891869747
 20
85.11697641800395
 30
0.0
 11
31.66034376549922
 21
85.20348099659434
 31
0.0
  0
LINE
  5
3CD
330
1F
100
AcDbEntity
  8
0
100
AcDbLine
 10
31.66034376549922
 20
85.20348099659434
 30
0.0
 11
31.66125357079707
 21
85.289234318242
 31
0.0
  0
LINE
  5
3CE
330
1F
100
AcDbEntity
  8
0
100
AcDbLine
 10
1.720759033443557
 20
84.94784299324505
 30
0.0
 11
1.721779345752822
 21
85.03868500183575
 31
0.0
  0
LINE
  5
3CF
330
1F
100
AcDbEntity
  8
0
100
AcDbLine
 10
31.66125357079707
 20
85.289234318242
 30
0.0
 11
31.66231214928828
 21
85.37398902367106
 31
0.0
  0
LINE
  5
3D0
330
1F
100
AcDbEntity
  8
0
100
AcDbLine
 10
31.66231214928828
 20
85.37398902367106
 30
0.0
 11
31.66351950097285
 21
85.45749763439648
 31
0.0
  0
LINE
  5
3D1
330
1F
100
AcDbEntity
  8
0
100
AcDbLine
 10
1.721779345752822
 20
85.03868500183575
 30
0.0
 11
1.723111032726394
 21
85.12903503368846
 31
0.0
  0
LINE
  5
3D2
330
1F
100
AcDbEntity
  8
0
100
AcDbLine
 10
31.66351950097285
 20
85.45749763439648
 30
0.0
 11
31.66487753319942
 21
85.5395126719331
 31
0.0
  0
LINE
  5
3D3
330
1F
100
AcDbEntity
  8
0
100
AcDbLine
 10
1.723111032726394
 20
85.12903503368846
 30
0.0
 11
1.72473621297084
 21
85.21795455406659
 31
0.0
  0
LINE
  5
3D4
330
1F
100
AcDbEntity
  8
0
100
AcDbLine
 10
31.66487753319942
 20
85.5395126719331
 30
0.0
 11
31.66638624596797
 21
85.61979488323681
 31
0.0
  0
LINE
  5
3D5
330
1F
100
AcDbEntity
  8
0
100
AcDbLine
 10
31.66638624596797
 20
85.61979488323681
 30
0.0
 11
31.66804754662715
 21
85.69816688488476
 31
0.0
  0
LINE
  5
3D6
330
1F
100
AcDbEntity
  8
0
100
AcDbLine
 10
1.72473621297084
 20
85.21795455406659
 30
0.0
 11
1.726618527652846
 21
85.30455628822796
 31
0.0
  0
LINE
  5
3D7
330
1F
100
AcDbEntity
  8
0
100
AcDbLine
 10
31.66804754662715
 20
85.69816688488476
 30
0.0
 11
31.66986334252559
 21
85.77443531940929
 31
0.0
  0
LINE
  5
3D8
330
1F
100
AcDbEntity
  8
0
100
AcDbLine
 10
1.726618527652846
 20
85.30455628822796
 30
0.0
 11
1.728720783474074
 21
85.38795439194194
 31
0.0
  0
LINE
  5
3D9
330
1F
100
AcDbEntity
  8
0
100
AcDbLine
 10
31.66986334252559
 20
85.77443531940929
 30
0.0
 11
31.67183363366329
 21
85.84839872311107
 31
0.0
  0
LINE
  5
3DA
330
1F
100
AcDbEntity
  8
0
100
AcDbLine
 10
1.728720783474074
 20
85.38795439194194
 30
0.0
 11
1.731012343647109
 21
85.46746889542095
 31
0.0
  0
LINE
  5
3DB
330
1F
100
AcDbEntity
  8
0
100
AcDbLine
 10
31.67183363366329
 20
85.84839872311107
 30
0.0
 11
31.67396032738887
 21
85.91985563229076
 31
0.0
  0
LINE
  5
3DC
330
1F
100
AcDbEntity
  8
0
100
AcDbLine
 10
1.731012343647109
 20
85.46746889542095
 30
0.0
 11
1.733596681835281
 21
85.54670981358043
 31
0.0
  0
LINE
  5
3DD
330
1F
100
AcDbEntity
  8
0
100
AcDbLine
 10
31.67396032738887
 20
85.91985563229076
 30
0.0
 11
31.67624342370235
 21
85.9886048216676
 31
0.0
  0
LINE
  5
3DE
330
1F
100
AcDbEntity
  8
0
100
AcDbLine
 10
1.733596681835281
 20
85.54670981358043
 30
0.0
 11
1.736508845569717
 21
85.62654475162975
 31
0.0
  0
LINE
  5
3DF
330
1F
100
AcDbEntity
  8
0
100
AcDbLine
 10
31.67624342370235
 20
85.9886048216676
 30
0.0
 11
31.67868292260371
 21
86.0544646162843
 31
0.0
  0
LINE
  5
3E0
330
1F
100
AcDbEntity
  8
0
100
AcDbLine
 10
29.81940901208125
 20
84.68248752544871
 30
0.0
 11
29.82528746056758
 21
84.83469835709087
 31
0.0
  0
LINE
  5
3E1
330
1F
100
AcDbEntity
  8
0
100
AcDbLine
 10
1.736508845569717
 20
85.62654475162975
 30
0.0
 11
1.739729880573379
 21
85.70598367641919
 31
0.0
  0
LINE
  5
3E2
330
1F
100
AcDbEntity
  8
0
100
AcDbLine
 10
31.67868292260371
 20
86.0544646162843
 30
0.0
 11
31.6812807314416
 21
86.11730269382945
 31
0.0
  0
LINE
  5
3E3
330
1F
100
AcDbEntity
  8
0
100
AcDbLine
 10
1.739729880573379
 20
85.70598367641919
 30
0.0
 11
1.743240951778518
 21
85.78403619717112
 31
0.0
  0
LINE
  5
3E4
330
1F
100
AcDbEntity
  8
0
100
AcDbLine
 10
31.6812807314416
 20
86.11730269382945
 30
0.0
 11
31.68403685021602
 21
86.1769945998048
 31
0.0
  0
LINE
  5
3E5
330
1F
100
AcDbEntity
  8
0
100
AcDbLine
 10
1.743240951778518
 20
85.78403619717112
 30
0.0
 11
1.747018694164382
 21
85.85975364635936
 31
0.0
  0
LINE
  5
3E6
330
1F
100
AcDbEntity
  8
0
100
AcDbLine
 10
31.68403685021602
 20
86.1769945998048
 30
0.0
 11
31.68694937157833
 21
86.23341516445629
 31
0.0
  0
LINE
  5
3E7
330
1F
100
AcDbEntity
  8
0
100
AcDbLine
 10
1.747018694164382
 20
85.85975364635936
 30
0.0
 11
1.751013993503677
 21
85.93242744396679
 31
0.0
  0
LINE
  5
3E8
330
1F
100
AcDbEntity
  8
0
100
AcDbLine
 10
31.68694937157833
 20
86.23341516445629
 30
0.0
 11
31.69002401757442
 21
86.28643969486706
 31
0.0
  0
LINE
  5
3E9
330
1F
100
AcDbEntity
  8
0
100
AcDbLine
 10
1.751013993503677
 20
85.93242744396679
 30
0.0
 11
1.755168318035232
 21
86.00143555592053
 31
0.0
  0
LINE
  5
3EA
330
1F
100
AcDbEntity
  8
0
100
AcDbLine
 10
31.69002401757442
 20
86.28643969486706
 30
0.0
 11
31.69332373070918
 21
86.33695033977977
 31
0.0
  0
LINE
  5
3EB
330
1F
100
AcDbEntity
  8
0
100
AcDbLine
 10
1.755168318035232
 20
86.00143555592053
 30
0.0
 11
1.759423255207168
 21
86.06615666340344
 31
0.0
  0
LINE
  5
3EC
330
1F
100
AcDbEntity
  8
0
100
AcDbLine
 10
1.759423255207168
 20
86.06615666340344
 30
0.0
 11
1.763765930416213
 21
86.12659601162425
 31
0.0
  0
LINE
  5
3ED
330
1F
100
AcDbEntity
  8
0
100
AcDbLine
 10
31.69332373070918
 20
86.33695033977977
 30
0.0
 11
31.69694387841426
 21
86.38568715046398
 31
0.0
  0
LINE
  5
3EE
330
1F
100
AcDbEntity
  8
0
100
AcDbLine
 10
1.763765930416213
 20
86.12659601162425
 30
0.0
 11
1.7684161655923
 21
86.18581608723156
 31
0.0
  0
LINE
  5
3EF
330
1F
100
AcDbEntity
  8
0
100
AcDbLine
 10
31.69694387841426
 20
86.38568715046398
 30
0.0
 11
31.70088446068965
 21
86.43189672420971
 31
0.0
  0
LINE
  5
3F0
330
1F
100
AcDbEntity
  8
0
100
AcDbLine
 10
1.7684161655923
 20
86.18581608723156
 30
0.0
 11
1.773374556781875
 21
86.24363569210521
 31
0.0
  0
LINE
  5
3F1
330
1F
100
AcDbEntity
  8
0
100
AcDbLine
 10
1.773374556781875
 20
86.24363569210521
 30
0.0
 11
1.778596162082778
 21
86.29924086521617
 31
0.0
  0
LINE
  5
3F2
330
1F
100
AcDbEntity
  8
0
100
AcDbLine
 10
31.70088446068965
 20
86.43189672420971
 30
0.0
 11
31.70515692162715
 21
86.4749601263856
 31
0.0
  0
LINE
  5
3F3
330
1F
100
AcDbEntity
  8
0
100
AcDbLine
 10
1.778596162082778
 20
86.29924086521617
 30
0.0
 11
1.784036397220718
 21
86.35181716869823
 31
0.0
  0
LINE
  5
3F4
330
1F
100
AcDbEntity
  8
0
100
AcDbLine
 10
1.784036397220718
 20
86.35181716869823
 30
0.0
 11
1.789644359829055
 21
86.40068129490368
 31
0.0
  0
LINE
  5
3F5
330
1F
100
AcDbEntity
  8
0
100
AcDbLine
 10
29.82528746056758
 20
84.83469835709087
 30
0.0
 11
29.84340345788203
 21
84.99234906624309
 31
0.0
  0
LINE
  5
3F6
330
1F
100
AcDbEntity
  8
0
100
AcDbLine
 10
31.70515692162715
 20
86.4749601263856
 30
0.0
 11
31.70976316857539
 21
86.51437787006846
 31
0.0
  0
LINE
  5
3F7
330
1F
100
AcDbEntity
  8
0
100
AcDbLine
 10
1.789644359829055
 20
86.40068129490368
 30
0.0
 11
1.795351742984878
 21
86.44550899456493
 31
0.0
  0
LINE
  5
3F8
330
1F
100
AcDbEntity
  8
0
100
AcDbLine
 10
31.70976316857539
 20
86.51437787006846
 30
0.0
 11
31.71471464562618
 21
86.54974368999949
 31
0.0
  0
LINE
  5
3F9
330
1F
100
AcDbEntity
  8
0
100
AcDbLine
 10
1.795351742984878
 20
86.44550899456493
 30
0.0
 11
1.801087617160903
 21
86.48603729198924
 31
0.0
  0
LINE
  5
3FA
330
1F
100
AcDbEntity
  8
0
100
AcDbLine
 10
1.801087617160903
 20
86.48603729198924
 30
0.0
 11
1.806780814411269
 21
86.52200368832103
 31
0.0
  0
LINE
  5
3FB
330
1F
100
AcDbEntity
  8
0
100
AcDbLine
 10
31.71471464562618
 20
86.54974368999949
 30
0.0
 11
31.72002661156856
 21
86.5808272738313
 31
0.0
  0
LINE
  5
3FC
330
1F
100
AcDbEntity
  8
0
100
AcDbLine
 10
1.806780814411269
 20
86.52200368832103
 30
0.0
 11
1.812493681194411
 21
86.55389574955455
 31
0.0
  0
LINE
  5
3FD
330
1F
100
AcDbEntity
  8
0
100
AcDbLine
 10
29.84340345788203
 20
84.99234906624309
 30
0.0
 11
29.87439215111934
 21
85.15002194832318
 31
0.0
  0
LINE
  5
3FE
330
1F
100
AcDbEntity
  8
0
100
AcDbLine
 10
1.812493681194411
 20
86.55389574955455
 30
0.0
 11
1.818485736133681
 21
86.58315376232616
 31
0.0
  0
LINE
  5
3FF
330
1F
100
AcDbEntity
  8
0
100
AcDbLine
 10
31.72002661156856
 20
86.5808272738313
 30
0.0
 11
31.72571241784297
 21
86.60744503925792
 31
0.0
  0
LINE
  5
400
330
1F
100
AcDbEntity
  8
0
100
AcDbLine
 10
1.818485736133681
 20
86.58315376232616
 30
0.0
 11
1.824707745792495
 21
86.60934928844921
 31
0.0
  0
LINE
  5
401
330
1F
100
AcDbEntity
  8
0
100
AcDbLine
 10
31.72571241784297
 20
86.60744503925792
 30
0.0
 11
31.73180448937618
 21
86.62960390041821
 31
0.0
  0
LINE
  5
402
330
1F
100
AcDbEntity
  8
0
100
AcDbLine
 10
29.87439215111934
 20
85.15002194832318
 30
0.0
 11
29.91724646020137
 21
85.30263558815471
 31
0.0
  0
LINE
  5
403
330
1F
100
AcDbEntity
  8
0
100
AcDbLine
 10
1.824707745792495
 20
86.60934928844921
 30
0.0
 11
1.831096290828811
 21
86.63196805904858
 31
0.0
  0
LINE
  5
404
330
1F
100
AcDbEntity
  8
0
100
AcDbLine
 10
1.831096290828811
 20
86.63196805904858
 30
0.0
 11
1.83758759427272
 21
86.65050128887646
 31
0.0
  0
LINE
  5
405
330
1F
100
AcDbEntity
  8
0
100
AcDbLine
 10
29.91724646020137
 20
85.30263558815471
 30
0.0
 11
29.96931135583125
 21
85.44544390629283
 31
0.0
  0
LINE
  5
406
330
1F
100
AcDbEntity
  8
0
100
AcDbLine
 10
31.73180448937618
 20
86.62960390041821
 30
0.0
 11
31.73844969201289
 21
86.6476326365327
 31
0.0
  0
LINE
  5
407
330
1F
100
AcDbEntity
  8
0
100
AcDbLine
 10
29.96931135583125
 20
85.44544390629283
 30
0.0
 11
30.03217565942012
 21
85.58365062664501
 31
0.0
  0
LINE
  5
408
330
1F
100
AcDbEntity
  8
0
100
AcDbLine
 10
1.83758759427272
 20
86.65050128887646
 30
0.0
 11
1.844114183666335
 21
86.66469935368054
 31
0.0
  0
LINE
  5
409
330
1F
100
AcDbEntity
  8
0
100
AcDbLine
 10
31.73844969201289
 20
86.6476326365327
 30
0.0
 11
31.74647390771113
 21
86.66270116756908
 31
0.0
  0
LINE
  5
40A
330
1F
100
AcDbEntity
  8
0
100
AcDbLine
 10
30.03217565942012
 20
85.58365062664501
 30
0.0
 11
30.10832464623653
 21
85.72212175320141
 31
0.0
  0
LINE
  5
40B
330
1F
100
AcDbEntity
  8
0
100
AcDbLine
 10
1.844114183666335
 20
86.66469935368054
 30
0.0
 11
1.850603579761611
 21
86.67467240284436
 31
0.0
  0
LINE
  5
40C
330
1F
100
AcDbEntity
  8
0
100
AcDbLine
 10
30.10832464623653
 20
85.72212175320141
 30
0.0
 11
30.1963068239709
 21
85.85566452930919
 31
0.0
  0
LINE
  5
40D
330
1F
100
AcDbEntity
  8
0
100
AcDbLine
 10
30.1963068239709
 20
85.85566452930919
 30
0.0
 11
30.29331266808711
 21
85.9800153155183
 31
0.0
  0
LINE
  5
40E
330
1F
100
AcDbEntity
  8
0
100
AcDbLine
 10
31.74647390771113
 20
86.66270116756908
 30
0.0
 11
31.75610601830684
 21
86.67359570454113
 31
0.0
  0
LINE
  5
40F
330
1F
100
AcDbEntity
  8
0
100
AcDbLine
 10
30.29331266808711
 20
85.9800153155183
 30
0.0
 11
30.39514410424434
 21
86.0918636698579
 31
0.0
  0
LINE
  5
410
330
1F
100
AcDbEntity
  8
0
100
AcDbLine
 10
30.39514410424434
 20
86.0918636698579
 30
0.0
 11
30.50487577843867
 21
86.19506052921764
 31
0.0
  0
LINE
  5
411
330
1F
100
AcDbEntity
  8
0
100
AcDbLine
 10
1.850603579761611
 20
86.67467240284436
 30
0.0
 11
1.856982826473342
 21
86.68055657337658
 31
0.0
  0
LINE
  5
412
330
1F
100
AcDbEntity
  8
0
100
AcDbLine
 10
30.50487577843867
 20
86.19506052921764
 30
0.0
 11
30.62696707177364
 21
86.2935102362489
 31
0.0
  0
LINE
  5
413
330
1F
100
AcDbEntity
  8
0
100
AcDbLine
 10
30.62696707177364
 20
86.2935102362489
 30
0.0
 11
30.75817549157344
 21
86.38302616070262
 31
0.0
  0
LINE
  5
414
330
1F
100
AcDbEntity
  8
0
100
AcDbLine
 10
30.75817549157344
 20
86.38302616070262
 30
0.0
 11
30.89440405297481
 21
86.46071318577282
 31
0.0
  0
LINE
  5
415
330
1F
100
AcDbEntity
  8
0
100
AcDbLine
 10
31.75610601830684
 20
86.67359570454113
 30
0.0
 11
31.76798498559199
 21
86.67997268627635
 31
0.0
  0
LINE
  5
416
330
1F
100
AcDbEntity
  8
0
100
AcDbLine
 10
30.89440405297481
 20
86.46071318577282
 30
0.0
 11
31.03060209679805
 21
86.52514103840344
 31
0.0
  0
LINE
  5
417
330
1F
100
AcDbEntity
  8
0
100
AcDbLine
 10
31.03060209679805
 20
86.52514103840344
 30
0.0
 11
31.17013609338008
 21
86.57830647419444
 31
0.0
  0
LINE
  5
418
330
1F
100
AcDbEntity
  8
0
100
AcDbLine
 10
1.856982826473342
 20
86.68055657337658
 30
0.0
 11
1.863178848507033
 21
86.68248752544872
 31
0.0
  0
LINE
  5
419
330
1F
100
AcDbEntity
  8
0
100
AcDbLine
 10
31.17013609338008
 20
86.57830647419444
 30
0.0
 11
31.31946623254024
 21
86.62248448322765
 31
0.0
  0
LINE
  5
41A
330
1F
100
AcDbEntity
  8
0
100
AcDbLine
 10
31.31946623254024
 20
86.62248448322765
 30
0.0
 11
31.47411596703731
 21
86.65507844875804
 31
0.0
  0
LINE
  5
41B
330
1F
100
AcDbEntity
  8
0
100
AcDbLine
 10
31.47411596703731
 20
86.65507844875804
 30
0.0
 11
31.62926924157344
 21
86.67498735378734
 31
0.0
  0
LINE
  5
41C
330
1F
100
AcDbEntity
  8
0
100
AcDbLine
 10
31.76798498559199
 20
86.67997268627635
 30
0.0
 11
31.79002439904414
 21
86.68245724628917
 31
0.0
  0
LINE
  5
41D
330
1F
100
AcDbEntity
  8
0
100
AcDbLine
 10
31.62926924157344
 20
86.67498735378734
 30
0.0
 11
31.65230810570918
 21
86.6768634695863
 31
0.0
  0
LINE
  5
41E
330
1F
100
AcDbEntity
  8
0
100
AcDbLine
 10
31.65230810570918
 20
86.6768634695863
 30
0.0
 11
31.6748281710168
 21
86.67843798588268
 31
0.0
  0
LINE
  5
41F
330
1F
100
AcDbEntity
  8
0
100
AcDbLine
 10
31.6748281710168
 20
86.67843798588268
 30
0.0
 11
31.6970335238
 21
86.67973665188304
 31
0.0
  0
LINE
  5
420
330
1F
100
AcDbEntity
  8
0
100
AcDbLine
 10
31.6970335238
 20
86.67973665188304
 30
0.0
 11
31.72056448388301
 21
86.68084029148571
 31
0.0
  0
LINE
  5
421
330
1F
100
AcDbEntity
  8
0
100
AcDbLine
 10
31.72056448388301
 20
86.68084029148571
 30
0.0
 11
31.74444830346309
 21
86.68167189548961
 31
0.0
  0
LINE
  5
422
330
1F
100
AcDbEntity
  8
0
100
AcDbLine
 10
31.74444830346309
 20
86.68167189548961
 30
0.0
 11
31.76720678734981
 21
86.68219713161937
 31
0.0
  0
LINE
  5
423
330
1F
100
AcDbEntity
  8
0
100
AcDbLine
 10
31.76720678734981
 20
86.68219713161937
 30
0.0
 11
31.79002058434688
 21
86.68245748470775
 31
0.0
  0
LINE
  5
424
330
1F
100
AcDbEntity
  8
0
100
AcDbLine
 10
31.79002058434688
 20
86.68245748470775
 30
0.0
 11
31.79148924279414
 21
86.68246559093944
 31
0.0
  0
LINE
  5
425
330
1F
100
AcDbEntity
  8
0
100
AcDbLine
 10
31.79148924279414
 20
86.68246559093944
 30
0.0
 11
31.79295790124141
 21
86.68247226665966
 31
0.0
  0
LINE
  5
426
330
1F
100
AcDbEntity
  8
0
100
AcDbLine
 10
31.79295790124141
 20
86.68247226665966
 30
0.0
 11
31.79442846703731
 21
86.68247775028698
 31
0.0
  0
LINE
  5
427
330
1F
100
AcDbEntity
  8
0
100
AcDbLine
 10
31.79442846703731
 20
86.68247775028698
 30
0.0
 11
31.79589712548458
 21
86.68248204182139
 31
0.0
  0
LINE
  5
428
330
1F
100
AcDbEntity
  8
0
100
AcDbLine
 10
31.79589712548458
 20
86.68248204182139
 30
0.0
 11
31.79736578393184
 21
86.68248514126293
 31
0.0
  0
LINE
  5
429
330
1F
100
AcDbEntity
  8
0
100
AcDbLine
 10
31.79736578393184
 20
86.68248514126293
 30
0.0
 11
31.79883444237911
 21
86.68248681019298
 31
0.0
  0
LINE
  5
42A
330
1F
100
AcDbEntity
  8
0
100
AcDbLine
 10
31.79883444237911
 20
86.68248681019298
 30
0.0
 11
31.800305008175
 21
86.68248752544872
 31
0.0
  0
LINE
  5
42B
330
1F
100
AcDbEntity
  8
0
100
AcDbLine
 10
-0.1368211514929667
 20
83.68248752544872
 30
0.0
 11
1.719487666370498
 21
83.68248752544872
 31
0.0
  0
LINE
  5
42C
330
1F
100
AcDbEntity
  8
0
100
AcDbLine
 10
-0.1368211514929671
 20
84.68248752544871
 30
0.0
 11
1.719487666370498
 21
84.68248752544871
 31
0.0
  0
LINE
  5
42D
330
1F
100
AcDbEntity
  8
0
100
AcDbLine
 10
1.719480871440993
 20
83.68248752544872
 30
0.0
 11
29.81940901208125
 21
83.68248752544872
 31
0.0
  0
LINE
  5
42E
330
1F
100
AcDbEntity
  8
0
100
AcDbLine
 10
1.719480871440993
 20
84.68248752544871
 30
0.0
 11
29.81940901208125
 21
84.68248752544871
 31
0.0
  0
LINE
  5
42F
330
1F
100
AcDbEntity
  8
0
100
AcDbLine
 10
1.863178848507033
 20
86.68248752544872
 30
0.0
 11
31.800305008175
 21
86.68248752544872
 31
0.0
  0
LINE
  5
430
330
1F
100
AcDbEntity
  8
0
100
AcDbLine
 10
29.81940901208125
 20
83.68248752544872
 30
0.0
 11
29.83506834435664
 21
83.68248752544872
 31
0.0
  0
LINE
  5
431
330
1F
100
AcDbEntity
  8
0
100
AcDbLine
 10
29.83506834435664
 20
83.68248752544872
 30
0.0
 11
31.65787947106563
 21
83.68248752544872
 31
0.0
  0
LINE
  5
432
330
1F
100
AcDbEntity
  8
0
100
AcDbLine
 10
29.83506834435664
 20
84.68248752544871
 30
0.0
 11
31.65787947106563
 21
84.68248752544871
 31
0.0
  0
LINE
  5
433
330
1F
100
AcDbEntity
  8
0
100
AcDbLine
 10
31.65787947106563
 20
84.68248752544871
 30
0.0
 11
31.94054472375118
 21
84.68248752544871
 31
0.0
  0
LINE
  5
434
330
1F
100
AcDbEntity
  8
0
100
AcDbLine
 10
31.65787947106563
 20
83.68248752544872
 30
0.0
 11
31.94054472375118
 21
83.68248752544872
 31
0.0
  0
LINE
  5
435
330
1F
100
AcDbEntity
  8
0
100
AcDbLine
 10
31.800305008175
 20
86.68248752544872
 30
0.0
 11
57.8285146944543
 21
86.68248752544872
 31
0.0
  0
LINE
  5
436
330
1F
100
AcDbEntity
  8
0
100
AcDbLine
 10
31.94054472375118
 20
83.68248752544872
 30
0.0
 11
31.98857176232539
 21
83.68248752544872
 31
0.0
  0
LINE
  5
437
330
1F
100
AcDbEntity
  8
0
100
AcDbLine
 10
31.94054472375118
 20
84.68248752544871
 30
0.0
 11
31.98857176232539
 21
84.68248752544871
 31
0.0
  0
LINE
  5
438
330
1F
100
AcDbEntity
  8
0
100
AcDbLine
 10
31.98857176232539
 20
83.68248752544872
 30
0.0
 11
31.98894941735469
 21
83.68248752544872
 31
0.0
  0
LINE
  5
439
330
1F
100
AcDbEntity
  8
0
100
AcDbLine
 10
31.98894941735469
 20
83.68248752544872
 30
0.0
 11
57.96984541344844
 21
83.68248752544872
 31
0.0
  0
LINE
  5
43A
330
1F
100
AcDbEntity
  8
0
100
AcDbLine
 10
31.98894941735469
 20
84.68248752544871
 30
0.0
 11
57.96984541344844
 21
84.68248752544871
 31
0.0
  0
LINE
  5
43B
330
1F
100
AcDbEntity
  8
0
100
AcDbLine
 10
57.96984541344844
 20
83.68248752544872
 30
0.0
 11
59.82731687951289
 21
83.68248752544872
 31
0.0
  0
LINE
  5
43C
330
1F
100
AcDbEntity
  8
0
100
AcDbLine
 10
57.96984541344844
 20
84.68248752544871
 30
0.0
 11
59.82731687951289
 21
84.68248752544871
 31
0.0
  0
LINE
  5
43D
330
1F
100
AcDbEntity
  8
0
100
AcDbLine
 10
59.82731687951289
 20
83.68248752544872
 30
0.0
 11
59.83210813927851
 21
83.68248752544872
 31
0.0
  0
LINE
  5
43E
330
1F
100
AcDbEntity
  8
0
100
AcDbLine
 10
57.82940733361446
 20
86.68248728703014
 30
0.0
 11
57.8285146944543
 21
86.68248752544872
 31
0.0
  0
LINE
  5
43F
330
1F
100
AcDbEntity
  8
0
100
AcDbLine
 10
57.83030378747188
 20
86.68248681019298
 30
0.0
 11
57.82940733361446
 21
86.68248728703014
 31
0.0
  0
LINE
  5
440
330
1F
100
AcDbEntity
  8
0
100
AcDbLine
 10
57.83119642663203
 20
86.68248585651866
 30
0.0
 11
57.83030378747188
 21
86.68248681019298
 31
0.0
  0
LINE
  5
441
330
1F
100
AcDbEntity
  8
0
100
AcDbLine
 10
57.83209288048945
 20
86.68248442600718
 30
0.0
 11
57.83119642663203
 21
86.68248585651866
 31
0.0
  0
LINE
  5
442
330
1F
100
AcDbEntity
  8
0
100
AcDbLine
 10
57.83298551964961
 20
86.68248275707714
 30
0.0
 11
57.83209288048945
 21
86.68248442600718
 31
0.0
  0
LINE
  5
443
330
1F
100
AcDbEntity
  8
0
100
AcDbLine
 10
57.83388197350703
 20
86.6824808497285
 30
0.0
 11
57.83298551964961
 21
86.68248275707714
 31
0.0
  0
LINE
  5
444
330
1F
100
AcDbEntity
  8
0
100
AcDbLine
 10
57.92019712853633
 20
86.68032340000621
 30
0.0
 11
57.83388197350703
 21
86.6824808497285
 31
0.0
  0
LINE
  5
445
330
1F
100
AcDbEntity
  8
0
100
AcDbLine
 10
58.00899565148554
 20
86.67422894428723
 30
0.0
 11
57.92019712853633
 21
86.68032340000621
 31
0.0
  0
LINE
  5
446
330
1F
100
AcDbEntity
  8
0
100
AcDbLine
 10
57.85860502648555
 20
86.68030480335705
 30
0.0
 11
57.83368742394649
 21
86.6824808497285
 31
0.0
  0
LINE
  5
447
330
1F
100
AcDbEntity
  8
0
100
AcDbLine
 10
58.0992666475793
 20
86.66406134556286
 30
0.0
 11
58.00899565148554
 21
86.67422894428723
 31
0.0
  0
LINE
  5
448
330
1F
100
AcDbEntity
  8
0
100
AcDbLine
 10
58.19000303673945
 20
86.64968565891735
 30
0.0
 11
58.0992666475793
 21
86.66406134556286
 31
0.0
  0
LINE
  5
449
330
1F
100
AcDbEntity
  8
0
100
AcDbLine
 10
58.28020536828242
 20
86.63099864910595
 30
0.0
 11
58.19000303673945
 21
86.64968565891735
 31
0.0
  0
LINE
  5
44A
330
1F
100
AcDbEntity
  8
0
100
AcDbLine
 10
58.36895048546992
 20
86.60826782177441
 30
0.0
 11
58.28020536828242
 21
86.63099864910595
 31
0.0
  0
LINE
  5
44B
330
1F
100
AcDbEntity
  8
0
100
AcDbLine
 10
58.45535719323359
 20
86.581998862729
 30
0.0
 11
58.36895048546992
 21
86.60826782177441
 31
0.0
  0
LINE
  5
44C
330
1F
100
AcDbEntity
  8
0
100
AcDbLine
 10
58.53854811120235
 20
86.55270031879894
 30
0.0
 11
58.45535719323359
 21
86.581998862729
 31
0.0
  0
LINE
  5
44D
330
1F
100
AcDbEntity
  8
0
100
AcDbLine
 10
58.61789762902461
 20
86.52077440212719
 30
0.0
 11
58.53854811120235
 21
86.55270031879894
 31
0.0
  0
LINE
  5
44E
330
1F
100
AcDbEntity
  8
0
100
AcDbLine
 10
58.69709074425898
 20
86.48474267910472
 30
0.0
 11
58.61789762902461
 21
86.52077440212719
 31
0.0
  0
LINE
  5
44F
330
1F
100
AcDbEntity
  8
0
100
AcDbLine
 10
57.87083494591914
 20
86.67421797703259
 30
0.0
 11
57.85860502648555
 21
86.68030480335705
 31
0.0
  0
LINE
  5
450
330
1F
100
AcDbEntity
  8
0
100
AcDbLine
 10
58.7768560640832
 20
86.4441745657777
 30
0.0
 11
58.69709074425898
 21
86.48474267910472
 31
0.0
  0
LINE
  5
451
330
1F
100
AcDbEntity
  8
0
100
AcDbLine
 10
58.85620939660274
 20
86.39932993839734
 30
0.0
 11
58.7768560640832
 21
86.4441745657777
 31
0.0
  0
LINE
  5
452
330
1F
100
AcDbEntity
  8
0
100
AcDbLine
 10
58.93416654992305
 20
86.35046891163341
 30
0.0
 11
58.85620939660274
 21
86.39932993839734
 31
0.0
  0
LINE
  5
453
330
1F
100
AcDbEntity
  8
0
100
AcDbLine
 10
59.00978529381953
 20
86.29791621159069
 30
0.0
 11
58.93416654992305
 21
86.35046891163341
 31
0.0
  0
LINE
  5
454
330
1F
100
AcDbEntity
  8
0
100
AcDbLine
 10
59.08236372399532
 20
86.24235657642833
 30
0.0
 11
59.00978529381953
 21
86.29791621159069
 31
0.0
  0
LINE
  5
455
330
1F
100
AcDbEntity
  8
0
100
AcDbLine
 10
59.15128385949336
 20
86.18459800671093
 30
0.0
 11
59.08236372399532
 21
86.24235657642833
 31
0.0
  0
LINE
  5
456
330
1F
100
AcDbEntity
  8
0
100
AcDbLine
 10
59.21592390465938
 20
86.12544897984021
 30
0.0
 11
59.15128385949336
 21
86.18459800671093
 31
0.0
  0
LINE
  5
457
330
1F
100
AcDbEntity
  8
0
100
AcDbLine
 10
59.27631437707148
 20
86.06506613682261
 30
0.0
 11
59.21592390465938
 21
86.12544897984021
 31
0.0
  0
LINE
  5
458
330
1F
100
AcDbEntity
  8
0
100
AcDbLine
 10
57.8806158297082
 20
86.66363457630627
 30
0.0
 11
57.87083494591914
 21
86.67421797703259
 31
0.0
  0
LINE
  5
459
330
1F
100
AcDbEntity
  8
0
100
AcDbLine
 10
59.33550321984492
 20
86.00039342831127
 30
0.0
 11
59.27631437707148
 21
86.06506613682261
 31
0.0
  0
LINE
  5
45A
330
1F
100
AcDbEntity
  8
0
100
AcDbLine
 10
59.39329206872187
 20
85.93144420574658
 30
0.0
 11
59.33550321984492
 21
86.00039342831127
 31
0.0
  0
LINE
  5
45B
330
1F
100
AcDbEntity
  8
0
100
AcDbLine
 10
59.44887220788203
 20
85.8588371653413
 30
0.0
 11
59.39329206872187
 21
85.93144420574658
 31
0.0
  0
LINE
  5
45C
330
1F
100
AcDbEntity
  8
0
100
AcDbLine
 10
59.50142729211055
 20
85.78319171856396
 30
0.0
 11
59.44887220788203
 21
85.8588371653413
 31
0.0
  0
LINE
  5
45D
330
1F
100
AcDbEntity
  8
0
100
AcDbLine
 10
59.55027449059688
 20
85.70521406124584
 30
0.0
 11
59.50142729211055
 21
85.78319171856396
 31
0.0
  0
LINE
  5
45E
330
1F
100
AcDbEntity
  8
0
100
AcDbLine
 10
59.5950933687707
 20
85.62585083435527
 30
0.0
 11
59.55027449059688
 21
85.70521406124584
 31
0.0
  0
LINE
  5
45F
330
1F
100
AcDbEntity
  8
0
100
AcDbLine
 10
57.88876783776484
 20
86.64878062199107
 30
0.0
 11
57.8806158297082
 21
86.66363457630627
 31
0.0
  0
LINE
  5
460
330
1F
100
AcDbEntity
  8
0
100
AcDbLine
 10
59.63561689782344
 20
85.54608873318187
 30
0.0
 11
59.5950933687707
 21
85.62585083435527
 31
0.0
  0
LINE
  5
461
330
1F
100
AcDbEntity
  8
0
100
AcDbLine
 10
59.67158567834101
 20
85.46691504906169
 30
0.0
 11
59.63561689782344
 21
85.54608873318187
 31
0.0
  0
LINE
  5
462
330
1F
100
AcDbEntity
  8
0
100
AcDbLine
 10
59.70348036217891
 20
85.38746599148266
 30
0.0
 11
59.67158567834101
 21
85.46691504906169
 31
0.0
  0
LINE
  5
463
330
1F
100
AcDbEntity
  8
0
100
AcDbLine
 10
57.89549696374141
 20
86.63093403767101
 30
0.0
 11
57.88876783776484
 21
86.64878062199107
 31
0.0
  0
LINE
  5
464
330
1F
100
AcDbEntity
  8
0
100
AcDbLine
 10
59.73274290490351
 20
85.30413440655223
 30
0.0
 11
59.70348036217891
 21
85.38746599148266
 31
0.0
  0
LINE
  5
465
330
1F
100
AcDbEntity
  8
0
100
AcDbLine
 10
59.75894224572383
 20
85.21759835670939
 30
0.0
 11
59.73274290490351
 21
85.30413440655223
 31
0.0
  0
LINE
  5
466
330
1F
100
AcDbEntity
  8
0
100
AcDbLine
 10
57.90162718224727
 20
86.60901764820568
 30
0.0
 11
57.89549696374141
 21
86.63093403767101
 31
0.0
  0
LINE
  5
467
330
1F
100
AcDbEntity
  8
0
100
AcDbLine
 10
59.78156721520625
 20
85.12874344776623
 30
0.0
 11
59.75894224572383
 21
85.21759835670939
 31
0.0
  0
LINE
  5
468
330
1F
100
AcDbEntity
  8
0
100
AcDbLine
 10
57.90735304284297
 20
86.58262757252208
 30
0.0
 11
57.90162718224727
 21
86.60901764820568
 31
0.0
  0
LINE
  5
469
330
1F
100
AcDbEntity
  8
0
100
AcDbLine
 10
59.80010664391719
 20
85.03845635841839
 30
0.0
 11
59.78156721520625
 21
85.12874344776623
 31
0.0
  0
LINE
  5
46A
330
1F
100
AcDbEntity
  8
0
100
AcDbLine
 10
57.91269743371211
 20
86.55174569080822
 30
0.0
 11
57.90735304284297
 21
86.58262757252208
 31
0.0
  0
LINE
  5
46B
330
1F
100
AcDbEntity
  8
0
100
AcDbLine
 10
59.81431257653437
 20
84.94767514656535
 30
0.0
 11
59.80010664391719
 21
85.03845635841839
 31
0.0
  0
LINE
  5
46C
330
1F
100
AcDbEntity
  8
0
100
AcDbLine
 10
57.91768324303828
 20
86.51654914806835
 30
0.0
 11
57.91269743371211
 21
86.55174569080822
 31
0.0
  0
LINE
  5
46D
330
1F
100
AcDbEntity
  8
0
100
AcDbLine
 10
57.92231810021601
 20
86.47726634930126
 30
0.0
 11
57.91768324303828
 21
86.51654914806835
 31
0.0
  0
LINE
  5
46E
330
1F
100
AcDbEntity
  8
0
100
AcDbLine
 10
59.82428800988398
 20
84.85740975330822
 30
0.0
 11
59.81431257653437
 21
84.94767514656535
 31
0.0
  0
LINE
  5
46F
330
1F
100
AcDbEntity
  8
0
100
AcDbLine
 10
57.92661726403437
 20
86.43429402302258
 30
0.0
 11
57.92231810021601
 21
86.47726634930126
 31
0.0
  0
LINE
  5
470
330
1F
100
AcDbEntity
  8
0
100
AcDbLine
 10
57.93058454919062
 20
86.38813356350414
 30
0.0
 11
57.92661726403437
 21
86.43429402302258
 31
0.0
  0
LINE
  5
471
330
1F
100
AcDbEntity
  8
0
100
AcDbLine
 10
57.93423139977656
 20
86.33939770649424
 30
0.0
 11
57.93058454919062
 21
86.38813356350414
 31
0.0
  0
LINE
  5
472
330
1F
100
AcDbEntity
  8
0
100
AcDbLine
 10
59.83017408776484
 20
84.76867548416606
 30
0.0
 11
59.82428800988398
 21
84.85740975330822
 31
0.0
  0
LINE
  5
473
330
1F
100
AcDbEntity
  8
0
100
AcDbLine
 10
31.90846311974727
 20
86.28539279888622
 30
0.0
 11
31.90459501671992
 21
86.34415177296153
 31
0.0
  0
LINE
  5
474
330
1F
100
AcDbEntity
  8
0
100
AcDbLine
 10
57.93755400109493
 20
86.28884605358592
 30
0.0
 11
57.93423139977656
 21
86.33939770649424
 31
0.0
  0
LINE
  5
475
330
1F
100
AcDbEntity
  8
0
100
AcDbLine
 10
57.94064009118281
 20
86.23586181591504
 30
0.0
 11
57.93755400109493
 21
86.28884605358592
 31
0.0
  0
LINE
  5
476
330
1F
100
AcDbEntity
  8
0
100
AcDbLine
 10
31.91202604699336
 20
86.22317794750683
 30
0.0
 11
31.90846311974727
 21
86.28539279888622
 31
0.0
  0
LINE
  5
477
330
1F
100
AcDbEntity
  8
0
100
AcDbLine
 10
57.94356977868281
 20
86.1794610400056
 30
0.0
 11
57.94064009118281
 21
86.23586181591504
 31
0.0
  0
LINE
  5
478
330
1F
100
AcDbEntity
  8
0
100
AcDbLine
 10
31.91537535119258
 20
86.15638140629284
 30
0.0
 11
31.91202604699336
 21
86.22317794750683
 31
0.0
  0
LINE
  5
479
330
1F
100
AcDbEntity
  8
0
100
AcDbLine
 10
57.94633543420039
 20
86.11976889561168
 30
0.0
 11
57.94356977868281
 21
86.1794610400056
 31
0.0
  0
LINE
  5
47A
330
1F
100
AcDbEntity
  8
0
100
AcDbLine
 10
31.91850340295039
 20
86.08520058582774
 30
0.0
 11
31.91537535119258
 21
86.15638140629284
 31
0.0
  0
LINE
  5
47B
330
1F
100
AcDbEntity
  8
0
100
AcDbLine
 10
57.94894468713008
 20
86.05691126774303
 30
0.0
 11
57.94633543420039
 21
86.11976889561168
 31
0.0
  0
LINE
  5
47C
330
1F
100
AcDbEntity
  8
0
100
AcDbLine
 10
31.9214216463586
 20
86.00983289669505
 30
0.0
 11
31.91850340295039
 21
86.08520058582774
 31
0.0
  0
LINE
  5
47D
330
1F
100
AcDbEntity
  8
0
100
AcDbLine
 10
57.95139753747188
 20
85.99101380299083
 30
0.0
 11
57.94894468713008
 21
86.05691126774303
 31
0.0
  0
LINE
  5
47E
330
1F
100
AcDbEntity
  8
0
100
AcDbLine
 10
31.92412626671992
 20
85.93048051784984
 30
0.0
 11
31.9214216463586
 21
86.00983289669505
 31
0.0
  0
LINE
  5
47F
330
1F
100
AcDbEntity
  8
0
100
AcDbLine
 10
57.95369017052852
 20
85.92220858524791
 30
0.0
 11
57.95139753747188
 21
85.99101380299083
 31
0.0
  0
LINE
  5
480
330
1F
100
AcDbEntity
  8
0
100
AcDbLine
 10
31.92661726403438
 20
85.8474092860078
 30
0.0
 11
31.92412626671992
 21
85.93048051784984
 31
0.0
  0
LINE
  5
481
330
1F
100
AcDbEntity
  8
0
100
AcDbLine
 10
57.95582640099727
 20
85.8506765742158
 30
0.0
 11
57.95369017052852
 21
85.92220858524791
 31
0.0
  0
LINE
  5
482
330
1F
100
AcDbEntity
  8
0
100
AcDbLine
 10
57.95780622887813
 20
85.77662066410534
 30
0.0
 11
57.95582640099727
 21
85.8506765742158
 31
0.0
  0
LINE
  5
483
330
1F
100
AcDbEntity
  8
0
100
AcDbLine
 10
31.92889463830196
 20
85.7609367747163
 30
0.0
 11
31.92661726403438
 21
85.8474092860078
 31
0.0
  0
LINE
  5
484
330
1F
100
AcDbEntity
  8
0
100
AcDbLine
 10
57.9596296541711
 20
85.70024351070873
 30
0.0
 11
57.95780622887813
 21
85.77662066410534
 31
0.0
  0
LINE
  5
485
330
1F
100
AcDbEntity
  8
0
100
AcDbLine
 10
31.93096601891719
 20
85.67138210724346
 30
0.0
 11
31.92889463830196
 21
85.7609367747163
 31
0.0
  0
LINE
  5
486
330
1F
100
AcDbEntity
  8
0
100
AcDbLine
 10
59.83210813927851
 20
84.68248752544871
 30
0.0
 11
59.83017408776484
 21
84.76867548416606
 31
0.0
  0
LINE
  5
487
330
1F
100
AcDbEntity
  8
0
100
AcDbLine
 10
57.96130049157344
 20
85.62174776981823
 30
0.0
 11
57.9596296541711
 21
85.70024351070873
 31
0.0
  0
LINE
  5
488
330
1F
100
AcDbEntity
  8
0
100
AcDbLine
 10
31.93282759118281
 20
85.57906393002026
 30
0.0
 11
31.93096601891719
 21
85.67138210724346
 31
0.0
  0
LINE
  5
489
330
1F
100
AcDbEntity
  8
0
100
AcDbLine
 10
57.96281492638789
 20
85.54132918308727
 30
0.0
 11
57.96130049157344
 21
85.62174776981823
 31
0.0
  0
LINE
  5
48A
330
1F
100
AcDbEntity
  8
0
100
AcDbLine
 10
31.93447935509883
 20
85.48426810692303
 30
0.0
 11
31.93282759118281
 21
85.57906393002026
 31
0.0
  0
LINE
  5
48B
330
1F
100
AcDbEntity
  8
0
100
AcDbLine
 10
57.96418058800899
 20
85.45916501472943
 30
0.0
 11
57.96281492638789
 21
85.54132918308727
 31
0.0
  0
LINE
  5
48C
330
1F
100
AcDbEntity
  8
0
100
AcDbLine
 10
31.93592894005977
 20
85.38733426521771
 30
0.0
 11
31.93447935509883
 21
85.48426810692303
 31
0.0
  0
LINE
  5
48D
330
1F
100
AcDbEntity
  8
0
100
AcDbLine
 10
57.96539366173945
 20
85.37549582909099
 30
0.0
 11
57.96418058800899
 21
85.45916501472943
 31
0.0
  0
LINE
  5
48E
330
1F
100
AcDbEntity
  8
0
100
AcDbLine
 10
31.93717634606563
 20
85.28865436504833
 30
0.0
 11
31.93592894005977
 21
85.38733426521771
 31
0.0
  0
LINE
  5
48F
330
1F
100
AcDbEntity
  8
0
100
AcDbLine
 10
57.9664541475793
 20
85.29057041595928
 30
0.0
 11
57.96539366173945
 21
85.37549582909099
 31
0.0
  0
LINE
  5
490
330
1F
100
AcDbEntity
  8
0
100
AcDbLine
 10
57.96736967492305
 20
85.20463792274943
 30
0.0
 11
57.9664541475793
 21
85.29057041595928
 31
0.0
  0
LINE
  5
491
330
1F
100
AcDbEntity
  8
0
100
AcDbLine
 10
31.93822157311641
 20
85.18862000893108
 30
0.0
 11
31.93717634606563
 21
85.28865436504833
 31
0.0
  0
LINE
  5
492
330
1F
100
AcDbEntity
  8
0
100
AcDbLine
 10
57.96813642907344
 20
85.11794749687664
 30
0.0
 11
57.96736967492305
 21
85.20463792274943
 31
0.0
  0
LINE
  5
493
330
1F
100
AcDbEntity
  8
0
100
AcDbLine
 10
31.93906843590938
 20
85.08762387226573
 30
0.0
 11
31.93822157311641
 21
85.18862000893108
 31
0.0
  0
LINE
  5
494
330
1F
100
AcDbEntity
  8
0
100
AcDbLine
 10
57.968762039425
 20
85.03075627277842
 30
0.0
 11
57.96813642907344
 21
85.11794749687664
 31
0.0
  0
LINE
  5
495
330
1F
100
AcDbEntity
  8
0
100
AcDbLine
 10
31.9397207491418
 20
84.98607853840344
 30
0.0
 11
31.93906843590938
 21
85.08762387226573
 31
0.0
  0
LINE
  5
496
330
1F
100
AcDbEntity
  8
0
100
AcDbLine
 10
57.9692388765832
 20
84.94333831261149
 30
0.0
 11
57.968762039425
 21
85.03075627277842
 31
0.0
  0
LINE
  5
497
330
1F
100
AcDbEntity
  8
0
100
AcDbLine
 10
31.94018232751094
 20
84.88441757153026
 30
0.0
 11
31.9397207491418
 21
84.98607853840344
 31
0.0
  0
LINE
  5
498
330
1F
100
AcDbEntity
  8
0
100
AcDbLine
 10
57.96957838463985
 20
84.85596994350903
 30
0.0
 11
57.9692388765832
 21
84.94333831261149
 31
0.0
  0
LINE
  5
499
330
1F
100
AcDbEntity
  8
0
100
AcDbLine
 10
31.9404531710168
 20
84.78307572792521
 30
0.0
 11
31.94018232751094
 21
84.88441757153026
 31
0.0
  0
LINE
  5
49A
330
1F
100
AcDbEntity
  8
0
100
AcDbLine
 10
57.96978056359492
 20
84.76892761181346
 30
0.0
 11
57.96957838463985
 21
84.85596994350903
 31
0.0
  0
LINE
  5
49B
330
1F
100
AcDbEntity
  8
0
100
AcDbLine
 10
31.94054472375118
 20
84.68248752544871
 30
0.0
 11
31.9404531710168
 21
84.78307572792521
 31
0.0
  0
LINE
  5
49C
330
1F
100
AcDbEntity
  8
0
100
AcDbLine
 10
57.96984541344844
 20
84.68248752544871
 30
0.0
 11
57.96978056359492
 21
84.76892761181346
 31
0.0
  0
ARC
  5
49D
330
1F
100
AcDbEntity
  8
0
100
AcDbCircle
 10
1.863178848507033
 20
84.68248752544871
 30
0.0
 40
2.0
100
AcDbArc
 50
90.0
 51
180.0
  0
ELLIPSE
  5
49E
330
1F
100
AcDbEntity
  8
0
100
AcDbEllipse
 10
31.79873600297972
 20
84.68248752544871
 30
0.0
 11
0.0000000000000001
 21
2.0
 31
0.0
210
0.0
220
0.0
230
1.0
 40
0.0951071054639714
 41
4.712388980384689
 42
5.692990826114228
  0
ELLIPSE
  5
49F
330
1F
100
AcDbEntity
  8
0
100
AcDbEllipse
 10
31.79921153850703
 20
84.68248752544871
 30
0.0
 11
0.0000000000000001
 21
2.0
 31
0.0
210
0.0
220
0.0
230
1.0
 40
0.0946798626378502
 41
4.712388980384689
 42
5.69299079397561
  0
ELLIPSE
  5
4A0
330
1F
100
AcDbEntity
  8
0
100
AcDbEllipse
 10
31.79921153850703
 20
84.68248752544871
 30
0.0
 11
0.0000000000000001
 21
2.0
 31
0.0
210
0.0
220
0.0
230
1.0
 40
0.9820714472217551
 41
0.0866306869236812
 42
1.570796326794896
  0
ELLIPSE
  5
4A1
330
1F
100
AcDbEntity
  8
0
100
AcDbEllipse
 10
57.82851309850703
 20
84.68248752544871
 30
0.0
 11
0.0000000000000001
 21
1.999999999999999
 31
0.0
210
0.0
220
0.0
230
1.0
 40
0.9994023146998413
 41
4.712388980384689
 42
6.280499261124972
  0
LINE
  5
4A2
330
1F
100
AcDbEntity
  8
0
100
AcDbLine
 10
1.941071390392409
 20
83.68248752544872
 30
0.0
 11
1.941071390392409
 21
84.68248752544871
 31
0.0
  0
LINE
  5
4A3
330
1F
100
AcDbEntity
  8
0
100
AcDbLine
 10
1.941070675136672
 20
83.68248752544872
 30
0.0
 11
1.941070675136672
 21
84.68248752544871
 31
0.0
  0
LINE
  5
4A4
330
1F
100
AcDbEntity
  8
0
100
AcDbLine
 10
1.719487666370498
 20
83.68248752544872
 30
0.0
 11
1.719487666370498
 21
84.68248752544871
 31
0.0
  0
LINE
  5
4A5
330
1F
100
AcDbEntity
  8
0
100
AcDbLine
 10
-0.136821151492966
 20
84.68248752544871
 30
0.0
 11
1.941070675136672
 21
84.68248752544871
 31
0.0
  0
LINE
  5
4A6
330
1F
100
AcDbEntity
  8
0
100
AcDbLine
 10
1.941071390392409
 20
84.68248752544871
 30
0.0
 11
59.83210813927851
 21
84.68248752544871
 31
0.0
  0
LINE
  5
4A7
330
1F
100
AcDbEntity
  8
0
100
AcDbLine
 10
1.866537451030837
 20
86.680556334958
 30
0.0
 11
1.863178848507033
 21
86.68248752544872
 31
0.0
  0
LINE
  5
4A8
330
1F
100
AcDbEntity
  8
0
100
AcDbLine
 10
1.869995474102126
 20
86.67467216442577
 30
0.0
 11
1.866537451030837
 21
86.680556334958
 31
0.0
  0
LINE
  5
4A9
330
1F
100
AcDbEntity
  8
0
100
AcDbLine
 10
1.873513101818191
 20
86.66469887684337
 30
0.0
 11
1.869995474102126
 21
86.67467216442577
 31
0.0
  0
LINE
  5
4AA
330
1F
100
AcDbEntity
  8
0
100
AcDbLine
 10
1.877050995113479
 20
86.65050009678356
 30
0.0
 11
1.873513101818191
 21
86.66469887684337
 31
0.0
  0
LINE
  5
4AB
330
1F
100
AcDbEntity
  8
0
100
AcDbLine
 10
1.880569814922439
 20
86.63196639011852
 30
0.0
 11
1.877050995113479
 21
86.65050009678356
 31
0.0
  0
LINE
  5
4AC
330
1F
100
AcDbEntity
  8
0
100
AcDbLine
 10
1.884032844783889
 20
86.60934690426342
 30
0.0
 11
1.880569814922439
 21
86.63196639011852
 31
0.0
  0
LINE
  5
4AD
330
1F
100
AcDbEntity
  8
0
100
AcDbLine
 10
1.88740551400386
 20
86.5831509013032
 30
0.0
 11
1.884032844783889
 21
86.60934690426342
 31
0.0
  0
LINE
  5
4AE
330
1F
100
AcDbEntity
  8
0
100
AcDbLine
 10
1.89065349030696
 20
86.55389217327586
 30
0.0
 11
1.88740551400386
 21
86.5831509013032
 31
0.0
  0
LINE
  5
4AF
330
1F
100
AcDbEntity
  8
0
100
AcDbLine
 10
1.89375030923091
 20
86.52199939678661
 30
0.0
 11
1.89065349030696
 21
86.55389217327586
 31
0.0
  0
LINE
  5
4B0
330
1F
100
AcDbEntity
  8
0
100
AcDbLine
 10
1.896836399318801
 20
86.48603180836193
 30
0.0
 11
1.89375030923091
 21
86.52199939678661
 31
0.0
  0
LINE
  5
4B1
330
1F
100
AcDbEntity
  8
0
100
AcDbLine
 10
1.899945616008865
 20
86.44550231884471
 30
0.0
 11
1.896836399318801
 21
86.48603180836193
 31
0.0
  0
LINE
  5
4B2
330
1F
100
AcDbEntity
  8
0
100
AcDbLine
 10
1.903039335491286
 20
86.40067342709057
 30
0.0
 11
1.899945616008865
 21
86.44550231884471
 31
0.0
  0
LINE
  5
4B3
330
1F
100
AcDbEntity
  8
0
100
AcDbLine
 10
1.906079172374831
 20
86.35180834721081
 30
0.0
 11
1.903039335491286
 21
86.40067342709057
 31
0.0
  0
LINE
  5
4B4
330
1F
100
AcDbEntity
  8
0
100
AcDbLine
 10
1.909028171779739
 20
86.29923085163586
 30
0.0
 11
1.906079172374831
 21
86.35180834721081
 31
0.0
  0
LINE
  5
4B5
330
1F
100
AcDbEntity
  8
0
100
AcDbLine
 10
1.911858438732253
 20
86.24362520168773
 30
0.0
 11
1.909028171779739
 21
86.29923085163586
 31
0.0
  0
LINE
  5
4B6
330
1F
100
AcDbEntity
  8
0
100
AcDbLine
 10
1.914546131374465
 20
86.18580511997691
 30
0.0
 11
1.911858438732253
 21
86.24362520168773
 31
0.0
  0
LINE
  5
4B7
330
1F
100
AcDbEntity
  8
0
100
AcDbLine
 10
1.917066931011306
 20
86.12658480595104
 30
0.0
 11
1.914546131374465
 21
86.18580511997691
 31
0.0
  0
LINE
  5
4B8
330
1F
100
AcDbEntity
  8
0
100
AcDbLine
 10
1.919420837642776
 20
86.06614498089305
 30
0.0
 11
1.917066931011306
 21
86.12658480595104
 31
0.0
  0
LINE
  5
4B9
330
1F
100
AcDbEntity
  8
0
100
AcDbLine
 10
1.921727298977004
 20
86.00142291973583
 30
0.0
 11
1.919420837642776
 21
86.06614498089305
 31
0.0
  0
LINE
  5
4BA
330
1F
100
AcDbEntity
  8
0
100
AcDbLine
 10
1.923979162456618
 20
85.93241385410777
 30
0.0
 11
1.921727298977004
 21
86.00142291973583
 31
0.0
  0
LINE
  5
4BB
330
1F
100
AcDbEntity
  8
0
100
AcDbLine
 10
1.926144718410598
 20
85.85973981808178
 30
0.0
 11
1.923979162456618
 21
85.93241385410777
 31
0.0
  0
LINE
  5
4BC
330
1F
100
AcDbEntity
  8
0
100
AcDbLine
 10
1.928192495586501
 20
85.78402213047496
 30
0.0
 11
1.926144718410598
 21
85.85973981808178
 31
0.0
  0
LINE
  5
4BD
330
1F
100
AcDbEntity
  8
0
100
AcDbLine
 10
1.93009555268489
 20
85.705969609723
 30
0.0
 11
1.928192495586501
 21
85.78402213047496
 31
0.0
  0
LINE
  5
4BE
330
1F
100
AcDbEntity
  8
0
100
AcDbLine
 10
1.931841491939651
 20
85.62653140018932
 30
0.0
 11
1.93009555268489
 21
85.705969609723
 31
0.0
  0
LINE
  5
4BF
330
1F
100
AcDbEntity
  8
0
100
AcDbLine
 10
1.933420061351882
 20
85.54669753502361
 30
0.0
 11
1.931841491939651
 21
85.62653140018932
 31
0.0
  0
LINE
  5
4C0
330
1F
100
AcDbEntity
  8
0
100
AcDbLine
 10
1.934820770504104
 20
85.46745816658489
 30
0.0
 11
1.933420061351882
 21
85.54669753502361
 31
0.0
  0
LINE
  5
4C1
330
1F
100
AcDbEntity
  8
0
100
AcDbLine
 10
1.936062931301223
 20
85.38794402073376
 30
0.0
 11
1.934820770504104
 21
85.46745816658489
 31
0.0
  0
LINE
  5
4C2
330
1F
100
AcDbEntity
  8
0
100
AcDbLine
 10
1.937202572109328
 20
85.30454639385693
 30
0.0
 11
1.936062931301223
 21
85.38794402073376
 31
0.0
  0
LINE
  5
4C3
330
1F
100
AcDbEntity
  8
0
100
AcDbLine
 10
1.938222765209304
 20
85.21794549416057
 30
0.0
 11
1.937202572109328
 21
85.30454639385693
 31
0.0
  0
LINE
  5
4C4
330
1F
100
AcDbEntity
  8
0
100
AcDbLine
 10
1.939103721859084
 20
85.12902716587536
 30
0.0
 11
1.938222765209304
 21
85.21794549416057
 31
0.0
  0
LINE
  5
4C5
330
1F
100
AcDbEntity
  8
0
100
AcDbLine
 10
1.939825653316604
 20
85.03867844532482
 30
0.0
 11
1.939103721859084
 21
85.12902716587536
 31
0.0
  0
LINE
  5
4C6
330
1F
100
AcDbEntity
  8
0
100
AcDbLine
 10
1.94037854600154
 20
84.94783798645489
 30
0.0
 11
1.939825653316604
 21
85.03867844532482
 31
0.0
  0
LINE
  5
4C7
330
1F
100
AcDbEntity
  8
0
100
AcDbLine
 10
1.940766929866897
 20
84.85751584957592
 30
0.0
 11
1.94037854600154
 21
84.94783798645489
 31
0.0
  0
LINE
  5
4C8
330
1F
100
AcDbEntity
  8
0
100
AcDbLine
 10
1.940996288539992
 20
84.76872722099773
 30
0.0
 11
1.940766929866897
 21
84.85751584957592
 31
0.0
  0
LINE
  5
4C9
330
1F
100
AcDbEntity
  8
0
100
AcDbLine
 10
1.941071390392409
 20
84.68248752544871
 30
0.0
 11
1.940996288539992
 21
84.76872722099773
 31
0.0
  0
ELLIPSE
  5
4CA
330
1F
100
AcDbEntity
  8
0
100
AcDbEllipse
 10
1.863178848507033
 20
84.68248752544871
 30
0.0
 11
0.0000000000000001
 21
2.0
 31
0.0
210
0.0
220
0.0
230
1.0
 40
0.0389458967668874
 41
4.712388980384689
 42
6.283185307179586
  0
ELLIPSE
  5
4CB
330
1F
100
AcDbEntity
  8
0
100
AcDbEllipse
 10
1.863178848507033
 20
84.68248752544871
 30
0.0
 11
0.0000000000000001
 21
2.0
 31
0.0
210
0.0
220
0.0
230
1.0
 40
0.0718456124848583
 41
0.0
 42
1.570796326794896
  0
LINE
  5
5A4
330
1F
100
AcDbEntity
  8
0
100
AcDbLine
 10
106.7116251921992
 20
57.60194230621426
 30
0.0
 11
107.7116251921992
 21
57.60194230621426
 31
0.0
  0
LINE
  5
5A5
330
1F
100
AcDbEntity
  8
0
100
AcDbLine
 10
106.7116251921992
 20
31.5738737637338
 30
0.0
 11
107.7116251921992
 21
31.5738737637338
 31
0.0
  0
LINE
  5
5A6
330
1F
100
AcDbEntity
  8
0
100
AcDbLine
 10
106.7116251921992
 20
29.57904267852872
 30
0.0
 11
107.7116251921992
 21
29.57904267852872
 31
0.0
  0
LINE
  5
5A7
330
1F
100
AcDbEntity
  8
0
100
AcDbLine
 10
106.7116251921992
 20
29.57894921844572
 30
0.0
 11
107.7116251921992
 21
29.57894921844572
 31
0.0
  0
LINE
  5
5A8
330
1F
100
AcDbEntity
  8
0
100
AcDbLine
 10
106.7116251921992
 20
-0.3585652012217082
 30
0.0
 11
107.7116251921992
 21
-0.3585652012217082
 31
0.0
  0
LINE
  5
5A9
330
1F
100
AcDbEntity
  8
0
100
AcDbLine
 10
106.7116251921992
 20
1.256410604172643
 30
0.0
 11
107.7116251921992
 21
1.256410604172643
 31
0.0
  0
LINE
  5
5AA
330
1F
100
AcDbEntity
  8
0
100
AcDbLine
 10
106.7116251921992
 20
59.60194230621425
 30
0.0
 11
107.7116251921992
 21
59.60194230621425
 31
0.0
  0
LINE
  5
5AB
330
1F
100
AcDbEntity
  8
0
100
AcDbLine
 10
107.7116251921992
 20
57.60194230621426
 30
0.0
 11
109.7116251921992
 21
57.60194230621426
 31
0.0
  0
LINE
  5
5AC
330
1F
100
AcDbEntity
  8
0
100
AcDbLine
 10
107.7116251921992
 20
31.5738737637338
 30
0.0
 11
109.7116251921992
 21
31.5738737637338
 31
0.0
  0
LINE
  5
5AD
330
1F
100
AcDbEntity
  8
0
100
AcDbLine
 10
107.7116251921992
 20
59.60194230621425
 30
0.0
 11
107.7116251921992
 21
57.60194230621426
 31
0.0
  0
LINE
  5
5AE
330
1F
100
AcDbEntity
  8
0
100
AcDbLine
 10
106.7116251921992
 20
59.60194230621425
 30
0.0
 11
106.7116251921992
 21
57.60194230621426
 31
0.0
  0
LINE
  5
5AF
330
1F
100
AcDbEntity
  8
0
100
AcDbLine
 10
109.7116251921992
 20
57.60194230621426
 30
0.0
 11
109.7116251921992
 21
31.5738737637338
 31
0.0
  0
LINE
  5
5B0
330
1F
100
AcDbEntity
  8
0
100
AcDbLine
 10
107.7116251921992
 20
57.60194230621426
 30
0.0
 11
107.7116251921992
 21
31.5738737637338
 31
0.0
  0
LINE
  5
5B1
330
1F
100
AcDbEntity
  8
0
100
AcDbLine
 10
106.7116251921992
 20
57.60194230621426
 30
0.0
 11
106.7116251921992
 21
31.5738737637338
 31
0.0
  0
LINE
  5
5B2
330
1F
100
AcDbEntity
  8
0
100
AcDbLine
 10
109.7116251921992
 20
31.5738737637338
 30
0.0
 11
109.7116251921992
 21
1.641434913330968
 31
0.0
  0
LINE
  5
5B3
330
1F
100
AcDbEntity
  8
0
100
AcDbLine
 10
106.7116251921992
 20
31.5738737637338
 30
0.0
 11
106.7116251921992
 21
29.57904267852872
 31
0.0
  0
LINE
  5
5B4
330
1F
100
AcDbEntity
  8
0
100
AcDbLine
 10
107.7116251921992
 20
31.5738737637338
 30
0.0
 11
107.7116251921992
 21
29.57904267852872
 31
0.0
  0
LINE
  5
5B5
330
1F
100
AcDbEntity
  8
0
100
AcDbLine
 10
106.7116251921992
 20
29.57904267852872
 30
0.0
 11
106.7116251921992
 21
29.57894921844572
 31
0.0
  0
LINE
  5
5B6
330
1F
100
AcDbEntity
  8
0
100
AcDbLine
 10
106.7116251921992
 20
29.57894921844572
 30
0.0
 11
106.7116251921992
 21
1.256410604172643
 31
0.0
  0
LINE
  5
5B7
330
1F
100
AcDbEntity
  8
0
100
AcDbLine
 10
107.7116251921992
 20
29.57894921844572
 30
0.0
 11
107.7116251921992
 21
1.256410604172643
 31
0.0
  0
LINE
  5
5B8
330
1F
100
AcDbEntity
  8
0
100
AcDbLine
 10
106.7116251921992
 20
1.259416585617955
 30
0.0
 11
106.7116251921992
 21
-0.3585652012217082
 31
0.0
  0
LINE
  5
5B9
330
1F
100
AcDbEntity
  8
0
100
AcDbLine
 10
107.7116251921992
 20
1.256410604172643
 30
0.0
 11
107.7116251921992
 21
-0.3585652012217082
 31
0.0
  0
LINE
  5
5BA
330
1F
100
AcDbEntity
  8
0
100
AcDbLine
 10
109.7116251921992
 20
1.641434913330968
 30
0.0
 11
109.7116244769434
 21
1.639870649033483
 31
0.0
  0
LINE
  5
5BB
330
1F
100
AcDbEntity
  8
0
100
AcDbLine
 10
109.7116228080134
 20
1.638306623154576
 30
0.0
 11
109.7116244769434
 21
1.639870649033483
 31
0.0
  0
LINE
  5
5BC
330
1F
100
AcDbEntity
  8
0
100
AcDbLine
 10
109.7116197085719
 20
1.63674259727567
 30
0.0
 11
109.7116228080134
 21
1.638306623154576
 31
0.0
  0
LINE
  5
5BD
330
1F
100
AcDbEntity
  8
0
100
AcDbLine
 10
109.7116154170374
 20
1.635178571396764
 30
0.0
 11
109.7116197085719
 21
1.63674259727567
 31
0.0
  0
LINE
  5
5BE
330
1F
100
AcDbEntity
  8
0
100
AcDbLine
 10
109.7116099334101
 20
1.633614664727147
 30
0.0
 11
109.7116154170374
 21
1.635178571396764
 31
0.0
  0
LINE
  5
5BF
330
1F
100
AcDbEntity
  8
0
100
AcDbLine
 10
109.7116032576899
 20
1.632050638848241
 30
0.0
 11
109.7116099334101
 21
1.633614664727147
 31
0.0
  0
LINE
  5
5C0
330
1F
100
AcDbEntity
  8
0
100
AcDbLine
 10
109.7115951514582
 20
1.630486612969335
 30
0.0
 11
109.7116032576899
 21
1.632050638848241
 31
0.0
  0
LINE
  5
5C1
330
1F
100
AcDbEntity
  8
0
100
AcDbLine
 10
109.709694240127
 20
31.48785615509122
 30
0.0
 11
109.7116251921992
 21
31.5738737637338
 31
0.0
  0
LINE
  5
5C2
330
1F
100
AcDbEntity
  8
0
100
AcDbLine
 10
109.7091103530268
 20
1.541541820221837
 30
0.0
 11
109.7115949130396
 21
1.630483990364965
 31
0.0
  0
LINE
  5
5C3
330
1F
100
AcDbEntity
  8
0
100
AcDbLine
 10
109.7113347983698
 20
1.624737864190038
 30
0.0
 11
109.7115951514582
 21
1.630486612969335
 31
0.0
  0
LINE
  5
5C4
330
1F
100
AcDbEntity
  8
0
100
AcDbLine
 10
109.7038100695948
 20
31.39929414337248
 30
0.0
 11
109.709694240127
 21
31.48785615509122
 31
0.0
  0
LINE
  5
5C5
330
1F
100
AcDbEntity
  8
0
100
AcDbLine
 10
109.7027333712916
 20
1.453264718705113
 30
0.0
 11
109.7091103530268
 21
1.541541820221837
 31
0.0
  0
LINE
  5
5C6
330
1F
100
AcDbEntity
  8
0
100
AcDbLine
 10
109.693837020431
 20
31.30920434539884
 30
0.0
 11
109.7038100695948
 21
31.39929414337248
 31
0.0
  0
LINE
  5
5C7
330
1F
100
AcDbEntity
  8
0
100
AcDbLine
 10
109.6918388343195
 20
1.360819702797826
 30
0.0
 11
109.7027333712916
 21
1.453264718705113
 31
0.0
  0
LINE
  5
5C8
330
1F
100
AcDbEntity
  8
0
100
AcDbLine
 10
109.7108095622401
 20
1.620410090142186
 30
0.0
 11
109.7113347983698
 21
1.624737864190038
 31
0.0
  0
LINE
  5
5C9
330
1F
100
AcDbEntity
  8
0
100
AcDbLine
 10
109.6796389556269
 20
31.21859574859708
 30
0.0
 11
109.693837020431
 21
31.30920434539884
 31
0.0
  0
LINE
  5
5CA
330
1F
100
AcDbEntity
  8
0
100
AcDbLine
 10
109.6767703032831
 20
1.269747381859716
 30
0.0
 11
109.6918388343195
 21
1.360819702797826
 31
0.0
  0
LINE
  5
5CB
330
1F
100
AcDbEntity
  8
0
100
AcDbLine
 10
109.661105725799
 20
31.12847924774259
 30
0.0
 11
109.6796389556269
 21
31.21859574859708
 31
0.0
  0
LINE
  5
5CC
330
1F
100
AcDbEntity
  8
0
100
AcDbLine
 10
109.7099779582362
 20
1.616472726517613
 30
0.0
 11
109.7108095622401
 21
1.620410090142186
 31
0.0
  0
LINE
  5
5CD
330
1F
100
AcDbEntity
  8
0
100
AcDbLine
 10
109.6587415671687
 20
1.184579854660924
 30
0.0
 11
109.6767703032831
 21
1.269747381859716
 31
0.0
  0
LINE
  5
5CE
330
1F
100
AcDbEntity
  8
0
100
AcDbLine
 10
109.6384869551997
 20
31.03978944366544
 30
0.0
 11
109.661105725799
 21
31.12847924774259
 31
0.0
  0
LINE
  5
5CF
330
1F
100
AcDbEntity
  8
0
100
AcDbLine
 10
109.6365827060084
 20
1.098752980881627
 30
0.0
 11
109.6587415671687
 21
1.184579854660924
 31
0.0
  0
LINE
  5
5D0
330
1F
100
AcDbEntity
  8
0
100
AcDbLine
 10
109.6122914290766
 20
30.95340943878263
 30
0.0
 11
109.6384869551997
 21
31.03978944366544
 31
0.0
  0
LINE
  5
5D1
330
1F
100
AcDbEntity
  8
0
100
AcDbLine
 10
109.6099649405817
 20
1.011908775025304
 30
0.0
 11
109.6365827060084
 21
1.098752980881627
 31
0.0
  0
LINE
  5
5D2
330
1F
100
AcDbEntity
  8
0
100
AcDbLine
 10
109.7088743186335
 20
1.612932687455113
 30
0.0
 11
109.7099779582362
 21
1.616472726517613
 31
0.0
  0
LINE
  5
5D3
330
1F
100
AcDbEntity
  8
0
100
AcDbLine
 10
109.583033416305
 20
30.87022424285978
 30
0.0
 11
109.6122914290766
 21
30.95340943878263
 31
0.0
  0
LINE
  5
5D4
330
1F
100
AcDbEntity
  8
0
100
AcDbLine
 10
109.57888135675
 20
0.9249782616433463
 30
0.0
 11
109.6099649405817
 21
1.011908775025304
 31
0.0
  0
LINE
  5
5D5
330
1F
100
AcDbEntity
  8
0
100
AcDbLine
 10
109.5511413550715
 20
30.79091287201017
 30
0.0
 11
109.583033416305
 21
30.87022424285978
 31
0.0
  0
LINE
  5
5D6
330
1F
100
AcDbEntity
  8
0
100
AcDbLine
 10
109.5435155368189
 20
0.8388302380379997
 30
0.0
 11
109.57888135675
 21
0.9249782616433463
 31
0.0
  0
LINE
  5
5D7
330
1F
100
AcDbEntity
  8
0
100
AcDbLine
 10
109.7075756526331
 20
1.609802013092931
 30
0.0
 11
109.7088743186335
 21
1.612932687455113
 31
0.0
  0
LINE
  5
5D8
330
1F
100
AcDbEntity
  8
0
100
AcDbLine
 10
109.5151749587397
 20
30.71187615936369
 30
0.0
 11
109.5511413550715
 21
30.79091287201017
 31
0.0
  0
LINE
  5
5D9
330
1F
100
AcDbEntity
  8
0
100
AcDbLine
 10
109.5040977931361
 20
0.7543011957940422
 30
0.0
 11
109.5435155368189
 21
0.8388302380379997
 31
0.0
  0
LINE
  5
5DA
330
1F
100
AcDbEntity
  8
0
100
AcDbLine
 10
109.4746466613154
 20
30.63224626129239
 30
0.0
 11
109.5151749587397
 21
30.71187615936369
 31
0.0
  0
LINE
  5
5DB
330
1F
100
AcDbEntity
  8
0
100
AcDbLine
 10
109.7060011363367
 20
1.60677958076566
 30
0.0
 11
109.7075756526331
 21
1.609802013092931
 31
0.0
  0
LINE
  5
5DC
330
1F
100
AcDbEntity
  8
0
100
AcDbLine
 10
109.4610343909601
 20
0.6721340472039543
 30
0.0
 11
109.5040977931361
 21
0.7543011957940422
 31
0.0
  0
LINE
  5
5DD
330
1F
100
AcDbEntity
  8
0
100
AcDbLine
 10
109.4298189616541
 20
30.5530111843881
 30
0.0
 11
109.4746466613154
 21
30.63224626129239
 31
0.0
  0
LINE
  5
5DE
330
1F
100
AcDbEntity
  8
0
100
AcDbLine
 10
109.4148248172144
 20
0.593056982212957
 30
0.0
 11
109.4610343909601
 21
0.6721340472039543
 31
0.0
  0
LINE
  5
5DF
330
1F
100
AcDbEntity
  8
0
100
AcDbLine
 10
109.3809548354487
 20
30.47515702789396
 30
0.0
 11
109.4298189616541
 21
30.5530111843881
 31
0.0
  0
LINE
  5
5E0
330
1F
100
AcDbEntity
  8
0
100
AcDbLine
 10
109.7041250205378
 20
1.603814249688085
 30
0.0
 11
109.7060011363367
 21
1.60677958076566
 31
0.0
  0
LINE
  5
5E1
330
1F
100
AcDbEntity
  8
0
100
AcDbLine
 10
109.3660880065302
 20
0.5177293474015557
 30
0.0
 11
109.4148248172144
 21
0.593056982212957
 31
0.0
  0
LINE
  5
5E2
330
1F
100
AcDbEntity
  8
0
100
AcDbLine
 10
109.6842161155085
 20
1.574032312088903
 30
0.0
 11
109.7041250205378
 21
1.603814249688085
 31
0.0
  0
LINE
  5
5E3
330
1F
100
AcDbEntity
  8
0
100
AcDbLine
 10
109.3283785319666
 20
30.39963174408048
 30
0.0
 11
109.3809548354487
 21
30.47515702789396
 31
0.0
  0
LINE
  5
5E4
330
1F
100
AcDbEntity
  8
0
100
AcDbLine
 10
109.3155773616175
 20
0.4467226321038567
 30
0.0
 11
109.3660880065302
 21
0.5177293474015557
 31
0.0
  0
LINE
  5
5E5
330
1F
100
AcDbEntity
  8
0
100
AcDbLine
 10
109.2727733588557
 20
30.32714105194181
 30
0.0
 11
109.3283785319666
 21
30.39963174408048
 31
0.0
  0
LINE
  5
5E6
330
1F
100
AcDbEntity
  8
0
100
AcDbLine
 10
109.2625528312067
 20
0.3786828572091423
 30
0.0
 11
109.3155773616175
 21
0.4467226321038567
 31
0.0
  0
LINE
  5
5E7
330
1F
100
AcDbEntity
  8
0
100
AcDbLine
 10
109.214953753982
 20
30.25830674713224
 30
0.0
 11
109.2727733588557
 21
30.32714105194181
 31
0.0
  0
LINE
  5
5E8
330
1F
100
AcDbEntity
  8
0
100
AcDbLine
 10
109.2061322665552
 20
0.3124233538445793
 30
0.0
 11
109.2625528312067
 21
0.3786828572091423
 31
0.0
  0
LINE
  5
5E9
330
1F
100
AcDbEntity
  8
0
100
AcDbLine
 10
109.1557336783747
 20
30.1937468106088
 30
0.0
 11
109.214953753982
 21
30.25830674713224
 31
0.0
  0
LINE
  5
5EA
330
1F
100
AcDbEntity
  8
0
100
AcDbLine
 10
109.1464403605799
 20
0.2481935674485527
 30
0.0
 11
109.2061322665552
 21
0.3124233538445793
 31
0.0
  0
LINE
  5
5EB
330
1F
100
AcDbEntity
  8
0
100
AcDbLine
 10
109.0952943301539
 20
30.13345933502286
 30
0.0
 11
109.1557336783747
 21
30.1937468106088
 31
0.0
  0
LINE
  5
5EC
330
1F
100
AcDbEntity
  8
0
100
AcDbLine
 10
109.0836022830347
 20
0.1862431222733818
 30
0.0
 11
109.1464403605799
 21
0.2481935674485527
 31
0.0
  0
LINE
  5
5ED
330
1F
100
AcDbEntity
  8
0
100
AcDbLine
 10
109.030573222671
 20
30.07438874786466
 30
0.0
 11
109.0952943301539
 21
30.13345933502286
 31
0.0
  0
LINE
  5
5EE
330
1F
100
AcDbEntity
  8
0
100
AcDbLine
 10
109.6516221499781
 20
1.544347649269994
 30
0.0
 11
109.6842161155085
 21
1.574032312088903
 31
0.0
  0
LINE
  5
5EF
330
1F
100
AcDbEntity
  8
0
100
AcDbLine
 10
109.017742488418
 20
0.1268215531644188
 30
0.0
 11
109.0836022830347
 21
0.1862431222733818
 31
0.0
  0
LINE
  5
5F0
330
1F
100
AcDbEntity
  8
0
100
AcDbLine
 10
108.9615651107172
 20
30.01671624725431
 30
0.0
 11
109.030573222671
 21
30.07438874786466
 31
0.0
  0
LINE
  5
5F1
330
1F
100
AcDbEntity
  8
0
100
AcDbLine
 10
108.9489932990412
 20
0.0701696926888786
 30
0.0
 11
109.017742488418
 21
0.1268215531644188
 31
0.0
  0
LINE
  5
5F2
330
1F
100
AcDbEntity
  8
0
100
AcDbLine
 10
108.8888913131098
 20
29.96125054901212
 30
0.0
 11
108.9615651107172
 21
30.01671624725431
 31
0.0
  0
LINE
  5
5F3
330
1F
100
AcDbEntity
  8
0
100
AcDbLine
 10
108.8775363898615
 20
0.0164701098737084
 30
0.0
 11
108.9489932990412
 21
0.0701696926888786
 31
0.0
  0
LINE
  5
5F4
330
1F
100
AcDbEntity
  8
0
100
AcDbLine
 10
108.8131738639216
 20
29.90880418365568
 30
0.0
 11
108.8888913131098
 21
29.96125054901212
 31
0.0
  0
LINE
  5
5F5
330
1F
100
AcDbEntity
  8
0
100
AcDbLine
 10
108.8035729861597
 20
-0.0341180806818642
 30
0.0
 11
108.8775363898615
 21
0.0164701098737084
 31
0.0
  0
LINE
  5
5F6
330
1F
100
AcDbEntity
  8
0
100
AcDbLine
 10
109.6074441409449
 20
1.515683537178929
 30
0.0
 11
109.6516221499781
 21
1.544347649269994
 31
0.0
  0
LINE
  5
5F7
330
1F
100
AcDbEntity
  8
0
100
AcDbLine
 10
108.7351213431696
 20
29.86006188934415
 30
0.0
 11
108.8131738639216
 21
29.90880418365568
 31
0.0
  0
LINE
  5
5F8
330
1F
100
AcDbEntity
  8
0
100
AcDbLine
 10
108.7273045516352
 20
-0.0814357941809334
 30
0.0
 11
108.8035729861597
 21
-0.0341180806818642
 31
0.0
  0
LINE
  5
5F9
330
1F
100
AcDbEntity
  8
0
100
AcDbLine
 10
108.6556824183802
 20
29.81534410064787
 30
0.0
 11
108.7351213431696
 21
29.86006188934415
 31
0.0
  0
LINE
  5
5FA
330
1F
100
AcDbEntity
  8
0
100
AcDbLine
 10
108.6489325499873
 20
-0.1253240203323997
 30
0.0
 11
108.7273045516352
 21
-0.0814357941809334
 31
0.0
  0
LINE
  5
5FB
330
1F
100
AcDbEntity
  8
0
100
AcDbLine
 10
108.5758474803309
 20
29.77491593902677
 30
0.0
 11
108.6556824183802
 21
29.81534410064787
 31
0.0
  0
LINE
  5
5FC
330
1F
100
AcDbEntity
  8
0
100
AcDbLine
 10
109.5542787051539
 20
1.488899951630529
 30
0.0
 11
109.6074441409449
 21
1.515683537178929
 31
0.0
  0
LINE
  5
5FD
330
1F
100
AcDbEntity
  8
0
100
AcDbLine
 10
108.5686503386835
 20
-0.1656305586758293
 30
0.0
 11
108.6489325499873
 21
-0.1253240203323997
 31
0.0
  0
LINE
  5
5FE
330
1F
100
AcDbEntity
  8
0
100
AcDbLine
 10
108.4966065621714
 20
29.73903680389494
 30
0.0
 11
108.5758474803309
 21
29.77491593902677
 31
0.0
  0
LINE
  5
5FF
330
1F
100
AcDbEntity
  8
0
100
AcDbLine
 10
108.4866353011469
 20
-0.2022684162321724
 30
0.0
 11
108.5686503386835
 21
-0.1656305586758293
 31
0.0
  0
LINE
  5
600
330
1F
100
AcDbEntity
  8
0
100
AcDbLine
 10
109.4898508525233
 20
1.462756639176305
 30
0.0
 11
109.5542787051539
 21
1.488899951630529
 31
0.0
  0
LINE
  5
601
330
1F
100
AcDbEntity
  8
0
100
AcDbLine
 10
108.4170920586924
 20
29.70722413604825
 30
0.0
 11
108.4966065621714
 21
29.73903680389494
 31
0.0
  0
LINE
  5
602
330
1F
100
AcDbEntity
  8
0
100
AcDbLine
 10
108.4031266904215
 20
-0.2351718341770805
 30
0.0
 11
108.4866353011469
 21
-0.2022684162321724
 31
0.0
  0
LINE
  5
603
330
1F
100
AcDbEntity
  8
0
100
AcDbLine
 10
108.3336939549784
 20
29.67803788726896
 30
0.0
 11
108.4170920586924
 21
29.70722413604825
 31
0.0
  0
LINE
  5
604
330
1F
100
AcDbEntity
  8
0
100
AcDbLine
 10
108.3183719849925
 20
-0.2642730420294441
 30
0.0
 11
108.4031266904215
 21
-0.2351718341770805
 31
0.0
  0
LINE
  5
605
330
1F
100
AcDbEntity
  8
0
100
AcDbLine
 10
109.4121638274531
 20
1.436607485466893
 30
0.0
 11
109.4898508525233
 21
1.462756639176305
 31
0.0
  0
LINE
  5
606
330
1F
100
AcDbEntity
  8
0
100
AcDbLine
 10
108.247092220817
 20
29.65190721099943
 30
0.0
 11
108.3336939549784
 21
29.67803788726896
 31
0.0
  0
LINE
  5
607
330
1F
100
AcDbEntity
  8
0
100
AcDbLine
 10
108.2326186633448
 20
-0.2895042544069923
 30
0.0
 11
108.3183719849925
 21
-0.2642730420294441
 31
0.0
  0
LINE
  5
608
330
1F
100
AcDbEntity
  8
0
100
AcDbLine
 10
109.3226479029993
 20
1.41142201965421
 30
0.0
 11
109.4121638274531
 21
1.436607485466893
 31
0.0
  0
LINE
  5
609
330
1F
100
AcDbEntity
  8
0
100
AcDbLine
 10
108.1581727004389
 20
29.62934518402189
 30
0.0
 11
108.247092220817
 21
29.65190721099943
 31
0.0
  0
LINE
  5
60A
330
1F
100
AcDbEntity
  8
0
100
AcDbLine
 10
108.1461140847544
 20
-0.3107978870931305
 30
0.0
 11
108.2326186633448
 21
-0.2895042544069923
 31
0.0
  0
LINE
  5
60B
330
1F
100
AcDbEntity
  8
0
100
AcDbLine
 10
109.2241981959681
 20
1.387986307793553
 30
0.0
 11
109.3226479029993
 21
1.41142201965421
 31
0.0
  0
LINE
  5
60C
330
1F
100
AcDbEntity
  8
0
100
AcDbLine
 10
108.0678226685862
 20
29.61085725372404
 30
0.0
 11
108.1581727004389
 21
29.62934518402189
 31
0.0
  0
LINE
  5
60D
330
1F
100
AcDbEntity
  8
0
100
AcDbLine
 10
109.1210013366084
 20
1.366923337632115
 30
0.0
 11
109.2241981959681
 21
1.387986307793553
 31
0.0
  0
LINE
  5
60E
330
1F
100
AcDbEntity
  8
0
100
AcDbLine
 10
108.0591137147288
 20
-0.328120744026009
 30
0.0
 11
108.1461140847544
 21
-0.3107978870931305
 31
0.0
  0
LINE
  5
60F
330
1F
100
AcDbEntity
  8
0
100
AcDbLine
 10
109.0091529822688
 20
1.347376828843053
 30
0.0
 11
109.1210013366084
 21
1.366923337632115
 31
0.0
  0
LINE
  5
610
330
1F
100
AcDbEntity
  8
0
100
AcDbLine
 10
107.9769806599955
 20
29.59669328277677
 30
0.0
 11
108.0678226685862
 21
29.61085725372404
 31
0.0
  0
LINE
  5
611
330
1F
100
AcDbEntity
  8
0
100
AcDbLine
 10
107.9718901849131
 20
-0.3415114192131199
 30
0.0
 11
108.0591137147288
 21
-0.328120744026009
 31
0.0
  0
LINE
  5
612
330
1F
100
AcDbEntity
  8
0
100
AcDbLine
 10
108.8848021960596
 20
1.32875645702451
 30
0.0
 11
109.0091529822688
 21
1.347376828843053
 31
0.0
  0
LINE
  5
613
330
1F
100
AcDbEntity
  8
0
100
AcDbLine
 10
108.7512594199518
 20
1.31186831539243
 30
0.0
 11
108.8848021960596
 21
1.32875645702451
 31
0.0
  0
LINE
  5
614
330
1F
100
AcDbEntity
  8
0
100
AcDbLine
 10
107.8866568541865
 20
29.58674455230802
 30
0.0
 11
107.9769806599955
 21
29.59669328277677
 31
0.0
  0
LINE
  5
615
330
1F
100
AcDbEntity
  8
0
100
AcDbLine
 10
107.8847179150919
 20
-0.3510173979985751
 30
0.0
 11
107.9718901849131
 21
-0.3415114192131199
 31
0.0
  0
LINE
  5
616
330
1F
100
AcDbEntity
  8
0
100
AcDbLine
 10
108.6127882933955
 20
1.297251587563451
 30
0.0
 11
108.7512594199518
 21
1.31186831539243
 31
0.0
  0
LINE
  5
617
330
1F
100
AcDbEntity
  8
0
100
AcDbLine
 10
108.4745815730433
 20
1.285184388810094
 30
0.0
 11
108.6127882933955
 21
1.297251587563451
 31
0.0
  0
LINE
  5
618
330
1F
100
AcDbEntity
  8
0
100
AcDbLine
 10
108.3317732549052
 20
1.275190835648473
 30
0.0
 11
108.4745815730433
 21
1.285184388810094
 31
0.0
  0
LINE
  5
619
330
1F
100
AcDbEntity
  8
0
100
AcDbLine
 10
107.7978665566782
 20
29.58087564056486
 30
0.0
 11
107.8866568541865
 21
29.58674455230802
 31
0.0
  0
LINE
  5
61A
330
1F
100
AcDbEntity
  8
0
100
AcDbLine
 10
107.7978714442591
 20
-0.3566861643295027
 30
0.0
 11
107.8847179150919
 21
-0.3510173979985751
 31
0.0
  0
LINE
  5
61B
330
1F
100
AcDbEntity
  8
0
100
AcDbLine
 10
108.1791596150736
 20
1.266964917832311
 30
0.0
 11
108.3317732549052
 21
1.275190835648473
 31
0.0
  0
LINE
  5
61C
330
1F
100
AcDbEntity
  8
0
100
AcDbLine
 10
108.0214867329935
 20
1.261016493493016
 30
0.0
 11
108.1791596150736
 21
1.266964917832311
 31
0.0
  0
LINE
  5
61D
330
1F
100
AcDbEntity
  8
0
100
AcDbLine
 10
107.7116251921992
 20
29.57894921844572
 30
0.0
 11
107.7978665566782
 21
29.58087564056486
 31
0.0
  0
LINE
  5
61E
330
1F
100
AcDbEntity
  8
0
100
AcDbLine
 10
107.8638360238413
 20
1.25753927772611
 30
0.0
 11
108.0214867329935
 21
1.261016493493016
 31
0.0
  0
LINE
  5
61F
330
1F
100
AcDbEntity
  8
0
100
AcDbLine
 10
107.7116251921992
 20
-0.3585652012217082
 30
0.0
 11
107.7978714442591
 21
-0.3566861643295027
 31
0.0
  0
LINE
  5
620
330
1F
100
AcDbEntity
  8
0
100
AcDbLine
 10
107.7116251921992
 20
1.256410604172643
 30
0.0
 11
107.8638360238413
 21
1.25753927772611
 31
0.0
  0
ARC
  5
621
330
1F
100
AcDbEntity
  8
0
100
AcDbCircle
 10
107.7116251921992
 20
57.60194177889004
 30
0.0
 40
2.0
100
AcDbArc
 50
0.0000151067248439
 51
90.0
  0
ELLIPSE
  5
622
330
1F
100
AcDbEntity
  8
0
100
AcDbEllipse
 10
107.7116251921992
 20
31.57387364889006
 30
0.0
 11
2.0
 21
-0.0000000000000005
 31
0.0
210
0.0
220
0.0
230
1.0
 40
0.9974157648476767
 41
4.712388980384689
 42
6.283185307179586
  0
LINE
  5
623
330
1F
100
AcDbEntity
  8
0
100
AcDbLine
 10
106.7116251921992
 20
59.60044313018887
 30
0.0
 11
107.7116251921992
 21
59.60044313018887
 31
0.0
  0
LINE
  5
624
330
1F
100
AcDbEntity
  8
0
100
AcDbLine
 10
106.7116251921992
 20
1.567131167107518
 30
0.0
 11
107.7116251921992
 21
1.567131167107518
 31
0.0
  0
LINE
  5
625
330
1F
100
AcDbEntity
  8
0
100
AcDbLine
 10
106.7116251921992
 20
59.60042405670254
 30
0.0
 11
107.7116251921992
 21
59.60042405670254
 31
0.0
  0
LINE
  5
626
330
1F
100
AcDbEntity
  8
0
100
AcDbLine
 10
106.7116251921992
 20
1.567296868019994
 30
0.0
 11
107.7116251921992
 21
1.567296868019994
 31
0.0
  0
LINE
  5
627
330
1F
100
AcDbEntity
  8
0
100
AcDbLine
 10
106.7116251921992
 20
1.259416585617955
 30
0.0
 11
107.7116251921992
 21
1.259416585617955
 31
0.0
  0
LINE
  5
628
330
1F
100
AcDbEntity
  8
0
100
AcDbLine
 10
106.7116251921992
 20
-0.3545807443398274
 30
0.0
 11
107.7116251921992
 21
-0.3545807443398274
 31
0.0
  0
LINE
  5
629
330
1F
100
AcDbEntity
  8
0
100
AcDbLine
 10
107.7116251921992
 20
59.60044313018887
 30
0.0
 11
107.7978648877482
 21
59.59851289337246
 31
0.0
  0
LINE
  5
62A
330
1F
100
AcDbEntity
  8
0
100
AcDbLine
 10
107.7978648877482
 20
59.59851289337246
 30
0.0
 11
107.8866535163264
 21
59.59263444488613
 31
0.0
  0
LINE
  5
62B
330
1F
100
AcDbEntity
  8
0
100
AcDbLine
 10
107.8866535163264
 20
59.59263444488613
 30
0.0
 11
107.9769756532053
 21
59.58266664093105
 31
0.0
  0
LINE
  5
62C
330
1F
100
AcDbEntity
  8
0
100
AcDbLine
 10
107.9769756532053
 20
59.58266664093105
 30
0.0
 11
108.0678161120753
 21
59.56847978180019
 31
0.0
  0
LINE
  5
62D
330
1F
100
AcDbEntity
  8
0
100
AcDbLine
 10
108.0678161120753
 20
59.56847978180019
 30
0.0
 11
108.1581648326258
 21
59.54995942657558
 31
0.0
  0
LINE
  5
62E
330
1F
100
AcDbEntity
  8
0
100
AcDbLine
 10
108.1581648326258
 20
59.54995942657558
 30
0.0
 11
108.247083160911
 21
59.52735734527675
 31
0.0
  0
LINE
  5
62F
330
1F
100
AcDbEntity
  8
0
100
AcDbLine
 10
108.247083160911
 20
59.52735734527675
 30
0.0
 11
108.3336840606074
 21
59.50118089264003
 31
0.0
  0
LINE
  5
630
330
1F
100
AcDbEntity
  8
0
100
AcDbLine
 10
108.3336840606074
 20
59.50118089264003
 30
0.0
 11
108.4170816874842
 21
59.47194123809902
 31
0.0
  0
LINE
  5
631
330
1F
100
AcDbEntity
  8
0
100
AcDbLine
 10
108.4170816874842
 20
59.47194123809902
 30
0.0
 11
108.4965958333353
 21
59.44007325714199
 31
0.0
  0
LINE
  5
632
330
1F
100
AcDbEntity
  8
0
100
AcDbLine
 10
108.4965958333353
 20
59.44007325714199
 30
0.0
 11
108.5758352017741
 21
59.40413117950527
 31
0.0
  0
LINE
  5
633
330
1F
100
AcDbEntity
  8
0
100
AcDbLine
 10
108.5758352017741
 20
59.40413117950527
 30
0.0
 11
108.6556690669398
 21
59.36363053863613
 31
0.0
  0
LINE
  5
634
330
1F
100
AcDbEntity
  8
0
100
AcDbLine
 10
108.6556690669398
 20
59.36363053863613
 30
0.0
 11
108.7351072764735
 21
59.31883454864589
 31
0.0
  0
LINE
  5
635
330
1F
100
AcDbEntity
  8
0
100
AcDbLine
 10
108.7351072764735
 20
59.31883454864589
 30
0.0
 11
108.8131597972254
 21
59.27000642364589
 31
0.0
  0
LINE
  5
636
330
1F
100
AcDbEntity
  8
0
100
AcDbLine
 10
108.8131597972254
 20
59.27000642364589
 30
0.0
 11
108.8888774848322
 21
59.2174704129037
 31
0.0
  0
LINE
  5
637
330
1F
100
AcDbEntity
  8
0
100
AcDbLine
 10
108.8888774848322
 20
59.2174704129037
 30
0.0
 11
108.9615515208582
 21
59.16190553253262
 31
0.0
  0
LINE
  5
638
330
1F
100
AcDbEntity
  8
0
100
AcDbLine
 10
108.9615515208582
 20
59.16190553253262
 30
0.0
 11
109.0305605864863
 21
59.10412812774746
 31
0.0
  0
LINE
  5
639
330
1F
100
AcDbEntity
  8
0
100
AcDbLine
 10
109.0305605864863
 20
59.10412812774746
 30
0.0
 11
109.0952826476435
 21
59.04495072906581
 31
0.0
  0
LINE
  5
63A
330
1F
100
AcDbEntity
  8
0
100
AcDbLine
 10
109.0952826476435
 20
59.04495072906581
 30
0.0
 11
109.1557224727015
 21
58.98455644195644
 31
0.0
  0
LINE
  5
63B
330
1F
100
AcDbEntity
  8
0
100
AcDbLine
 10
109.1557224727015
 20
58.98455644195644
 30
0.0
 11
109.2149427867274
 21
58.91988206451504
 31
0.0
  0
LINE
  5
63C
330
1F
100
AcDbEntity
  8
0
100
AcDbLine
 10
109.2149427867274
 20
58.91988206451504
 30
0.0
 11
109.2727628684382
 21
58.85092378204433
 31
0.0
  0
LINE
  5
63D
330
1F
100
AcDbEntity
  8
0
100
AcDbLine
 10
109.2727628684382
 20
58.85092378204433
 30
0.0
 11
109.3283685183863
 21
58.77830339019863
 31
0.0
  0
LINE
  5
63E
330
1F
100
AcDbEntity
  8
0
100
AcDbLine
 10
109.3283685183863
 20
58.77830339019863
 30
0.0
 11
109.3809460139613
 21
58.70264268463222
 31
0.0
  0
LINE
  5
63F
330
1F
100
AcDbEntity
  8
0
100
AcDbLine
 10
109.3809460139613
 20
58.70264268463222
 30
0.0
 11
109.429811093841
 21
58.62465119903652
 31
0.0
  0
LINE
  5
640
330
1F
100
AcDbEntity
  8
0
100
AcDbLine
 10
109.429811093841
 20
58.62465119903652
 30
0.0
 11
109.4746399855952
 21
58.54527116363613
 31
0.0
  0
LINE
  5
641
330
1F
100
AcDbEntity
  8
0
100
AcDbLine
 10
109.4746399855952
 20
58.54527116363613
 30
0.0
 11
109.5151694751124
 21
58.46549821441738
 31
0.0
  0
LINE
  5
642
330
1F
100
AcDbEntity
  8
0
100
AcDbLine
 10
109.5151694751124
 20
58.46549821441738
 30
0.0
 11
109.5511370635371
 21
58.38632035797207
 31
0.0
  0
LINE
  5
643
330
1F
100
AcDbEntity
  8
0
100
AcDbLine
 10
109.5511370635371
 20
58.38632035797207
 30
0.0
 11
109.5830298400263
 21
58.30686402862636
 31
0.0
  0
LINE
  5
644
330
1F
100
AcDbEntity
  8
0
100
AcDbLine
 10
109.5830298400263
 20
58.30686402862636
 30
0.0
 11
109.6122885680537
 21
58.22352815216152
 31
0.0
  0
LINE
  5
645
330
1F
100
AcDbEntity
  8
0
100
AcDbLine
 10
109.6122885680537
 20
58.22352815216152
 30
0.0
 11
109.6384845710139
 21
58.13699555938808
 31
0.0
  0
LINE
  5
646
330
1F
100
AcDbEntity
  8
0
100
AcDbLine
 10
109.6384845710139
 20
58.13699555938808
 30
0.0
 11
109.661104056869
 21
58.04814363067714
 31
0.0
  0
LINE
  5
647
330
1F
100
AcDbEntity
  8
0
100
AcDbLine
 10
109.661104056869
 20
58.04814363067714
 30
0.0
 11
109.679637763534
 21
57.9578611904916
 31
0.0
  0
LINE
  5
648
330
1F
100
AcDbEntity
  8
0
100
AcDbLine
 10
109.679637763534
 20
57.9578611904916
 30
0.0
 11
109.6938365435938
 21
57.86709046905605
 31
0.0
  0
LINE
  5
649
330
1F
100
AcDbEntity
  8
0
100
AcDbLine
 10
109.6938365435938
 20
57.86709046905605
 30
0.0
 11
109.7038098311762
 21
57.77683854644863
 31
0.0
  0
LINE
  5
64A
330
1F
100
AcDbEntity
  8
0
100
AcDbLine
 10
109.7038098311762
 20
57.77683854644863
 30
0.0
 11
109.7096940017084
 21
57.68811631744473
 31
0.0
  0
LINE
  5
64B
330
1F
100
AcDbEntity
  8
0
100
AcDbLine
 10
109.7096940017084
 20
57.68811631744473
 30
0.0
 11
109.7116251921992
 21
57.60194230621426
 31
0.0
  0
LINE
  5
64C
330
1F
100
AcDbEntity
  8
0
100
AcDbLine
 10
107.7116251921992
 20
59.60194230621425
 30
0.0
 11
107.7116251921992
 21
59.60042405670254
 31
0.0
  0
LINE
  5
64D
330
1F
100
AcDbEntity
  8
0
100
AcDbLine
 10
107.7116251921992
 20
59.60044313018887
 30
0.0
 11
107.7116251921992
 21
1.567131167107518
 31
0.0
  0
LINE
  5
64E
330
1F
100
AcDbEntity
  8
0
100
AcDbLine
 10
107.7116251921992
 20
1.567296868019994
 30
0.0
 11
107.7116251921992
 21
-0.3585652012217082
 31
0.0
  0
LINE
  5
64F
330
1F
100
AcDbEntity
  8
0
100
AcDbLine
 10
107.7116251921992
 20
1.259416585617955
 30
0.0
 11
107.7116251921992
 21
1.256410604172643
 31
0.0
  0
LINE
  5
650
330
1F
100
AcDbEntity
  8
0
100
AcDbLine
 10
107.7116251921992
 20
-0.3545807443398274
 30
0.0
 11
107.7116251921992
 21
-0.3585652012217082
 31
0.0
  0
LINE
  5
651
330
1F
100
AcDbEntity
  8
0
100
AcDbLine
 10
109.7094610667567
 20
1.633263474160131
 30
0.0
 11
109.7116185164789
 21
1.63624907081693
 31
0.0
  0
LINE
  5
652
330
1F
100
AcDbEntity
  8
0
100
AcDbLine
 10
109.7033666110377
 20
1.630192046814855
 30
0.0
 11
109.7094610667567
 21
1.633263474160131
 31
0.0
  0
LINE
  5
653
330
1F
100
AcDbEntity
  8
0
100
AcDbLine
 10
109.6931990123133
 20
1.627069597893651
 30
0.0
 11
109.7033666110377
 21
1.630192046814855
 31
0.0
  0
LINE
  5
654
330
1F
100
AcDbEntity
  8
0
100
AcDbLine
 10
109.6788233256678
 20
1.623931055718358
 30
0.0
 11
109.6931990123133
 21
1.627069597893651
 31
0.0
  0
LINE
  5
655
330
1F
100
AcDbEntity
  8
0
100
AcDbLine
 10
109.6601363158564
 20
1.620810871773656
 30
0.0
 11
109.6788233256678
 21
1.623931055718358
 31
0.0
  0
LINE
  5
656
330
1F
100
AcDbEntity
  8
0
100
AcDbLine
 10
109.6374054885248
 20
1.617741232567723
 30
0.0
 11
109.6601363158564
 21
1.620810871773656
 31
0.0
  0
LINE
  5
657
330
1F
100
AcDbEntity
  8
0
100
AcDbLine
 10
109.6111365294794
 20
1.614752417260106
 30
0.0
 11
109.6374054885248
 21
1.617741232567723
 31
0.0
  0
LINE
  5
658
330
1F
100
AcDbEntity
  8
0
100
AcDbLine
 10
109.5818379855494
 20
1.611874943428929
 30
0.0
 11
109.6111365294794
 21
1.614752417260106
 31
0.0
  0
LINE
  5
659
330
1F
100
AcDbEntity
  8
0
100
AcDbLine
 10
109.5499120688776
 20
1.609130268746312
 30
0.0
 11
109.5818379855494
 21
1.611874943428929
 31
0.0
  0
LINE
  5
65A
330
1F
100
AcDbEntity
  8
0
100
AcDbLine
 10
109.5138803458552
 20
1.606390958481725
 30
0.0
 11
109.5499120688776
 21
1.609130268746312
 31
0.0
  0
LINE
  5
65B
330
1F
100
AcDbEntity
  8
0
100
AcDbLine
 10
109.4733122325282
 20
1.603631978684362
 30
0.0
 11
109.5138803458552
 21
1.606390958481725
 31
0.0
  0
LINE
  5
65C
330
1F
100
AcDbEntity
  8
0
100
AcDbLine
 10
109.4284676051478
 20
1.600887065583165
 30
0.0
 11
109.4733122325282
 21
1.603631978684362
 31
0.0
  0
LINE
  5
65D
330
1F
100
AcDbEntity
  8
0
100
AcDbLine
 10
109.3796065783839
 20
1.598190670662816
 30
0.0
 11
109.4284676051478
 21
1.600887065583165
 31
0.0
  0
LINE
  5
65E
330
1F
100
AcDbEntity
  8
0
100
AcDbLine
 10
109.3270538783411
 20
1.595574980431493
 30
0.0
 11
109.3796065783839
 21
1.598190670662816
 31
0.0
  0
LINE
  5
65F
330
1F
100
AcDbEntity
  8
0
100
AcDbLine
 10
109.2714942431788
 20
1.593064552002843
 30
0.0
 11
109.3270538783411
 21
1.595574980431493
 31
0.0
  0
LINE
  5
660
330
1F
100
AcDbEntity
  8
0
100
AcDbLine
 10
109.2137356734614
 20
1.590680604630406
 30
0.0
 11
109.2714942431788
 21
1.593064552002843
 31
0.0
  0
LINE
  5
661
330
1F
100
AcDbEntity
  8
0
100
AcDbLine
 10
109.1545866465907
 20
1.588444715195592
 30
0.0
 11
109.2137356734614
 21
1.590680604630406
 31
0.0
  0
LINE
  5
662
330
1F
100
AcDbEntity
  8
0
100
AcDbLine
 10
109.0942038035731
 20
1.586355930024083
 30
0.0
 11
109.1545866465907
 21
1.588444715195592
 31
0.0
  0
LINE
  5
663
330
1F
100
AcDbEntity
  8
0
100
AcDbLine
 10
109.0295310950617
 20
1.584308629685338
 30
0.0
 11
109.0942038035731
 21
1.586355930024083
 31
0.0
  0
LINE
  5
664
330
1F
100
AcDbEntity
  8
0
100
AcDbLine
 10
108.960581872497
 20
1.582309609108861
 30
0.0
 11
109.0295310950617
 21
1.584308629685338
 31
0.0
  0
LINE
  5
665
330
1F
100
AcDbEntity
  8
0
100
AcDbLine
 10
108.8879748320918
 20
1.580387120896276
 30
0.0
 11
108.960581872497
 21
1.582309609108861
 31
0.0
  0
LINE
  5
666
330
1F
100
AcDbEntity
  8
0
100
AcDbLine
 10
108.8123293853144
 20
1.578569298439916
 30
0.0
 11
108.8879748320918
 21
1.580387120896276
 31
0.0
  0
LINE
  5
667
330
1F
100
AcDbEntity
  8
0
100
AcDbLine
 10
108.7343517279963
 20
1.576879625969823
 30
0.0
 11
108.8123293853144
 21
1.578569298439916
 31
0.0
  0
LINE
  5
668
330
1F
100
AcDbEntity
  8
0
100
AcDbLine
 10
108.6549885011057
 20
1.575329428368505
 30
0.0
 11
108.7343517279963
 21
1.576879625969823
 31
0.0
  0
LINE
  5
669
330
1F
100
AcDbEntity
  8
0
100
AcDbLine
 10
108.5752263999323
 20
1.573927646332677
 30
0.0
 11
108.6549885011057
 21
1.575329428368505
 31
0.0
  0
LINE
  5
66A
330
1F
100
AcDbEntity
  8
0
100
AcDbLine
 10
108.4960527158121
 20
1.572683578186925
 30
0.0
 11
108.5752263999323
 21
1.573927646332677
 31
0.0
  0
LINE
  5
66B
330
1F
100
AcDbEntity
  8
0
100
AcDbLine
 10
108.4166036582331
 20
1.571580415421422
 30
0.0
 11
108.4960527158121
 21
1.572683578186925
 31
0.0
  0
LINE
  5
66C
330
1F
100
AcDbEntity
  8
0
100
AcDbLine
 10
108.3332720733027
 20
1.570568209343846
 30
0.0
 11
108.4166036582331
 21
1.571580415421422
 31
0.0
  0
LINE
  5
66D
330
1F
100
AcDbEntity
  8
0
100
AcDbLine
 10
108.2467360234598
 20
1.569661980324681
 30
0.0
 11
108.3332720733027
 21
1.570568209343846
 31
0.0
  0
LINE
  5
66E
330
1F
100
AcDbEntity
  8
0
100
AcDbLine
 10
108.1578811145167
 20
1.56887937133878
 30
0.0
 11
108.2467360234598
 21
1.569661980324681
 31
0.0
  0
LINE
  5
66F
330
1F
100
AcDbEntity
  8
0
100
AcDbLine
 10
108.0675940251688
 20
1.568238025360997
 30
0.0
 11
108.1578811145167
 21
1.56887937133878
 31
0.0
  0
LINE
  5
670
330
1F
100
AcDbEntity
  8
0
100
AcDbLine
 10
107.9768128133158
 20
1.567746763878758
 30
0.0
 11
108.0675940251688
 21
1.568238025360997
 31
0.0
  0
LINE
  5
671
330
1F
100
AcDbEntity
  8
0
100
AcDbLine
 10
107.8865474200587
 20
1.567401652985509
 30
0.0
 11
107.9768128133158
 21
1.567746763878758
 31
0.0
  0
LINE
  5
672
330
1F
100
AcDbEntity
  8
0
100
AcDbLine
 10
107.7978131509165
 20
1.567198043518956
 30
0.0
 11
107.8865474200587
 21
1.567401652985509
 31
0.0
  0
LINE
  5
673
330
1F
100
AcDbEntity
  8
0
100
AcDbLine
 10
107.7116251921992
 20
1.567131167107518
 30
0.0
 11
107.7978131509165
 21
1.567198043518956
 31
0.0
  0
ELLIPSE
  5
674
330
1F
100
AcDbEntity
  8
0
100
AcDbEllipse
 10
107.7116251921992
 20
57.60194177889004
 30
0.0
 11
2.0
 21
-0.0000000000000005
 31
0.0
210
0.0
220
0.0
230
1.0
 40
0.9992413207654209
 41
0.0
 42
1.570796326794896
  0
ELLIPSE
  5
675
330
1F
100
AcDbEntity
  8
0
100
AcDbEllipse
 10
107.7116251921992
 20
1.63643479889005
 30
0.0
 11
1.999999999999999
 21
-0.0000000000000005
 31
0.0
210
0.0
220
0.0
230
1.0
 40
0.0345689654545602
 41
4.712388980384689
 42
6.280498962822337
  0
ELLIPSE
  5
676
330
1F
100
AcDbEntity
  8
0
100
AcDbEllipse
 10
107.7116251921992
 20
1.63643479889005
 30
0.0
 11
2.0
 21
-0.0000000000000005
 31
0.0
210
0.0
220
0.0
230
1.0
 40
0.1885090781680475
 41
4.712388980384689
 42
6.196554501254334
  0
ELLIPSE
  5
677
330
1F
100
AcDbEntity
  8
0
100
AcDbEllipse
 10
107.7116251921992
 20
1.63643479889005
 30
0.0
 11
2.0
 21
-0.0000000000000005
 31
0.0
210
0.0
220
0.0
230
1.0
 40
0.9955077717481053
 41
4.712388980384689
 42
5.692997957485473
  0
ENDSEC
  0
SECTION
  2
OBJECTS
  0
DICTIONARY
  5
C
330
0
100
AcDbDictionary
281
     1
  3
ACAD_COLOR
350
29C
  3
ACAD_GROUP
350
D
  3
ACAD_LAYOUT
350
1A
  3
ACAD_MATERIAL
350
3B
  3
ACAD_MLEADERSTYLE
350
265
  3
ACAD_MLINESTYLE
350
17
  3
ACAD_PLOTSETTINGS
350
19
  3
ACAD_PLOTSTYLENAME
350
E
  3
ACAD_SCALELIST
350
145
  3
ACAD_TABLESTYLE
350
29D
  3
ACAD_VISUALSTYLE
350
2A
  3
ACDB_RECOMPOSE_DATA
350
683
  3
AcDbVariableDictionary
350
263
  3
DWGPROPS
350
684
  0
DICTIONARY
  5
678
330
10
100
AcDbDictionary
280
     1
281
     1
  3
ADSK_XREC_LAYER_RECONCILED
360
679
  0
DICTIONARY
  5
29C
102
{ACAD_REACTORS
330
C
102
}
330
C
100
AcDbDictionary
281
     1
  0
DICTIONARY
  5
D
102
{ACAD_REACTORS
330
C
102
}
330
C
100
AcDbDictionary
281
     1
  0
DICTIONARY
  5
1A
102
{ACAD_REACTORS
330
C
102
}
330
C
100
AcDbDictionary
281
     1
  3
Layout1
350
1E
  3
Layout2
350
26
  3
Model
350
22
  0
DICTIONARY
  5
3B
102
{ACAD_REACTORS
330
C
102
}
330
C
100
AcDbDictionary
281
     1
  3
ByBlock
350
3D
  3
ByLayer
350
3C
  3
Global
350
3E
  0
DICTIONARY
  5
265
102
{ACAD_REACTORS
330
C
102
}
330
C
100
AcDbDictionary
281
     1
  3
Standard
350
29F
  0
DICTIONARY
  5
17
102
{ACAD_REACTORS
330
C
102
}
330
C
100
AcDbDictionary
281
     1
  3
Standard
350
18
  0
DICTIONARY
  5
19
102
{ACAD_REACTORS
330
C
102
}
330
C
100
AcDbDictionary
281
     1
  0
ACDBDICTIONARYWDFLT
  5
E
102
{ACAD_REACTORS
330
C
102
}
330
C
100
AcDbDictionary
281
     1
  3
Normal
350
F
100
AcDbDictionaryWithDefault
340
F
  0
DICTIONARY
  5
145
102
{ACAD_REACTORS
330
C
102
}
330
C
100
AcDbDictionary
281
     1
  3
A0
350
146
  3
A1
350
147
  3
A2
350
148
  3
A3
350
149
  3
A4
350
14A
  3
A5
350
14B
  3
A6
350
14C
  3
A7
350
14D
  3
A8
350
14E
  3
A9
350
14F
  3
B0
350
150
  3
B1
350
151
  3
B2
350
152
  3
B3
350
153
  3
B4
350
154
  3
B5
350
155
  3
B6
350
156
  3
B7
350
157
  3
B8
350
158
  3
B9
350
159
  3
C0
350
15A
  3
C1
350
15B
  3
C2
350
15C
  3
C3
350
15D
  3
C4
350
15E
  3
C5
350
15F
  3
C6
350
160
  3
C7
350
161
  3
C8
350
162
  3
C9
350
163
  3
D0
350
164
  3
D1
350
165
  3
D2
350
166
  0
DICTIONARY
  5
29D
102
{ACAD_REACTORS
330
C
102
}
330
C
100
AcDbDictionary
281
     1
  3
Standard
350
29E
  0
DICTIONARY
  5
2A
102
{ACAD_REACTORS
330
C
102
}
330
C
100
AcDbDictionary
281
     1
  3
2dWireframe
350
2F
  3
3D Hidden
350
31
  3
3dWireframe
350
30
  3
Basic
350
32
  3
Brighten
350
36
  3
ColorChange
350
3A
  3
Conceptual
350
34
  3
Dim
350
35
  3
EdgeColorOff
350
29B
  3
Facepattern
350
39
  3
Flat
350
2B
  3
FlatWithEdges
350
2C
  3
Gouraud
350
2D
  3
GouraudWithEdges
350
2E
  3
Hidden
350
293
  3
JitterOff
350
299
  3
Linepattern
350
38
  3
OverhangOff
350
29A
  3
Realistic
350
33
  3
Shaded
350
298
  3
Shaded with edges
350
297
  3
Shades of Gray
350
294
  3
Sketchy
350
295
  3
Thicken
350
37
  3
Wireframe
350
292
  3
X-Ray
350
296
  0
XRECORD
  5
683
102
{ACAD_REACTORS
330
C
102
}
330
C
100
AcDbXrecord
280
     1
 90
        1
330
29E
  0
DICTIONARY
  5
263
102
{ACAD_REACTORS
330
C
102
}
330
C
100
AcDbDictionary
281
     1
  3
CANNOSCALE
350
268
  3
CMLEADERSTYLE
350
67B
  3
CTABLESTYLE
350
67A
  3
DIMASSOC
350
269
  3
HIDETEXT
350
26A
  3
INDEXCTL
350
67D
  3
PSOLHEIGHT
350
67F
  3
PSOLWIDTH
350
67E
  3
SORTENTS
350
67C
  3
XCLIPFRAME
350
680
  0
XRECORD
  5
684
102
{ACAD_REACTORS
330
C
102
}
330
C
100
AcDbXrecord
280
     1
  1
DWGPROPS COOKIE
  2

  3

  4

  6

  7

  8
mpistoia
  9

300
=
301
=
302
=
303
=
304
=
305
=
306
=
307
=
308
=
309
=
 40
0.0039010416666667
 41
2455684.729166666
 42
2455684.655248021
  1

 90
        0
  0
XRECORD
  5
679
102
{ACAD_REACTORS
330
678
102
}
330
678
100
AcDbXrecord
280
     1
290
     1
  0
LAYOUT
  5
1E
102
{ACAD_XDICTIONARY
360
685
102
}
102
{ACAD_REACTORS
330
1A
102
}
330
1A
100
AcDbPlotSettings
  1

  2
none_device
  4

  6

 40
0.0
 41
0.0
 42
0.0
 43
0.0
 44
0.0
 45
0.0
 46
0.0
 47
0.0
 48
0.0
 49
0.0
140
0.0
141
0.0
142
1.0
143
1.0
 70
   688
 72
     0
 73
     0
 74
     5
  7

 75
    16
147
1.0
148
0.0
149
0.0
100
AcDbLayout
  1
Layout1
 70
     1
 71
     1
 10
0.0
 20
0.0
 11
420.0
 21
297.0
 12
0.0
 22
0.0
 32
0.0
 14
1.000000000000000E+20
 24
1.000000000000000E+20
 34
1.000000000000000E+20
 15
-1.000000000000000E+20
 25
-1.000000000000000E+20
 35
-1.000000000000000E+20
146
0.0
 13
0.0
 23
0.0
 33
0.0
 16
1.0
 26
0.0
 36
0.0
 17
0.0
 27
1.0
 37
0.0
 76
     0
330
1B
  0
LAYOUT
  5
26
102
{ACAD_XDICTIONARY
360
689
102
}
102
{ACAD_REACTORS
330
1A
102
}
330
1A
100
AcDbPlotSettings
  1

  2
none_device
  4

  6

 40
0.0
 41
0.0
 42
0.0
 43
0.0
 44
0.0
 45
0.0
 46
0.0
 47
0.0
 48
0.0
 49
0.0
140
0.0
141
0.0
142
1.0
143
1.0
 70
   688
 72
     0
 73
     0
 74
     5
  7

 75
    16
147
1.0
148
0.0
149
0.0
100
AcDbLayout
  1
Layout2
 70
     1
 71
     2
 10
0.0
 20
0.0
 11
0.0
 21
0.0
 12
0.0
 22
0.0
 32
0.0
 14
0.0
 24
0.0
 34
0.0
 15
0.0
 25
0.0
 35
0.0
146
0.0
 13
0.0
 23
0.0
 33
0.0
 16
1.0
 26
0.0
 36
0.0
 17
0.0
 27
1.0
 37
0.0
 76
     0
330
23
  0
LAYOUT
  5
22
102
{ACAD_XDICTIONARY
360
687
102
}
102
{ACAD_REACTORS
330
1A
102
}
330
1A
100
AcDbPlotSettings
  1

  2
none_device
  4

  6

 40
0.0
 41
0.0
 42
0.0
 43
0.0
 44
0.0
 45
0.0
 46
0.0
 47
0.0
 48
0.0
 49
0.0
140
0.0
141
0.0
142
1.0
143
1.0
 70
  1712
 72
     0
 73
     0
 74
     0
  7

 75
     0
147
1.0
148
0.0
149
0.0
100
AcDbLayout
  1
Model
 70
     1
 71
     0
 10
0.0
 20
0.0
 11
420.0
 21
297.0
 12
0.0
 22
0.0
 32
0.0
 14
0.0
 24
0.0
 34
0.0
 15
25.0
 25
35.0
 35
0.0
146
0.0
 13
0.0
 23
0.0
 33
0.0
 16
1.0
 26
0.0
 36
0.0
 17
0.0
 27
1.0
 37
0.0
 76
     0
330
1F
331
29
  0
MATERIAL
  5
3D
102
{ACAD_XDICTIONARY
360
6AD
102
}
102
{ACAD_REACTORS
330
3B
102
}
330
3B
100
AcDbMaterial
  1
ByBlock
 73
     1
 78
     1
172
     1
176
     1
270
     1
274
     1
  0
MATERIAL
  5
3C
102
{ACAD_XDICTIONARY
360
6AB
102
}
102
{ACAD_REACTORS
330
3B
102
}
330
3B
100
AcDbMaterial
  1
ByLayer
 73
     1
 78
     1
172
     1
176
     1
270
     1
274
     1
  0
MATERIAL
  5
3E
102
{ACAD_XDICTIONARY
360
6AF
102
}
102
{ACAD_REACTORS
330
3B
102
}
330
3B
100
AcDbMaterial
  1
Global
 73
     1
 78
     1
172
     1
176
     1
270
     1
274
     1
  0
MLEADERSTYLE
  5
29F
102
{ACAD_REACTORS
330
265
102
}
330
265
100
AcDbMLeaderStyle
170
     2
171
     1
172
     0
 90
        2
 40
0.0
 41
0.0
173
     1
 91
-1056964608
340
14
 92
       -2
290
     1
 42
2.0
291
     1
 43
0.36
  3
Standard
 44
4.0
300

342
11
174
     1
178
     6
175
     1
176
     0
 93
-1056964608
 45
4.0
292
     0
297
     0
 46
4.0
 94
-1056964608
 47
1.0
 49
1.0
140
1.0
293
     1
141
0.0
294
     1
177
     0
142
1.0
295
     0
296
     0
143
0.125
1001
ACAD_MLEADERVER
1070
     2
  0
MLINESTYLE
  5
18
102
{ACAD_REACTORS
330
17
102
}
330
17
100
AcDbMlineStyle
  2
STANDARD
 70
     0
  3

 62
   256
 51
90.0
 52
90.0
 71
     2
 49
0.5
 62
   256
  6
BYLAYER
 49
-0.5
 62
   256
  6
BYLAYER
  0
ACDBPLACEHOLDER
  5
F
102
{ACAD_REACTORS
330
E
102
}
330
E
  0
SCALE
  5
146
102
{ACAD_REACTORS
330
145
102
}
330
145
100
AcDbScale
 70
     0
300
1:1
140
1.0
141
1.0
290
     1
  0
SCALE
  5
147
102
{ACAD_REACTORS
330
145
102
}
330
145
100
AcDbScale
 70
     0
300
1:2
140
1.0
141
2.0
290
     0
  0
SCALE
  5
148
102
{ACAD_REACTORS
330
145
102
}
330
145
100
AcDbScale
 70
     0
300
1:4
140
1.0
141
4.0
290
     0
  0
SCALE
  5
149
102
{ACAD_REACTORS
330
145
102
}
330
145
100
AcDbScale
 70
     0
300
1:5
140
1.0
141
5.0
290
     0
  0
SCALE
  5
14A
102
{ACAD_REACTORS
330
145
102
}
330
145
100
AcDbScale
 70
     0
300
1:8
140
1.0
141
8.0
290
     0
  0
SCALE
  5
14B
102
{ACAD_REACTORS
330
145
102
}
330
145
100
AcDbScale
 70
     0
300
1:10
140
1.0
141
10.0
290
     0
  0
SCALE
  5
14C
102
{ACAD_REACTORS
330
145
102
}
330
145
100
AcDbScale
 70
     0
300
1:16
140
1.0
141
16.0
290
     0
  0
SCALE
  5
14D
102
{ACAD_REACTORS
330
145
102
}
330
145
100
AcDbScale
 70
     0
300
1:20
140
1.0
141
20.0
290
     0
  0
SCALE
  5
14E
102
{ACAD_REACTORS
330
145
102
}
330
145
100
AcDbScale
 70
     0
300
1:30
140
1.0
141
30.0
290
     0
  0
SCALE
  5
14F
102
{ACAD_REACTORS
330
145
102
}
330
145
100
AcDbScale
 70
     0
300
1:40
140
1.0
141
40.0
290
     0
  0
SCALE
  5
150
102
{ACAD_REACTORS
330
145
102
}
330
145
100
AcDbScale
 70
     0
300
1:50
140
1.0
141
50.0
290
     0
  0
SCALE
  5
151
102
{ACAD_REACTORS
330
145
102
}
330
145
100
AcDbScale
 70
     0
300
1:100
140
1.0
141
100.0
290
     0
  0
SCALE
  5
152
102
{ACAD_REACTORS
330
145
102
}
330
145
100
AcDbScale
 70
     0
300
2:1
140
2.0
141
1.0
290
     0
  0
SCALE
  5
153
102
{ACAD_REACTORS
330
145
102
}
330
145
100
AcDbScale
 70
     0
300
4:1
140
4.0
141
1.0
290
     0
  0
SCALE
  5
154
102
{ACAD_REACTORS
330
145
102
}
330
145
100
AcDbScale
 70
     0
300
8:1
140
8.0
141
1.0
290
     0
  0
SCALE
  5
155
102
{ACAD_REACTORS
330
145
102
}
330
145
100
AcDbScale
 70
     0
300
10:1
140
10.0
141
1.0
290
     0
  0
SCALE
  5
156
102
{ACAD_REACTORS
330
145
102
}
330
145
100
AcDbScale
 70
     0
300
100:1
140
100.0
141
1.0
290
     0
  0
SCALE
  5
157
102
{ACAD_REACTORS
330
145
102
}
330
145
100
AcDbScale
 70
     0
300
1/128" = 1'-0"
140
0.0078125
141
12.0
290
     0
  0
SCALE
  5
158
102
{ACAD_REACTORS
330
145
102
}
330
145
100
AcDbScale
 70
     0
300
1/64" = 1'-0"
140
0.015625
141
12.0
290
     0
  0
SCALE
  5
159
102
{ACAD_REACTORS
330
145
102
}
330
145
100
AcDbScale
 70
     0
300
1/32" = 1'-0"
140
0.03125
141
12.0
290
     0
  0
SCALE
  5
15A
102
{ACAD_REACTORS
330
145
102
}
330
145
100
AcDbScale
 70
     0
300
1/16" = 1'-0"
140
0.0625
141
12.0
290
     0
  0
SCALE
  5
15B
102
{ACAD_REACTORS
330
145
102
}
330
145
100
AcDbScale
 70
     0
300
3/32" = 1'-0"
140
0.09375
141
12.0
290
     0
  0
SCALE
  5
15C
102
{ACAD_REACTORS
330
145
102
}
330
145
100
AcDbScale
 70
     0
300
1/8" = 1'-0"
140
0.125
141
12.0
290
     0
  0
SCALE
  5
15D
102
{ACAD_REACTORS
330
145
102
}
330
145
100
AcDbScale
 70
     0
300
3/16" = 1'-0"
140
0.1875
141
12.0
290
     0
  0
SCALE
  5
15E
102
{ACAD_REACTORS
330
145
102
}
330
145
100
AcDbScale
 70
     0
300
1/4" = 1'-0"
140
0.25
141
12.0
290
     0
  0
SCALE
  5
15F
102
{ACAD_REACTORS
330
145
102
}
330
145
100
AcDbScale
 70
     0
300
3/8" = 1'-0"
140
0.375
141
12.0
290
     0
  0
SCALE
  5
160
102
{ACAD_REACTORS
330
145
102
}
330
145
100
AcDbScale
 70
     0
300
1/2" = 1'-0"
140
0.5
141
12.0
290
     0
  0
SCALE
  5
161
102
{ACAD_REACTORS
330
145
102
}
330
145
100
AcDbScale
 70
     0
300
3/4" = 1'-0"
140
0.75
141
12.0
290
     0
  0
SCALE
  5
162
102
{ACAD_REACTORS
330
145
102
}
330
145
100
AcDbScale
 70
     0
300
1" = 1'-0"
140
1.0
141
12.0
290
     0
  0
SCALE
  5
163
102
{ACAD_REACTORS
330
145
102
}
330
145
100
AcDbScale
 70
     0
300
1-1/2" = 1'-0"
140
1.5
141
12.0
290
     0
  0
SCALE
  5
164
102
{ACAD_REACTORS
330
145
102
}
330
145
100
AcDbScale
 70
     0
300
3" = 1'-0"
140
3.0
141
12.0
290
     0
  0
SCALE
  5
165
102
{ACAD_REACTORS
330
145
102
}
330
145
100
AcDbScale
 70
     0
300
6" = 1'-0"
140
6.0
141
12.0
290
     0
  0
SCALE
  5
166
102
{ACAD_REACTORS
330
145
102
}
330
145
100
AcDbScale
 70
     0
300
1'-0" = 1'-0"
140
12.0
141
12.0
290
     0
  0
TABLESTYLE
  5
29E
102
{ACAD_XDICTIONARY
360
681
102
}
102
{ACAD_REACTORS
330
29D
102
}
330
29D
100
AcDbTableStyle
  3
Standard
 70
     0
 71
     0
 40
1.5
 41
1.5
280
     0
281
     0
  7
Standard
140
4.5
170
     2
 62
     0
 63
     7
283
     0
274
    -2
284
     1
 64
     0
275
    -2
285
     1
 65
     0
276
    -2
286
     1
 66
     0
277
    -2
287
     1
 67
     0
278
    -2
288
     1
 68
     0
279
    -2
289
     1
 69
     0
  7
Standard
140
6.0
170
     5
 62
     0
 63
     7
283
     0
274
    -2
284
     1
 64
     0
275
    -2
285
     1
 65
     0
276
    -2
286
     1
 66
     0
277
    -2
287
     1
 67
     0
278
    -2
288
     1
 68
     0
279
    -2
289
     1
 69
     0
  7
Standard
140
4.5
170
     5
 62
     0
 63
     7
283
     0
274
    -2
284
     1
 64
     0
275
    -2
285
     1
 65
     0
276
    -2
286
     1
 66
     0
277
    -2
287
     1
 67
     0
278
    -2
288
     1
 68
     0
279
    -2
289
     1
 69
     0
  0
VISUALSTYLE
  5
2F
102
{ACAD_XDICTIONARY
360
693
102
}
102
{ACAD_REACTORS
330
2A
102
}
330
2A
100
AcDbVisualStyle
  2
2dWireframe
 70
     4
 71
     0
 72
     2
 73
     0
 90
        0
 40
-0.6
 41
-30.0
 62
     5
 63
     7
 74
     1
 91
        4
 64
     7
 65
   257
 75
     1
175
     1
 42
1.0
 92
        0
 66
   257
 43
1.0
 76
     1
 77
     6
 78
     2
 67
     7
 79
     5
170
     0
171
     0
290
     0
174
     0
 93
        1
 44
0.0
173
     0
291
     0
 45
0.0
1001
ACAD
1000
AcDbSavedByObjectVersion
1070
     0
  0
VISUALSTYLE
  5
31
102
{ACAD_XDICTIONARY
360
697
102
}
102
{ACAD_REACTORS
330
2A
102
}
330
2A
100
AcDbVisualStyle
  2
3D Hidden
 70
     6
 71
     1
 72
     2
 73
     2
 90
        0
 40
-0.6
 41
-30.0
 62
     5
 63
     7
 74
     2
 91
        2
 64
     7
 65
   257
 75
     2
175
     1
 42
40.0
 92
        0
 66
   257
 43
1.0
 76
     1
 77
     6
 78
     2
 67
     7
 79
     3
170
     0
171
     0
290
     0
174
     0
 93
        1
 44
0.0
173
     0
291
     0
 45
0.0
1001
ACAD
1000
AcDbSavedByObjectVersion
1070
     0
  0
VISUALSTYLE
  5
30
102
{ACAD_XDICTIONARY
360
695
102
}
102
{ACAD_REACTORS
330
2A
102
}
330
2A
100
AcDbVisualStyle
  2
3dWireframe
 70
     5
 71
     0
 72
     2
 73
     0
 90
        0
 40
-0.6
 41
-30.0
 62
     5
 63
     7
 74
     1
 91
        4
 64
     7
 65
   257
 75
     1
175
     1
 42
1.0
 92
        0
 66
   257
 43
1.0
 76
     1
 77
     6
 78
     2
 67
     7
 79
     5
170
     0
171
     0
290
     0
174
     0
 93
        1
 44
0.0
173
     0
291
     0
 45
0.0
1001
ACAD
1000
AcDbSavedByObjectVersion
1070
     0
  0
VISUALSTYLE
  5
32
102
{ACAD_XDICTIONARY
360
699
102
}
102
{ACAD_REACTORS
330
2A
102
}
330
2A
100
AcDbVisualStyle
  2
Basic
 70
     7
 71
     1
 72
     0
 73
     1
 90
        0
 40
-0.6
 41
-30.0
 62
     5
 63
     7
 74
     0
 91
        4
 64
     7
 65
   257
 75
     1
175
     1
 42
1.0
 92
        8
 66
     7
 43
1.0
 76
     1
 77
     6
 78
     2
 67
     7
 79
     5
170
     0
171
     0
290
     0
174
     0
 93
        1
 44
0.0
173
     0
291
     1
 45
0.0
1001
ACAD
1000
AcDbSavedByObjectVersion
1070
     0
  0
VISUALSTYLE
  5
36
102
{ACAD_XDICTIONARY
360
6A1
102
}
102
{ACAD_REACTORS
330
2A
102
}
330
2A
100
AcDbVisualStyle
  2
Brighten
 70
    12
 71
     2
 72
     2
 73
     0
 90
        0
 40
-0.6
 41
-30.0
 62
     5
 63
     7
 74
     1
 91
        4
 64
     7
 65
   257
 75
     1
175
     1
 42
1.0
 92
        8
 66
     7
 43
1.0
 76
     1
 77
     6
 78
     2
 67
     7
 79
     5
170
     0
171
     0
290
     0
174
     0
 93
        1
 44
50.0
173
     0
291
     1
 45
0.0
1001
ACAD
1000
AcDbSavedByObjectVersion
1070
     0
  0
VISUALSTYLE
  5
3A
102
{ACAD_XDICTIONARY
360
6A9
102
}
102
{ACAD_REACTORS
330
2A
102
}
330
2A
100
AcDbVisualStyle
  2
ColorChange
 70
    16
 71
     2
 72
     2
 73
     3
 90
        0
 40
-0.6
 41
-30.0
 62
     5
 63
     8
 74
     1
 91
        4
 64
     7
 65
   257
 75
     1
175
     1
 42
1.0
 92
        8
 66
     8
 43
1.0
 76
     1
 77
     6
 78
     2
 67
     7
 79
     5
170
     0
171
     0
290
     0
174
     0
 93
        1
 44
0.0
173
     0
291
     1
 45
0.0
1001
ACAD
1000
AcDbSavedByObjectVersion
1070
     0
  0
VISUALSTYLE
  5
34
102
{ACAD_XDICTIONARY
360
69D
102
}
102
{ACAD_REACTORS
330
2A
102
}
330
2A
100
AcDbVisualStyle
  2
Conceptual
 70
     9
 71
     3
 72
     2
 73
     0
 90
        0
 40
-0.6
 41
-30.0
 62
     5
 63
     7
 74
     2
 91
        2
 64
     7
 65
   257
 75
     1
175
     1
 42
40.0
 92
        8
 66
     7
 43
1.0
 76
     1
 77
     6
 78
     2
 67
     7
 79
     3
170
     0
171
     0
290
     0
174
     0
 93
        1
 44
0.0
173
     0
291
     0
 45
0.0
1001
ACAD
1000
AcDbSavedByObjectVersion
1070
     0
  0
VISUALSTYLE
  5
35
102
{ACAD_XDICTIONARY
360
69F
102
}
102
{ACAD_REACTORS
330
2A
102
}
330
2A
100
AcDbVisualStyle
  2
Dim
 70
    11
 71
     2
 72
     2
 73
     0
 90
        0
 40
-0.6
 41
-30.0
 62
     5
 63
     7
 74
     1
 91
        4
 64
     7
 65
   257
 75
     1
175
     1
 42
1.0
 92
        8
 66
     7
 43
1.0
 76
     1
 77
     6
 78
     2
 67
     7
 79
     5
170
     0
171
     0
290
     0
174
     0
 93
        1
 44
-50.0
173
     0
291
     1
 45
0.0
1001
ACAD
1000
AcDbSavedByObjectVersion
1070
     0
  0
VISUALSTYLE
  5
29B
102
{ACAD_XDICTIONARY
360
6C3
102
}
102
{ACAD_REACTORS
330
2A
102
}
330
2A
100
AcDbVisualStyle
  2
EdgeColorOff
 70
    22
 71
     2
 72
     2
 73
     0
 90
        0
 40
-0.6
 41
-30.0
 62
     5
 63
     7
 74
     1
 91
        4
 64
     7
 65
   257
 75
     1
175
     1
 42
1.0
 92
        8
 66
     7
 43
1.0
 76
     1
 77
     6
 78
     2
 67
     7
 79
     5
170
     0
171
     0
290
     0
174
     0
 93
        1
 44
0.0
173
     0
291
     1
 45
0.0
1001
ACAD
1000
AcDbSavedByObjectVersion
1070
     0
  0
VISUALSTYLE
  5
39
102
{ACAD_XDICTIONARY
360
6A7
102
}
102
{ACAD_REACTORS
330
2A
102
}
330
2A
100
AcDbVisualStyle
  2
Facepattern
 70
    15
 71
     2
 72
     2
 73
     0
 90
        0
 40
-0.6
 41
-30.0
 62
     5
 63
     7
 74
     1
 91
        4
 64
     7
 65
   257
 75
     1
175
     1
 42
1.0
 92
        8
 66
     7
 43
1.0
 76
     1
 77
     6
 78
     2
 67
     7
 79
     5
170
     0
171
     0
290
     0
174
     0
 93
        1
 44
0.0
173
     0
291
     1
 45
0.0
1001
ACAD
1000
AcDbSavedByObjectVersion
1070
     0
  0
VISUALSTYLE
  5
2B
102
{ACAD_XDICTIONARY
360
68B
102
}
102
{ACAD_REACTORS
330
2A
102
}
330
2A
100
AcDbVisualStyle
  2
Flat
 70
     0
 71
     2
 72
     1
 73
     1
 90
        2
 40
-0.6
 41
30.0
 62
     5
 63
     7
 74
     0
 91
        4
 64
     7
 65
   257
 75
     1
175
     1
 42
1.0
 92
        8
 66
     7
 43
1.0
 76
     1
 77
     6
 78
     2
 67
     7
 79
     5
170
     0
171
     0
290
     0
174
     0
 93
       13
 44
0.0
173
     0
291
     1
 45
0.0
1001
ACAD
1000
AcDbSavedByObjectVersion
1070
     0
  0
VISUALSTYLE
  5
2C
102
{ACAD_XDICTIONARY
360
68D
102
}
102
{ACAD_REACTORS
330
2A
102
}
330
2A
100
AcDbVisualStyle
  2
FlatWithEdges
 70
     1
 71
     2
 72
     1
 73
     1
 90
        2
 40
-0.6
 41
30.0
 62
     5
 63
     7
 74
     1
 91
        4
 64
     7
 65
   257
 75
     1
175
     1
 42
1.0
 92
        0
 66
   257
 43
1.0
 76
     1
 77
     6
 78
     2
 67
     7
 79
     5
170
     0
171
     0
290
     0
174
     0
 93
       13
 44
0.0
173
     0
291
     1
 45
0.0
1001
ACAD
1000
AcDbSavedByObjectVersion
1070
     0
  0
VISUALSTYLE
  5
2D
102
{ACAD_XDICTIONARY
360
68F
102
}
102
{ACAD_REACTORS
330
2A
102
}
330
2A
100
AcDbVisualStyle
  2
Gouraud
 70
     2
 71
     2
 72
     2
 73
     1
 90
        2
 40
-0.6
 41
30.0
 62
     5
 63
     7
 74
     0
 91
        4
 64
     7
 65
   257
 75
     1
175
     1
 42
1.0
 92
        0
 66
     7
 43
1.0
 76
     1
 77
     6
 78
     2
 67
     7
 79
     5
170
     0
171
     0
290
     0
174
     0
 93
       13
 44
0.0
173
     0
291
     1
 45
0.0
1001
ACAD
1000
AcDbSavedByObjectVersion
1070
     0
  0
VISUALSTYLE
  5
2E
102
{ACAD_XDICTIONARY
360
691
102
}
102
{ACAD_REACTORS
330
2A
102
}
330
2A
100
AcDbVisualStyle
  2
GouraudWithEdges
 70
     3
 71
     2
 72
     2
 73
     1
 90
        2
 40
-0.6
 41
30.0
 62
     5
 63
     7
 74
     1
 91
        4
 64
     7
 65
   257
 75
     1
175
     1
 42
1.0
 92
        0
 66
   257
 43
1.0
 76
     1
 77
     6
 78
     2
 67
     7
 79
     5
170
     0
171
     0
290
     0
174
     0
 93
       13
 44
0.0
173
     0
291
     1
 45
0.0
1001
ACAD
1000
AcDbSavedByObjectVersion
1070
     0
  0
VISUALSTYLE
  5
293
102
{ACAD_XDICTIONARY
360
6B3
102
}
102
{ACAD_REACTORS
330
2A
102
}
330
2A
100
AcDbVisualStyle
  2
Hidden
 70
     6
 71
     1
 72
     2
 73
     2
 90
        0
 40
-0.6
 41
-30.0
 62
     5
 63
     7
 74
     2
 91
        2
 64
     7
 65
   257
 75
     2
175
     1
 42
40.0
 92
        0
 66
   257
 43
1.0
 76
     1
 77
     6
 78
     2
 67
     7
 79
     3
170
     0
171
     0
290
     0
174
     0
 93
        1
 44
0.0
173
     0
291
     0
 45
0.0
1001
ACAD
1000
AcDbSavedByObjectVersion
1070
     0
  0
VISUALSTYLE
  5
299
102
{ACAD_XDICTIONARY
360
6BF
102
}
102
{ACAD_REACTORS
330
2A
102
}
330
2A
100
AcDbVisualStyle
  2
JitterOff
 70
    20
 71
     2
 72
     2
 73
     0
 90
        0
 40
-0.6
 41
-30.0
 62
     5
 63
     7
 74
     1
 91
        4
 64
     7
 65
   257
 75
     1
175
     1
 42
1.0
 92
       10
 66
     7
 43
1.0
 76
     1
 77
     6
 78
     2
 67
     7
 79
     5
170
     0
171
     0
290
     0
174
     0
 93
        1
 44
0.0
173
     0
291
     1
 45
0.0
1001
ACAD
1000
AcDbSavedByObjectVersion
1070
     0
  0
VISUALSTYLE
  5
38
102
{ACAD_XDICTIONARY
360
6A5
102
}
102
{ACAD_REACTORS
330
2A
102
}
330
2A
100
AcDbVisualStyle
  2
Linepattern
 70
    14
 71
     2
 72
     2
 73
     0
 90
        0
 40
-0.6
 41
-30.0
 62
     5
 63
     7
 74
     1
 91
        4
 64
     7
 65
   257
 75
     7
175
     7
 42
1.0
 92
        8
 66
     7
 43
1.0
 76
     1
 77
     6
 78
     2
 67
     7
 79
     5
170
     0
171
     0
290
     0
174
     0
 93
        1
 44
0.0
173
     0
291
     1
 45
0.0
1001
ACAD
1000
AcDbSavedByObjectVersion
1070
     0
  0
VISUALSTYLE
  5
29A
102
{ACAD_XDICTIONARY
360
6C1
102
}
102
{ACAD_REACTORS
330
2A
102
}
330
2A
100
AcDbVisualStyle
  2
OverhangOff
 70
    21
 71
     2
 72
     2
 73
     0
 90
        0
 40
-0.6
 41
-30.0
 62
     5
 63
     7
 74
     1
 91
        4
 64
     7
 65
   257
 75
     1
175
     1
 42
1.0
 92
        9
 66
     7
 43
1.0
 76
     1
 77
     6
 78
     2
 67
     7
 79
     5
170
     0
171
     0
290
     0
174
     0
 93
        1
 44
0.0
173
     0
291
     1
 45
0.0
1001
ACAD
1000
AcDbSavedByObjectVersion
1070
     0
  0
VISUALSTYLE
  5
33
102
{ACAD_XDICTIONARY
360
69B
102
}
102
{ACAD_REACTORS
330
2A
102
}
330
2A
100
AcDbVisualStyle
  2
Realistic
 70
     8
 71
     2
 72
     2
 73
     0
 90
        0
 40
-0.6
 41
-30.0
 62
     5
 63
     7
 74
     1
 91
        0
 64
     7
 65
   257
 75
     1
175
     1
 42
1.0
 92
        8
 66
     8
 43
1.0
 76
     1
 77
     6
 78
     2
 67
     7
 79
     5
170
     0
171
     0
290
     0
174
     0
 93
       13
 44
0.0
173
     0
291
     0
 45
0.0
1001
ACAD
1000
AcDbSavedByObjectVersion
1070
     0
  0
VISUALSTYLE
  5
298
102
{ACAD_XDICTIONARY
360
6BD
102
}
102
{ACAD_REACTORS
330
2A
102
}
330
2A
100
AcDbVisualStyle
  2
Shaded
 70
    27
 71
     2
 72
     2
 73
     1
 90
        2
 40
-0.6
 41
30.0
 62
     5
 63
     7
 74
     0
 91
        4
 64
     7
 65
   257
 75
     1
175
     1
 42
1.0
 92
        8
 66
   257
 43
1.0
 76
     1
 77
     6
 78
     2
 67
     8
 79
     3
170
     0
171
     0
290
     0
174
     0
 93
        5
 44
0.0
173
     0
291
     0
 45
0.0
1001
ACAD
1000
AcDbSavedByObjectVersion
1070
     0
  0
VISUALSTYLE
  5
297
102
{ACAD_XDICTIONARY
360
6BB
102
}
102
{ACAD_REACTORS
330
2A
102
}
330
2A
100
AcDbVisualStyle
  2
Shaded with edges
 70
    26
 71
     2
 72
     2
 73
     1
 90
        2
 40
-0.6
 41
30.0
 62
     5
 63
     7
 74
     1
 91
       10
 64
     7
 65
   257
 75
     2
175
     1
 42
1.0
 92
        8
 66
   257
 43
1.0
 76
     1
 77
     6
 78
     2
 67
     7
 79
     3
170
     0
171
     0
290
     0
174
     0
 93
        5
 44
0.0
173
     0
291
     0
 45
0.0
1001
ACAD
1000
AcDbSavedByObjectVersion
1070
     0
  0
VISUALSTYLE
  5
294
102
{ACAD_XDICTIONARY
360
6B5
102
}
102
{ACAD_REACTORS
330
2A
102
}
330
2A
100
AcDbVisualStyle
  2
Shades of Gray
 70
    23
 71
     2
 72
     2
 73
     3
 90
        0
 40
-0.6
 41
-30.0
 62
     5
 63
     7
 74
     2
 91
        2
 64
     7
 65
     7
 75
     1
175
     1
 42
40.0
 92
        8
 66
     7
 43
1.0
 76
     1
 77
     6
 78
     2
 67
     7
 79
     3
170
     0
171
     0
290
     0
174
     0
 93
        1
 44
0.0
173
     0
291
     0
 45
0.0
1001
ACAD
1000
AcDbSavedByObjectVersion
1070
     0
  0
VISUALSTYLE
  5
295
102
{ACAD_XDICTIONARY
360
6B7
102
}
102
{ACAD_REACTORS
330
2A
102
}
330
2A
100
AcDbVisualStyle
  2
Sketchy
 70
    24
 71
     1
 72
     2
 73
     2
 90
        0
 40
-0.6
 41
-30.0
 62
     5
 63
     7
 74
     2
 91
        2
 64
     7
 65
     7
 75
     1
175
     1
 42
40.0
 92
       11
 66
     7
 43
1.0
 76
     1
 77
     6
 78
     2
 67
     7
 79
     6
170
     0
171
     0
290
     0
174
     0
 93
        1
 44
0.0
173
     0
291
     0
 45
0.0
1001
ACAD
1000
AcDbSavedByObjectVersion
1070
     0
  0
VISUALSTYLE
  5
37
102
{ACAD_XDICTIONARY
360
6A3
102
}
102
{ACAD_REACTORS
330
2A
102
}
330
2A
100
AcDbVisualStyle
  2
Thicken
 70
    13
 71
     2
 72
     2
 73
     0
 90
        0
 40
-0.6
 41
-30.0
 62
     5
 63
     7
 74
     1
 91
        4
 64
     7
 65
   257
 75
     1
175
     1
 42
1.0
 92
       12
 66
     7
 43
1.0
 76
     1
 77
     6
 78
     2
 67
     7
 79
     5
170
     0
171
     0
290
     0
174
     0
 93
        1
 44
0.0
173
     0
291
     1
 45
0.0
1001
ACAD
1000
AcDbSavedByObjectVersion
1070
     0
  0
VISUALSTYLE
  5
292
102
{ACAD_XDICTIONARY
360
6B1
102
}
102
{ACAD_REACTORS
330
2A
102
}
330
2A
100
AcDbVisualStyle
  2
Wireframe
 70
     5
 71
     0
 72
     2
 73
     0
 90
        0
 40
-0.6
 41
-30.0
 62
     5
 63
     7
 74
     1
 91
        4
 64
     7
 65
   257
 75
     1
175
     1
 42
1.0
 92
        0
 66
   257
 43
1.0
 76
     1
 77
     6
 78
     2
 67
     7
 79
     3
170
     0
171
     0
290
     0
174
     0
 93
        1
 44
0.0
173
     0
291
     0
 45
0.0
1001
ACAD
1000
AcDbSavedByObjectVersion
1070
     0
  0
VISUALSTYLE
  5
296
102
{ACAD_XDICTIONARY
360
6B9
102
}
102
{ACAD_REACTORS
330
2A
102
}
330
2A
100
AcDbVisualStyle
  2
X-Ray
 70
    25
 71
     2
 72
     2
 73
     1
 90
        1
 40
0.5
 41
-30.0
 62
     5
 63
     7
 74
     1
 91
        0
 64
     7
 65
   257
 75
     1
175
     1
 42
1.0
 92
        8
 66
     7
 43
1.0
 76
     1
 77
     6
 78
     2
 67
     7
 79
     3
170
     0
171
     0
290
     0
174
     0
 93
       13
 44
0.0
173
     0
291
     0
 45
0.0
1001
ACAD
1000
AcDbSavedByObjectVersion
1070
     0
  0
DICTIONARYVAR
  5
268
102
{ACAD_REACTORS
330
263
102
}
330
263
100
DictionaryVariables
280
     0
  1
1:1
  0
DICTIONARYVAR
  5
67B
102
{ACAD_REACTORS
330
263
102
}
330
263
100
DictionaryVariables
280
     0
  1
STANDARD
  0
DICTIONARYVAR
  5
67A
102
{ACAD_REACTORS
330
263
102
}
330
263
100
DictionaryVariables
280
     0
  1
STANDARD
  0
DICTIONARYVAR
  5
269
102
{ACAD_REACTORS
330
263
102
}
330
263
100
DictionaryVariables
280
     0
  1
2
  0
DICTIONARYVAR
  5
26A
102
{ACAD_REACTORS
330
263
102
}
330
263
100
DictionaryVariables
280
     0
  1
1
  0
DICTIONARYVAR
  5
67D
102
{ACAD_REACTORS
330
263
102
}
330
263
100
DictionaryVariables
280
     0
  1
0
  0
DICTIONARYVAR
  5
67F
102
{ACAD_REACTORS
330
263
102
}
330
263
100
DictionaryVariables
280
     0
  1
80.000000
  0
DICTIONARYVAR
  5
67E
102
{ACAD_REACTORS
330
263
102
}
330
263
100
DictionaryVariables
280
     0
  1
5.000000
  0
DICTIONARYVAR
  5
67C
102
{ACAD_REACTORS
330
263
102
}
330
263
100
DictionaryVariables
280
     0
  1
127
  0
DICTIONARYVAR
  5
680
102
{ACAD_REACTORS
330
263
102
}
330
263
100
DictionaryVariables
280
     0
  1
2
  0
DICTIONARY
  5
685
330
1E
100
AcDbDictionary
280
     1
281
     1
  3
ACAD_XREC_ROUNDTRIP
360
686
  0
DICTIONARY
  5
689
330
26
100
AcDbDictionary
280
     1
281
     1
  3
ACAD_XREC_ROUNDTRIP
360
68A
  0
DICTIONARY
  5
687
330
22
100
AcDbDictionary
280
     1
281
     1
  3
ACAD_XREC_ROUNDTRIP
360
688
  0
DICTIONARY
  5
6AD
330
3D
100
AcDbDictionary
280
     1
281
     1
  3
ACAD_XREC_ROUNDTRIP
360
6AE
  0
DICTIONARY
  5
6AB
330
3C
100
AcDbDictionary
280
     1
281
     1
  3
ACAD_XREC_ROUNDTRIP
360
6AC
  0
DICTIONARY
  5
6AF
330
3E
100
AcDbDictionary
280
     1
281
     1
  3
ACAD_XREC_ROUNDTRIP
360
6B0
  0
DICTIONARY
  5
681
330
29E
100
AcDbDictionary
280
     1
281
     1
  3
ACAD_ROUNDTRIP_2008_TABLESTYLE_CELLSTYLEMAP
360
682
  3
ACAD_XREC_ROUNDTRIP
360
6C5
  0
DICTIONARY
  5
693
330
2F
100
AcDbDictionary
280
     1
281
     1
  3
ACAD_XREC_ROUNDTRIP
360
694
  0
DICTIONARY
  5
697
330
31
100
AcDbDictionary
280
     1
281
     1
  3
ACAD_XREC_ROUNDTRIP
360
698
  0
DICTIONARY
  5
695
330
30
100
AcDbDictionary
280
     1
281
     1
  3
ACAD_XREC_ROUNDTRIP
360
696
  0
DICTIONARY
  5
699
330
32
100
AcDbDictionary
280
     1
281
     1
  3
ACAD_XREC_ROUNDTRIP
360
69A
  0
DICTIONARY
  5
6A1
330
36
100
AcDbDictionary
280
     1
281
     1
  3
ACAD_XREC_ROUNDTRIP
360
6A2
  0
DICTIONARY
  5
6A9
330
3A
100
AcDbDictionary
280
     1
281
     1
  3
ACAD_XREC_ROUNDTRIP
360
6AA
  0
DICTIONARY
  5
69D
330
34
100
AcDbDictionary
280
     1
281
     1
  3
ACAD_XREC_ROUNDTRIP
360
69E
  0
DICTIONARY
  5
69F
330
35
100
AcDbDictionary
280
     1
281
     1
  3
ACAD_XREC_ROUNDTRIP
360
6A0
  0
DICTIONARY
  5
6C3
330
29B
100
AcDbDictionary
280
     1
281
     1
  3
ACAD_XREC_ROUNDTRIP
360
6C4
  0
DICTIONARY
  5
6A7
330
39
100
AcDbDictionary
280
     1
281
     1
  3
ACAD_XREC_ROUNDTRIP
360
6A8
  0
DICTIONARY
  5
68B
330
2B
100
AcDbDictionary
280
     1
281
     1
  3
ACAD_XREC_ROUNDTRIP
360
68C
  0
DICTIONARY
  5
68D
330
2C
100
AcDbDictionary
280
     1
281
     1
  3
ACAD_XREC_ROUNDTRIP
360
68E
  0
DICTIONARY
  5
68F
330
2D
100
AcDbDictionary
280
     1
281
     1
  3
ACAD_XREC_ROUNDTRIP
360
690
  0
DICTIONARY
  5
691
330
2E
100
AcDbDictionary
280
     1
281
     1
  3
ACAD_XREC_ROUNDTRIP
360
692
  0
DICTIONARY
  5
6B3
330
293
100
AcDbDictionary
280
     1
281
     1
  3
ACAD_XREC_ROUNDTRIP
360
6B4
  0
DICTIONARY
  5
6BF
330
299
100
AcDbDictionary
280
     1
281
     1
  3
ACAD_XREC_ROUNDTRIP
360
6C0
  0
DICTIONARY
  5
6A5
330
38
100
AcDbDictionary
280
     1
281
     1
  3
ACAD_XREC_ROUNDTRIP
360
6A6
  0
DICTIONARY
  5
6C1
330
29A
100
AcDbDictionary
280
     1
281
     1
  3
ACAD_XREC_ROUNDTRIP
360
6C2
  0
DICTIONARY
  5
69B
330
33
100
AcDbDictionary
280
     1
281
     1
  3
ACAD_XREC_ROUNDTRIP
360
69C
  0
DICTIONARY
  5
6BD
330
298
100
AcDbDictionary
280
     1
281
     1
  3
ACAD_XREC_ROUNDTRIP
360
6BE
  0
DICTIONARY
  5
6BB
330
297
100
AcDbDictionary
280
     1
281
     1
  3
ACAD_XREC_ROUNDTRIP
360
6BC
  0
DICTIONARY
  5
6B5
330
294
100
AcDbDictionary
280
     1
281
     1
  3
ACAD_XREC_ROUNDTRIP
360
6B6
  0
DICTIONARY
  5
6B7
330
295
100
AcDbDictionary
280
     1
281
     1
  3
ACAD_XREC_ROUNDTRIP
360
6B8
  0
DICTIONARY
  5
6A3
330
37
100
AcDbDictionary
280
     1
281
     1
  3
ACAD_XREC_ROUNDTRIP
360
6A4
  0
DICTIONARY
  5
6B1
330
292
100
AcDbDictionary
280
     1
281
     1
  3
ACAD_XREC_ROUNDTRIP
360
6B2
  0
DICTIONARY
  5
6B9
330
296
100
AcDbDictionary
280
     1
281
     1
  3
ACAD_XREC_ROUNDTRIP
360
6BA
  0
XRECORD
  5
686
102
{ACAD_REACTORS
330
685
102
}
330
685
100
AcDbXrecord
280
     1
102
SHADEPLOT
 70
     0
102
SHADEPLOTRESLEVEL
 70
     2
102
SHADEPLOTCUSTOMDPI
 70
   300
  0
XRECORD
  5
68A
102
{ACAD_REACTORS
330
689
102
}
330
689
100
AcDbXrecord
280
     1
102
SHADEPLOT
 70
     0
102
SHADEPLOTRESLEVEL
 70
     2
102
SHADEPLOTCUSTOMDPI
 70
   300
  0
XRECORD
  5
688
102
{ACAD_REACTORS
330
687
102
}
330
687
100
AcDbXrecord
280
     1
102
SHADEPLOT
 70
     0
102
SHADEPLOTRESLEVEL
 70
     2
102
SHADEPLOTCUSTOMDPI
 70
   300
  0
XRECORD
  5
6AE
102
{ACAD_REACTORS
330
6AD
102
}
330
6AD
100
AcDbXrecord
280
     1
102
MATERIAL
148
0.0
149
0.0
149
0.0
 93
        0
 94
      127
282
     0
 72
     1
 77
     1
171
     1
175
     1
179
     1
273
     0
  0
XRECORD
  5
6AC
102
{ACAD_REACTORS
330
6AB
102
}
330
6AB
100
AcDbXrecord
280
     1
102
MATERIAL
148
0.0
149
0.0
149
0.0
 93
        0
 94
      127
282
     0
 72
     1
 77
     1
171
     1
175
     1
179
     1
273
     0
  0
XRECORD
  5
6B0
102
{ACAD_REACTORS
330
6AF
102
}
330
6AF
100
AcDbXrecord
280
     1
102
MATERIAL
148
0.0
149
0.0
149
0.0
 93
        0
 94
      127
282
     0
 72
     1
 77
     1
171
     1
175
     1
179
     1
273
     0
  0
CELLSTYLEMAP
  5
682
102
{ACAD_REACTORS
330
681
102
}
330
681
100
AcDbCellStyleMap
 90
        3
300
CELLSTYLE
  1
TABLEFORMAT_BEGIN
 90
        5
170
     1
 91
        0
 92
    32768
 62
   257
 93
        1
300
CONTENTFORMAT
  1
CONTENTFORMAT_BEGIN
 90
        0
 91
        0
 92
      512
 93
        0
300

 40
0.0
140
1.0
 94
        5
 62
     0
340
11
144
6.0
309
CONTENTFORMAT_END
171
     1
301
MARGIN
  1
CELLMARGIN_BEGIN
 40
1.5
 40
1.5
 40
1.5
 40
1.5
 40
4.5
 40
4.5
309
CELLMARGIN_END
 94
        6
 95
        1
302
GRIDFORMAT
  1
GRIDFORMAT_BEGIN
 90
        0
 91
        1
 62
     0
 92
       -2
340
0
 93
        0
 40
1.125
309
GRIDFORMAT_END
 95
        2
302
GRIDFORMAT
  1
GRIDFORMAT_BEGIN
 90
        0
 91
        1
 62
     0
 92
       -2
340
0
 93
        0
 40
1.125
309
GRIDFORMAT_END
 95
        4
302
GRIDFORMAT
  1
GRIDFORMAT_BEGIN
 90
        0
 91
        1
 62
     0
 92
       -2
340
0
 93
        0
 40
1.125
309
GRIDFORMAT_END
 95
        8
302
GRIDFORMAT
  1
GRIDFORMAT_BEGIN
 90
        0
 91
        1
 62
     0
 92
       -2
340
0
 93
        0
 40
1.125
309
GRIDFORMAT_END
 95
       16
302
GRIDFORMAT
  1
GRIDFORMAT_BEGIN
 90
        0
 91
        1
 62
     0
 92
       -2
340
0
 93
        0
 40
1.125
309
GRIDFORMAT_END
 95
       32
302
GRIDFORMAT
  1
GRIDFORMAT_BEGIN
 90
        0
 91
        1
 62
     0
 92
       -2
340
0
 93
        0
 40
1.125
309
GRIDFORMAT_END
309
TABLEFORMAT_END
  1
CELLSTYLE_BEGIN
 90
        1
 91
        1
300
_TITLE
309
CELLSTYLE_END
300
CELLSTYLE
  1
TABLEFORMAT_BEGIN
 90
        5
170
     1
 91
        0
 92
        0
 62
   257
 93
        1
300
CONTENTFORMAT
  1
CONTENTFORMAT_BEGIN
 90
        0
 91
        0
 92
      512
 93
        0
300

 40
0.0
140
1.0
 94
        5
 62
     0
340
11
144
4.5
309
CONTENTFORMAT_END
171
     1
301
MARGIN
  1
CELLMARGIN_BEGIN
 40
1.5
 40
1.5
 40
1.5
 40
1.5
 40
4.5
 40
4.5
309
CELLMARGIN_END
 94
        6
 95
        1
302
GRIDFORMAT
  1
GRIDFORMAT_BEGIN
 90
        0
 91
        1
 62
     0
 92
       -2
340
0
 93
        0
 40
1.125
309
GRIDFORMAT_END
 95
        2
302
GRIDFORMAT
  1
GRIDFORMAT_BEGIN
 90
        0
 91
        1
 62
     0
 92
       -2
340
0
 93
        0
 40
1.125
309
GRIDFORMAT_END
 95
        4
302
GRIDFORMAT
  1
GRIDFORMAT_BEGIN
 90
        0
 91
        1
 62
     0
 92
       -2
340
0
 93
        0
 40
1.125
309
GRIDFORMAT_END
 95
        8
302
GRIDFORMAT
  1
GRIDFORMAT_BEGIN
 90
        0
 91
        1
 62
     0
 92
       -2
340
0
 93
        0
 40
1.125
309
GRIDFORMAT_END
 95
       16
302
GRIDFORMAT
  1
GRIDFORMAT_BEGIN
 90
        0
 91
        1
 62
     0
 92
       -2
340
0
 93
        0
 40
1.125
309
GRIDFORMAT_END
 95
       32
302
GRIDFORMAT
  1
GRIDFORMAT_BEGIN
 90
        0
 91
        1
 62
     0
 92
       -2
340
0
 93
        0
 40
1.125
309
GRIDFORMAT_END
309
TABLEFORMAT_END
  1
CELLSTYLE_BEGIN
 90
        2
 91
        1
300
_HEADER
309
CELLSTYLE_END
300
CELLSTYLE
  1
TABLEFORMAT_BEGIN
 90
        5
170
     1
 91
        0
 92
        0
 62
   257
 93
        1
300
CONTENTFORMAT
  1
CONTENTFORMAT_BEGIN
 90
        0
 91
        0
 92
      512
 93
        0
300

 40
0.0
140
1.0
 94
        2
 62
     0
340
11
144
4.5
309
CONTENTFORMAT_END
171
     1
301
MARGIN
  1
CELLMARGIN_BEGIN
 40
1.5
 40
1.5
 40
1.5
 40
1.5
 40
4.5
 40
4.5
309
CELLMARGIN_END
 94
        6
 95
        1
302
GRIDFORMAT
  1
GRIDFORMAT_BEGIN
 90
        0
 91
        1
 62
     0
 92
       -2
340
0
 93
        0
 40
1.125
309
GRIDFORMAT_END
 95
        2
302
GRIDFORMAT
  1
GRIDFORMAT_BEGIN
 90
        0
 91
        1
 62
     0
 92
       -2
340
0
 93
        0
 40
1.125
309
GRIDFORMAT_END
 95
        4
302
GRIDFORMAT
  1
GRIDFORMAT_BEGIN
 90
        0
 91
        1
 62
     0
 92
       -2
340
0
 93
        0
 40
1.125
309
GRIDFORMAT_END
 95
        8
302
GRIDFORMAT
  1
GRIDFORMAT_BEGIN
 90
        0
 91
        1
 62
     0
 92
       -2
340
0
 93
        0
 40
1.125
309
GRIDFORMAT_END
 95
       16
302
GRIDFORMAT
  1
GRIDFORMAT_BEGIN
 90
        0
 91
        1
 62
     0
 92
       -2
340
0
 93
        0
 40
1.125
309
GRIDFORMAT_END
 95
       32
302
GRIDFORMAT
  1
GRIDFORMAT_BEGIN
 90
        0
 91
        1
 62
     0
 92
       -2
340
0
 93
        0
 40
1.125
309
GRIDFORMAT_END
309
TABLEFORMAT_END
  1
CELLSTYLE_BEGIN
 90
        3
 91
        2
300
_DATA
309
CELLSTYLE_END
  0
XRECORD
  5
6C5
102
{ACAD_REACTORS
330
681
102
}
330
681
100
AcDbXrecord
280
     1
102
ACAD_ROUNDTRIP_PRE2007_TABLESTYLE
 90
      512
 91
        0
  1

 92
      512
 93
        0
  2

 94
      512
 95
        0
  3

  0
XRECORD
  5
694
102
{ACAD_REACTORS
330
693
102
}
330
693
100
AcDbXrecord
280
     1
102
RTVSPropertyOp0
 70
     1
102
RTVSPropertyOp1
 70
     1
102
RTVSPropertyOp2
 70
     1
102
RTVSPropertyOp3
 70
     1
102
RTVSPropertyOp4
 70
     1
102
RTVSPropertyOp5
 70
     1
102
RTVSPropertyOp6
 70
     1
102
RTVSPropertyOp7
 70
     1
102
RTVSPropertyOp8
 70
     1
102
RTVSPropertyOp9
 70
     1
102
RTVSPropertyOp10
 70
     1
102
RTVSPropertyOp11
 70
     1
102
RTVSPropertyOp12
 70
     1
102
RTVSPropertyOp13
 70
     1
102
RTVSPropertyOp14
 70
     1
102
RTVSPropertyOp15
 70
     1
102
RTVSPropertyOp16
 70
     1
102
RTVSPropertyOp17
 70
     1
102
RTVSPropertyOp18
 70
     1
102
RTVSPropertyOp19
 70
     1
102
RTVSPropertyOp20
 70
     1
102
RTVSPropertyOp21
 70
     1
102
RTVSPropertyOp22
 70
     1
102
RTVSPropertyOp23
 70
     1
102
RTVSPropertyOp24
 70
     1
102
RTVSPropertyOp25
 70
     1
102
RTVSPropertyOp26
 70
     1
102
RTVSPropertyOp27
 70
     1
102
RTVSPropertyOp28
 70
     1
102
RTVSPropertyOp29
 70
     1
102
RTVSPropertyOp30
 70
     1
102
RTVSPropertyOp31
 70
     1
102
RTVSPropertyOp32
 70
     1
  0
XRECORD
  5
698
102
{ACAD_REACTORS
330
697
102
}
330
697
100
AcDbXrecord
280
     1
102
RTVSPropertyOp0
 70
     1
102
RTVSPropertyOp1
 70
     1
102
RTVSPropertyOp2
 70
     1
102
RTVSPropertyOp3
 70
     1
102
RTVSPropertyOp4
 70
     1
102
RTVSPropertyOp5
 70
     1
102
RTVSPropertyOp6
 70
     1
102
RTVSPropertyOp7
 70
     1
102
RTVSPropertyOp8
 70
     1
102
RTVSPropertyOp9
 70
     1
102
RTVSPropertyOp10
 70
     1
102
RTVSPropertyOp11
 70
     1
102
RTVSPropertyOp12
 70
     1
102
RTVSPropertyOp13
 70
     1
102
RTVSPropertyOp14
 70
     1
102
RTVSPropertyOp15
 70
     1
102
RTVSPropertyOp16
 70
     1
102
RTVSPropertyOp17
 70
     1
102
RTVSPropertyOp18
 70
     1
102
RTVSPropertyOp19
 70
     1
102
RTVSPropertyOp20
 70
     1
102
RTVSPropertyOp21
 70
     1
102
RTVSPropertyOp22
 70
     1
102
RTVSPropertyOp23
 70
     1
102
RTVSPropertyOp24
 70
     1
102
RTVSPropertyOp25
 70
     1
102
RTVSPropertyOp26
 70
     1
102
RTVSPropertyOp27
 70
     1
102
RTVSPropertyOp28
 70
     1
102
RTVSPropertyOp29
 70
     1
102
RTVSPropertyOp30
 70
     1
102
RTVSPropertyOp31
 70
     1
102
RTVSPropertyOp32
 70
     1
  0
XRECORD
  5
696
102
{ACAD_REACTORS
330
695
102
}
330
695
100
AcDbXrecord
280
     1
102
RTVSPropertyOp0
 70
     1
102
RTVSPropertyOp1
 70
     1
102
RTVSPropertyOp2
 70
     1
102
RTVSPropertyOp3
 70
     1
102
RTVSPropertyOp4
 70
     1
102
RTVSPropertyOp5
 70
     1
102
RTVSPropertyOp6
 70
     1
102
RTVSPropertyOp7
 70
     1
102
RTVSPropertyOp8
 70
     1
102
RTVSPropertyOp9
 70
     1
102
RTVSPropertyOp10
 70
     1
102
RTVSPropertyOp11
 70
     1
102
RTVSPropertyOp12
 70
     1
102
RTVSPropertyOp13
 70
     1
102
RTVSPropertyOp14
 70
     1
102
RTVSPropertyOp15
 70
     1
102
RTVSPropertyOp16
 70
     1
102
RTVSPropertyOp17
 70
     1
102
RTVSPropertyOp18
 70
     1
102
RTVSPropertyOp19
 70
     1
102
RTVSPropertyOp20
 70
     1
102
RTVSPropertyOp21
 70
     1
102
RTVSPropertyOp22
 70
     1
102
RTVSPropertyOp23
 70
     1
102
RTVSPropertyOp24
 70
     1
102
RTVSPropertyOp25
 70
     1
102
RTVSPropertyOp26
 70
     1
102
RTVSPropertyOp27
 70
     1
102
RTVSPropertyOp28
 70
     1
102
RTVSPropertyOp29
 70
     1
102
RTVSPropertyOp30
 70
     1
102
RTVSPropertyOp31
 70
     1
102
RTVSPropertyOp32
 70
     1
  0
XRECORD
  5
69A
102
{ACAD_REACTORS
330
699
102
}
330
699
100
AcDbXrecord
280
     1
102
RTVSPropertyOp0
 70
     1
102
RTVSPropertyOp1
 70
     1
102
RTVSPropertyOp2
 70
     1
102
RTVSPropertyOp3
 70
     1
102
RTVSPropertyOp4
 70
     1
102
RTVSPropertyOp5
 70
     1
102
RTVSPropertyOp6
 70
     1
102
RTVSPropertyOp7
 70
     1
102
RTVSPropertyOp8
 70
     1
102
RTVSPropertyOp9
 70
     1
102
RTVSPropertyOp10
 70
     1
102
RTVSPropertyOp11
 70
     1
102
RTVSPropertyOp12
 70
     1
102
RTVSPropertyOp13
 70
     1
102
RTVSPropertyOp14
 70
     1
102
RTVSPropertyOp15
 70
     1
102
RTVSPropertyOp16
 70
     1
102
RTVSPropertyOp17
 70
     1
102
RTVSPropertyOp18
 70
     1
102
RTVSPropertyOp19
 70
     1
102
RTVSPropertyOp20
 70
     1
102
RTVSPropertyOp21
 70
     1
102
RTVSPropertyOp22
 70
     1
102
RTVSPropertyOp23
 70
     1
102
RTVSPropertyOp24
 70
     1
102
RTVSPropertyOp25
 70
     1
102
RTVSPropertyOp26
 70
     1
102
RTVSPropertyOp27
 70
     1
102
RTVSPropertyOp28
 70
     1
102
RTVSPropertyOp29
 70
     1
102
RTVSPropertyOp30
 70
     1
102
RTVSPropertyOp31
 70
     1
102
RTVSPropertyOp32
 70
     1
  0
XRECORD
  5
6A2
102
{ACAD_REACTORS
330
6A1
102
}
330
6A1
100
AcDbXrecord
280
     1
102
RTVSPropertyOp0
 70
     1
102
RTVSPropertyOp1
 70
     1
102
RTVSPropertyOp2
 70
     1
102
RTVSPropertyOp3
 70
     1
102
RTVSPropertyOp4
 70
     1
102
RTVSPropertyOp5
 70
     1
102
RTVSPropertyOp6
 70
     1
102
RTVSPropertyOp7
 70
     1
102
RTVSPropertyOp8
 70
     1
102
RTVSPropertyOp9
 70
     1
102
RTVSPropertyOp10
 70
     1
102
RTVSPropertyOp11
 70
     1
102
RTVSPropertyOp12
 70
     1
102
RTVSPropertyOp13
 70
     1
102
RTVSPropertyOp14
 70
     1
102
RTVSPropertyOp15
 70
     1
102
RTVSPropertyOp16
 70
     1
102
RTVSPropertyOp17
 70
     1
102
RTVSPropertyOp18
 70
     1
102
RTVSPropertyOp19
 70
     1
102
RTVSPropertyOp20
 70
     1
102
RTVSPropertyOp21
 70
     1
102
RTVSPropertyOp22
 70
     1
102
RTVSPropertyOp23
 70
     1
102
RTVSPropertyOp24
 70
     1
102
RTVSPropertyOp25
 70
     1
102
RTVSPropertyOp26
 70
     1
102
RTVSPropertyOp27
 70
     1
102
RTVSPropertyOp28
 70
     1
102
RTVSPropertyOp29
 70
     1
102
RTVSPropertyOp30
 70
     1
102
RTVSPropertyOp31
 70
     1
102
RTVSPropertyOp32
 70
     1
  0
XRECORD
  5
6AA
102
{ACAD_REACTORS
330
6A9
102
}
330
6A9
100
AcDbXrecord
280
     1
102
RTVSPropertyOp0
 70
     1
102
RTVSPropertyOp1
 70
     1
102
RTVSPropertyOp2
 70
     1
102
RTVSPropertyOp3
 70
     1
102
RTVSPropertyOp4
 70
     1
102
RTVSPropertyOp5
 70
     1
102
RTVSPropertyOp6
 70
     1
102
RTVSPropertyOp7
 70
     1
102
RTVSPropertyOp8
 70
     1
102
RTVSPropertyOp9
 70
     1
102
RTVSPropertyOp10
 70
     1
102
RTVSPropertyOp11
 70
     1
102
RTVSPropertyOp12
 70
     1
102
RTVSPropertyOp13
 70
     1
102
RTVSPropertyOp14
 70
     1
102
RTVSPropertyOp15
 70
     1
102
RTVSPropertyOp16
 70
     1
102
RTVSPropertyOp17
 70
     1
102
RTVSPropertyOp18
 70
     1
102
RTVSPropertyOp19
 70
     1
102
RTVSPropertyOp20
 70
     1
102
RTVSPropertyOp21
 70
     1
102
RTVSPropertyOp22
 70
     1
102
RTVSPropertyOp23
 70
     1
102
RTVSPropertyOp24
 70
     1
102
RTVSPropertyOp25
 70
     1
102
RTVSPropertyOp26
 70
     1
102
RTVSPropertyOp27
 70
     1
102
RTVSPropertyOp28
 70
     1
102
RTVSPropertyOp29
 70
     1
102
RTVSPropertyOp30
 70
     1
102
RTVSPropertyOp31
 70
     1
102
RTVSPropertyOp32
 70
     1
  0
XRECORD
  5
69E
102
{ACAD_REACTORS
330
69D
102
}
330
69D
100
AcDbXrecord
280
     1
102
RTVSPropertyOp0
 70
     1
102
RTVSPropertyOp1
 70
     1
102
RTVSPropertyOp2
 70
     1
102
RTVSPropertyOp3
 70
     1
102
RTVSPropertyOp4
 70
     1
102
RTVSPropertyOp5
 70
     1
102
RTVSPropertyOp6
 70
     1
102
RTVSPropertyOp7
 70
     1
102
RTVSPropertyOp8
 70
     1
102
RTVSPropertyOp9
 70
     1
102
RTVSPropertyOp10
 70
     1
102
RTVSPropertyOp11
 70
     1
102
RTVSPropertyOp12
 70
     1
102
RTVSPropertyOp13
 70
     1
102
RTVSPropertyOp14
 70
     1
102
RTVSPropertyOp15
 70
     1
102
RTVSPropertyOp16
 70
     1
102
RTVSPropertyOp17
 70
     1
102
RTVSPropertyOp18
 70
     1
102
RTVSPropertyOp19
 70
     1
102
RTVSPropertyOp20
 70
     1
102
RTVSPropertyOp21
 70
     1
102
RTVSPropertyOp22
 70
     1
102
RTVSPropertyOp23
 70
     1
102
RTVSPropertyOp24
 70
     1
102
RTVSPropertyOp25
 70
     1
102
RTVSPropertyOp26
 70
     1
102
RTVSPropertyOp27
 70
     1
102
RTVSPropertyOp28
 70
     1
102
RTVSPropertyOp29
 70
     1
102
RTVSPropertyOp30
 70
     1
102
RTVSPropertyOp31
 70
     1
102
RTVSPropertyOp32
 70
     1
  0
XRECORD
  5
6A0
102
{ACAD_REACTORS
330
69F
102
}
330
69F
100
AcDbXrecord
280
     1
102
RTVSPropertyOp0
 70
     1
102
RTVSPropertyOp1
 70
     1
102
RTVSPropertyOp2
 70
     1
102
RTVSPropertyOp3
 70
     1
102
RTVSPropertyOp4
 70
     1
102
RTVSPropertyOp5
 70
     1
102
RTVSPropertyOp6
 70
     1
102
RTVSPropertyOp7
 70
     1
102
RTVSPropertyOp8
 70
     1
102
RTVSPropertyOp9
 70
     1
102
RTVSPropertyOp10
 70
     1
102
RTVSPropertyOp11
 70
     1
102
RTVSPropertyOp12
 70
     1
102
RTVSPropertyOp13
 70
     1
102
RTVSPropertyOp14
 70
     1
102
RTVSPropertyOp15
 70
     1
102
RTVSPropertyOp16
 70
     1
102
RTVSPropertyOp17
 70
     1
102
RTVSPropertyOp18
 70
     1
102
RTVSPropertyOp19
 70
     1
102
RTVSPropertyOp20
 70
     1
102
RTVSPropertyOp21
 70
     1
102
RTVSPropertyOp22
 70
     1
102
RTVSPropertyOp23
 70
     1
102
RTVSPropertyOp24
 70
     1
102
RTVSPropertyOp25
 70
     1
102
RTVSPropertyOp26
 70
     1
102
RTVSPropertyOp27
 70
     1
102
RTVSPropertyOp28
 70
     1
102
RTVSPropertyOp29
 70
     1
102
RTVSPropertyOp30
 70
     1
102
RTVSPropertyOp31
 70
     1
102
RTVSPropertyOp32
 70
     1
  0
XRECORD
  5
6C4
102
{ACAD_REACTORS
330
6C3
102
}
330
6C3
100
AcDbXrecord
280
     1
102
RTVSPropertyOp0
 70
     0
102
RTVSPropertyOp1
 70
     0
102
RTVSPropertyOp2
 70
     0
102
RTVSPropertyOp3
 70
     0
102
RTVSPropertyOp4
 70
     0
102
RTVSPropertyOp5
 70
     0
102
RTVSPropertyOp6
 70
     0
102
RTVSPropertyOp7
 70
     0
102
RTVSPropertyOp8
 70
     0
102
RTVSPropertyOp9
 70
     0
102
RTVSPropertyOp10
 70
     0
102
RTVSPropertyOp11
 70
     0
102
RTVSPropertyOp12
 70
     0
102
RTVSPropertyOp13
 70
     0
102
RTVSPropertyOp14
 70
     2
102
RTVSPropertyOp15
 70
     0
102
RTVSPropertyOp16
 70
     0
102
RTVSPropertyOp17
 70
     0
102
RTVSPropertyOp18
 70
     0
102
RTVSPropertyOp19
 70
     0
102
RTVSPropertyOp20
 70
     0
102
RTVSPropertyOp21
 70
     0
102
RTVSPropertyOp22
 70
     0
102
RTVSPropertyOp23
 70
     0
102
RTVSPropertyOp24
 70
     0
102
RTVSPropertyOp25
 70
     0
102
RTVSPropertyOp26
 70
     0
102
RTVSPropertyOp27
 70
     0
102
RTVSPropertyOp28
 70
     0
102
RTVSPropertyOp29
 70
     0
102
RTVSPropertyOp30
 70
     0
102
RTVSPropertyOp31
 70
     0
102
RTVSPropertyOp32
 70
     0
  0
XRECORD
  5
6A8
102
{ACAD_REACTORS
330
6A7
102
}
330
6A7
100
AcDbXrecord
280
     1
102
RTVSPropertyOp0
 70
     1
102
RTVSPropertyOp1
 70
     1
102
RTVSPropertyOp2
 70
     1
102
RTVSPropertyOp3
 70
     1
102
RTVSPropertyOp4
 70
     1
102
RTVSPropertyOp5
 70
     1
102
RTVSPropertyOp6
 70
     1
102
RTVSPropertyOp7
 70
     1
102
RTVSPropertyOp8
 70
     1
102
RTVSPropertyOp9
 70
     1
102
RTVSPropertyOp10
 70
     1
102
RTVSPropertyOp11
 70
     1
102
RTVSPropertyOp12
 70
     1
102
RTVSPropertyOp13
 70
     1
102
RTVSPropertyOp14
 70
     1
102
RTVSPropertyOp15
 70
     1
102
RTVSPropertyOp16
 70
     1
102
RTVSPropertyOp17
 70
     1
102
RTVSPropertyOp18
 70
     1
102
RTVSPropertyOp19
 70
     1
102
RTVSPropertyOp20
 70
     1
102
RTVSPropertyOp21
 70
     1
102
RTVSPropertyOp22
 70
     1
102
RTVSPropertyOp23
 70
     1
102
RTVSPropertyOp24
 70
     1
102
RTVSPropertyOp25
 70
     1
102
RTVSPropertyOp26
 70
     1
102
RTVSPropertyOp27
 70
     1
102
RTVSPropertyOp28
 70
     1
102
RTVSPropertyOp29
 70
     1
102
RTVSPropertyOp30
 70
     1
102
RTVSPropertyOp31
 70
     1
102
RTVSPropertyOp32
 70
     1
  0
XRECORD
  5
68C
102
{ACAD_REACTORS
330
68B
102
}
330
68B
100
AcDbXrecord
280
     1
102
RTVSPropertyOp0
 70
     1
102
RTVSPropertyOp1
 70
     1
102
RTVSPropertyOp2
 70
     1
102
RTVSPropertyOp3
 70
     1
102
RTVSPropertyOp4
 70
     1
102
RTVSPropertyOp5
 70
     1
102
RTVSPropertyOp6
 70
     1
102
RTVSPropertyOp7
 70
     1
102
RTVSPropertyOp8
 70
     1
102
RTVSPropertyOp9
 70
     1
102
RTVSPropertyOp10
 70
     1
102
RTVSPropertyOp11
 70
     1
102
RTVSPropertyOp12
 70
     1
102
RTVSPropertyOp13
 70
     1
102
RTVSPropertyOp14
 70
     1
102
RTVSPropertyOp15
 70
     1
102
RTVSPropertyOp16
 70
     1
102
RTVSPropertyOp17
 70
     1
102
RTVSPropertyOp18
 70
     1
102
RTVSPropertyOp19
 70
     1
102
RTVSPropertyOp20
 70
     1
102
RTVSPropertyOp21
 70
     1
102
RTVSPropertyOp22
 70
     1
102
RTVSPropertyOp23
 70
     1
102
RTVSPropertyOp24
 70
     1
102
RTVSPropertyOp25
 70
     1
102
RTVSPropertyOp26
 70
     1
102
RTVSPropertyOp27
 70
     1
102
RTVSPropertyOp28
 70
     1
102
RTVSPropertyOp29
 70
     1
102
RTVSPropertyOp30
 70
     1
102
RTVSPropertyOp31
 70
     1
102
RTVSPropertyOp32
 70
     1
  0
XRECORD
  5
68E
102
{ACAD_REACTORS
330
68D
102
}
330
68D
100
AcDbXrecord
280
     1
102
RTVSPropertyOp0
 70
     1
102
RTVSPropertyOp1
 70
     1
102
RTVSPropertyOp2
 70
     1
102
RTVSPropertyOp3
 70
     1
102
RTVSPropertyOp4
 70
     1
102
RTVSPropertyOp5
 70
     1
102
RTVSPropertyOp6
 70
     1
102
RTVSPropertyOp7
 70
     1
102
RTVSPropertyOp8
 70
     1
102
RTVSPropertyOp9
 70
     1
102
RTVSPropertyOp10
 70
     1
102
RTVSPropertyOp11
 70
     1
102
RTVSPropertyOp12
 70
     1
102
RTVSPropertyOp13
 70
     1
102
RTVSPropertyOp14
 70
     1
102
RTVSPropertyOp15
 70
     1
102
RTVSPropertyOp16
 70
     1
102
RTVSPropertyOp17
 70
     1
102
RTVSPropertyOp18
 70
     1
102
RTVSPropertyOp19
 70
     1
102
RTVSPropertyOp20
 70
     1
102
RTVSPropertyOp21
 70
     1
102
RTVSPropertyOp22
 70
     1
102
RTVSPropertyOp23
 70
     1
102
RTVSPropertyOp24
 70
     1
102
RTVSPropertyOp25
 70
     1
102
RTVSPropertyOp26
 70
     1
102
RTVSPropertyOp27
 70
     1
102
RTVSPropertyOp28
 70
     1
102
RTVSPropertyOp29
 70
     1
102
RTVSPropertyOp30
 70
     1
102
RTVSPropertyOp31
 70
     1
102
RTVSPropertyOp32
 70
     1
  0
XRECORD
  5
690
102
{ACAD_REACTORS
330
68F
102
}
330
68F
100
AcDbXrecord
280
     1
102
RTVSPropertyOp0
 70
     1
102
RTVSPropertyOp1
 70
     1
102
RTVSPropertyOp2
 70
     1
102
RTVSPropertyOp3
 70
     1
102
RTVSPropertyOp4
 70
     1
102
RTVSPropertyOp5
 70
     1
102
RTVSPropertyOp6
 70
     1
102
RTVSPropertyOp7
 70
     1
102
RTVSPropertyOp8
 70
     1
102
RTVSPropertyOp9
 70
     1
102
RTVSPropertyOp10
 70
     1
102
RTVSPropertyOp11
 70
     1
102
RTVSPropertyOp12
 70
     1
102
RTVSPropertyOp13
 70
     1
102
RTVSPropertyOp14
 70
     1
102
RTVSPropertyOp15
 70
     1
102
RTVSPropertyOp16
 70
     1
102
RTVSPropertyOp17
 70
     1
102
RTVSPropertyOp18
 70
     1
102
RTVSPropertyOp19
 70
     1
102
RTVSPropertyOp20
 70
     1
102
RTVSPropertyOp21
 70
     1
102
RTVSPropertyOp22
 70
     1
102
RTVSPropertyOp23
 70
     1
102
RTVSPropertyOp24
 70
     1
102
RTVSPropertyOp25
 70
     1
102
RTVSPropertyOp26
 70
     1
102
RTVSPropertyOp27
 70
     1
102
RTVSPropertyOp28
 70
     1
102
RTVSPropertyOp29
 70
     1
102
RTVSPropertyOp30
 70
     1
102
RTVSPropertyOp31
 70
     1
102
RTVSPropertyOp32
 70
     1
  0
XRECORD
  5
692
102
{ACAD_REACTORS
330
691
102
}
330
691
100
AcDbXrecord
280
     1
102
RTVSPropertyOp0
 70
     1
102
RTVSPropertyOp1
 70
     1
102
RTVSPropertyOp2
 70
     1
102
RTVSPropertyOp3
 70
     1
102
RTVSPropertyOp4
 70
     1
102
RTVSPropertyOp5
 70
     1
102
RTVSPropertyOp6
 70
     1
102
RTVSPropertyOp7
 70
     1
102
RTVSPropertyOp8
 70
     1
102
RTVSPropertyOp9
 70
     1
102
RTVSPropertyOp10
 70
     1
102
RTVSPropertyOp11
 70
     1
102
RTVSPropertyOp12
 70
     1
102
RTVSPropertyOp13
 70
     1
102
RTVSPropertyOp14
 70
     1
102
RTVSPropertyOp15
 70
     1
102
RTVSPropertyOp16
 70
     1
102
RTVSPropertyOp17
 70
     1
102
RTVSPropertyOp18
 70
     1
102
RTVSPropertyOp19
 70
     1
102
RTVSPropertyOp20
 70
     1
102
RTVSPropertyOp21
 70
     1
102
RTVSPropertyOp22
 70
     1
102
RTVSPropertyOp23
 70
     1
102
RTVSPropertyOp24
 70
     1
102
RTVSPropertyOp25
 70
     1
102
RTVSPropertyOp26
 70
     1
102
RTVSPropertyOp27
 70
     1
102
RTVSPropertyOp28
 70
     1
102
RTVSPropertyOp29
 70
     1
102
RTVSPropertyOp30
 70
     1
102
RTVSPropertyOp31
 70
     1
102
RTVSPropertyOp32
 70
     1
  0
XRECORD
  5
6B4
102
{ACAD_REACTORS
330
6B3
102
}
330
6B3
100
AcDbXrecord
280
     1
102
RTVSPropertyOp0
 70
     1
102
RTVSPropertyOp1
 70
     1
102
RTVSPropertyOp2
 70
     1
102
RTVSPropertyOp3
 70
     1
102
RTVSPropertyOp4
 70
     1
102
RTVSPropertyOp5
 70
     1
102
RTVSPropertyOp6
 70
     1
102
RTVSPropertyOp7
 70
     1
102
RTVSPropertyOp8
 70
     1
102
RTVSPropertyOp9
 70
     1
102
RTVSPropertyOp10
 70
     1
102
RTVSPropertyOp11
 70
     1
102
RTVSPropertyOp12
 70
     1
102
RTVSPropertyOp13
 70
     1
102
RTVSPropertyOp14
 70
     1
102
RTVSPropertyOp15
 70
     1
102
RTVSPropertyOp16
 70
     1
102
RTVSPropertyOp17
 70
     1
102
RTVSPropertyOp18
 70
     1
102
RTVSPropertyOp19
 70
     1
102
RTVSPropertyOp20
 70
     1
102
RTVSPropertyOp21
 70
     1
102
RTVSPropertyOp22
 70
     1
102
RTVSPropertyOp23
 70
     1
102
RTVSPropertyOp24
 70
     1
102
RTVSPropertyOp25
 70
     1
102
RTVSPropertyOp26
 70
     1
102
RTVSPropertyOp27
 70
     1
102
RTVSPropertyOp28
 70
     1
102
RTVSPropertyOp29
 70
     1
102
RTVSPropertyOp30
 70
     1
102
RTVSPropertyOp31
 70
     1
102
RTVSPropertyOp32
 70
     1
  0
XRECORD
  5
6C0
102
{ACAD_REACTORS
330
6BF
102
}
330
6BF
100
AcDbXrecord
280
     1
102
RTVSPropertyOp0
 70
     0
102
RTVSPropertyOp1
 70
     0
102
RTVSPropertyOp2
 70
     0
102
RTVSPropertyOp3
 70
     0
102
RTVSPropertyOp4
 70
     0
102
RTVSPropertyOp5
 70
     0
102
RTVSPropertyOp6
 70
     0
102
RTVSPropertyOp7
 70
     0
102
RTVSPropertyOp8
 70
     0
102
RTVSPropertyOp9
 70
     0
102
RTVSPropertyOp10
 70
     0
102
RTVSPropertyOp11
 70
     0
102
RTVSPropertyOp12
 70
     0
102
RTVSPropertyOp13
 70
     0
102
RTVSPropertyOp14
 70
     2
102
RTVSPropertyOp15
 70
     0
102
RTVSPropertyOp16
 70
     0
102
RTVSPropertyOp17
 70
     0
102
RTVSPropertyOp18
 70
     0
102
RTVSPropertyOp19
 70
     0
102
RTVSPropertyOp20
 70
     0
102
RTVSPropertyOp21
 70
     0
102
RTVSPropertyOp22
 70
     0
102
RTVSPropertyOp23
 70
     0
102
RTVSPropertyOp24
 70
     0
102
RTVSPropertyOp25
 70
     0
102
RTVSPropertyOp26
 70
     0
102
RTVSPropertyOp27
 70
     0
102
RTVSPropertyOp28
 70
     0
102
RTVSPropertyOp29
 70
     0
102
RTVSPropertyOp30
 70
     0
102
RTVSPropertyOp31
 70
     0
102
RTVSPropertyOp32
 70
     0
  0
XRECORD
  5
6A6
102
{ACAD_REACTORS
330
6A5
102
}
330
6A5
100
AcDbXrecord
280
     1
102
RTVSPropertyOp0
 70
     1
102
RTVSPropertyOp1
 70
     1
102
RTVSPropertyOp2
 70
     1
102
RTVSPropertyOp3
 70
     1
102
RTVSPropertyOp4
 70
     1
102
RTVSPropertyOp5
 70
     1
102
RTVSPropertyOp6
 70
     1
102
RTVSPropertyOp7
 70
     1
102
RTVSPropertyOp8
 70
     1
102
RTVSPropertyOp9
 70
     1
102
RTVSPropertyOp10
 70
     1
102
RTVSPropertyOp11
 70
     1
102
RTVSPropertyOp12
 70
     1
102
RTVSPropertyOp13
 70
     1
102
RTVSPropertyOp14
 70
     1
102
RTVSPropertyOp15
 70
     1
102
RTVSPropertyOp16
 70
     1
102
RTVSPropertyOp17
 70
     1
102
RTVSPropertyOp18
 70
     1
102
RTVSPropertyOp19
 70
     1
102
RTVSPropertyOp20
 70
     1
102
RTVSPropertyOp21
 70
     1
102
RTVSPropertyOp22
 70
     1
102
RTVSPropertyOp23
 70
     1
102
RTVSPropertyOp24
 70
     1
102
RTVSPropertyOp25
 70
     1
102
RTVSPropertyOp26
 70
     1
102
RTVSPropertyOp27
 70
     1
102
RTVSPropertyOp28
 70
     1
102
RTVSPropertyOp29
 70
     1
102
RTVSPropertyOp30
 70
     1
102
RTVSPropertyOp31
 70
     1
102
RTVSPropertyOp32
 70
     1
  0
XRECORD
  5
6C2
102
{ACAD_REACTORS
330
6C1
102
}
330
6C1
100
AcDbXrecord
280
     1
102
RTVSPropertyOp0
 70
     0
102
RTVSPropertyOp1
 70
     0
102
RTVSPropertyOp2
 70
     0
102
RTVSPropertyOp3
 70
     0
102
RTVSPropertyOp4
 70
     0
102
RTVSPropertyOp5
 70
     0
102
RTVSPropertyOp6
 70
     0
102
RTVSPropertyOp7
 70
     0
102
RTVSPropertyOp8
 70
     0
102
RTVSPropertyOp9
 70
     0
102
RTVSPropertyOp10
 70
     0
102
RTVSPropertyOp11
 70
     0
102
RTVSPropertyOp12
 70
     0
102
RTVSPropertyOp13
 70
     0
102
RTVSPropertyOp14
 70
     2
102
RTVSPropertyOp15
 70
     0
102
RTVSPropertyOp16
 70
     0
102
RTVSPropertyOp17
 70
     0
102
RTVSPropertyOp18
 70
     0
102
RTVSPropertyOp19
 70
     0
102
RTVSPropertyOp20
 70
     0
102
RTVSPropertyOp21
 70
     0
102
RTVSPropertyOp22
 70
     0
102
RTVSPropertyOp23
 70
     0
102
RTVSPropertyOp24
 70
     0
102
RTVSPropertyOp25
 70
     0
102
RTVSPropertyOp26
 70
     0
102
RTVSPropertyOp27
 70
     0
102
RTVSPropertyOp28
 70
     0
102
RTVSPropertyOp29
 70
     0
102
RTVSPropertyOp30
 70
     0
102
RTVSPropertyOp31
 70
     0
102
RTVSPropertyOp32
 70
     0
  0
XRECORD
  5
69C
102
{ACAD_REACTORS
330
69B
102
}
330
69B
100
AcDbXrecord
280
     1
102
RTVSPropertyOp0
 70
     1
102
RTVSPropertyOp1
 70
     1
102
RTVSPropertyOp2
 70
     1
102
RTVSPropertyOp3
 70
     1
102
RTVSPropertyOp4
 70
     1
102
RTVSPropertyOp5
 70
     1
102
RTVSPropertyOp6
 70
     1
102
RTVSPropertyOp7
 70
     1
102
RTVSPropertyOp8
 70
     1
102
RTVSPropertyOp9
 70
     1
102
RTVSPropertyOp10
 70
     1
102
RTVSPropertyOp11
 70
     1
102
RTVSPropertyOp12
 70
     1
102
RTVSPropertyOp13
 70
     1
102
RTVSPropertyOp14
 70
     1
102
RTVSPropertyOp15
 70
     1
102
RTVSPropertyOp16
 70
     1
102
RTVSPropertyOp17
 70
     1
102
RTVSPropertyOp18
 70
     1
102
RTVSPropertyOp19
 70
     1
102
RTVSPropertyOp20
 70
     1
102
RTVSPropertyOp21
 70
     1
102
RTVSPropertyOp22
 70
     1
102
RTVSPropertyOp23
 70
     1
102
RTVSPropertyOp24
 70
     1
102
RTVSPropertyOp25
 70
     1
102
RTVSPropertyOp26
 70
     1
102
RTVSPropertyOp27
 70
     1
102
RTVSPropertyOp28
 70
     1
102
RTVSPropertyOp29
 70
     1
102
RTVSPropertyOp30
 70
     1
102
RTVSPropertyOp31
 70
     1
102
RTVSPropertyOp32
 70
     1
  0
XRECORD
  5
6BE
102
{ACAD_REACTORS
330
6BD
102
}
330
6BD
100
AcDbXrecord
280
     1
102
RTVSPropertyOp0
 70
     1
102
RTVSPropertyOp1
 70
     1
102
RTVSPropertyOp2
 70
     1
102
RTVSPropertyOp3
 70
     1
102
RTVSPropertyOp4
 70
     1
102
RTVSPropertyOp5
 70
     1
102
RTVSPropertyOp6
 70
     1
102
RTVSPropertyOp7
 70
     1
102
RTVSPropertyOp8
 70
     1
102
RTVSPropertyOp9
 70
     1
102
RTVSPropertyOp10
 70
     1
102
RTVSPropertyOp11
 70
     1
102
RTVSPropertyOp12
 70
     1
102
RTVSPropertyOp13
 70
     1
102
RTVSPropertyOp14
 70
     1
102
RTVSPropertyOp15
 70
     1
102
RTVSPropertyOp16
 70
     1
102
RTVSPropertyOp17
 70
     1
102
RTVSPropertyOp18
 70
     1
102
RTVSPropertyOp19
 70
     1
102
RTVSPropertyOp20
 70
     1
102
RTVSPropertyOp21
 70
     1
102
RTVSPropertyOp22
 70
     1
102
RTVSPropertyOp23
 70
     1
102
RTVSPropertyOp24
 70
     1
102
RTVSPropertyOp25
 70
     1
102
RTVSPropertyOp26
 70
     1
102
RTVSPropertyOp27
 70
     1
102
RTVSPropertyOp28
 70
     1
102
RTVSPropertyOp29
 70
     1
102
RTVSPropertyOp30
 70
     1
102
RTVSPropertyOp31
 70
     1
102
RTVSPropertyOp32
 70
     1
  0
XRECORD
  5
6BC
102
{ACAD_REACTORS
330
6BB
102
}
330
6BB
100
AcDbXrecord
280
     1
102
RTVSPropertyOp0
 70
     1
102
RTVSPropertyOp1
 70
     1
102
RTVSPropertyOp2
 70
     1
102
RTVSPropertyOp3
 70
     1
102
RTVSPropertyOp4
 70
     1
102
RTVSPropertyOp5
 70
     1
102
RTVSPropertyOp6
 70
     1
102
RTVSPropertyOp7
 70
     1
102
RTVSPropertyOp8
 70
     1
102
RTVSPropertyOp9
 70
     1
102
RTVSPropertyOp10
 70
     1
102
RTVSPropertyOp11
 70
     1
102
RTVSPropertyOp12
 70
     1
102
RTVSPropertyOp13
 70
     1
102
RTVSPropertyOp14
 70
     1
102
RTVSPropertyOp15
 70
     1
102
RTVSPropertyOp16
 70
     1
102
RTVSPropertyOp17
 70
     1
102
RTVSPropertyOp18
 70
     1
102
RTVSPropertyOp19
 70
     1
102
RTVSPropertyOp20
 70
     1
102
RTVSPropertyOp21
 70
     1
102
RTVSPropertyOp22
 70
     1
102
RTVSPropertyOp23
 70
     1
102
RTVSPropertyOp24
 70
     1
102
RTVSPropertyOp25
 70
     1
102
RTVSPropertyOp26
 70
     1
102
RTVSPropertyOp27
 70
     1
102
RTVSPropertyOp28
 70
     1
102
RTVSPropertyOp29
 70
     1
102
RTVSPropertyOp30
 70
     1
102
RTVSPropertyOp31
 70
     1
102
RTVSPropertyOp32
 70
     1
  0
XRECORD
  5
6B6
102
{ACAD_REACTORS
330
6B5
102
}
330
6B5
100
AcDbXrecord
280
     1
102
RTVSPropertyOp0
 70
     1
102
RTVSPropertyOp1
 70
     1
102
RTVSPropertyOp2
 70
     1
102
RTVSPropertyOp3
 70
     1
102
RTVSPropertyOp4
 70
     1
102
RTVSPropertyOp5
 70
     1
102
RTVSPropertyOp6
 70
     1
102
RTVSPropertyOp7
 70
     1
102
RTVSPropertyOp8
 70
     1
102
RTVSPropertyOp9
 70
     1
102
RTVSPropertyOp10
 70
     1
102
RTVSPropertyOp11
 70
     1
102
RTVSPropertyOp12
 70
     1
102
RTVSPropertyOp13
 70
     1
102
RTVSPropertyOp14
 70
     1
102
RTVSPropertyOp15
 70
     1
102
RTVSPropertyOp16
 70
     1
102
RTVSPropertyOp17
 70
     1
102
RTVSPropertyOp18
 70
     1
102
RTVSPropertyOp19
 70
     1
102
RTVSPropertyOp20
 70
     1
102
RTVSPropertyOp21
 70
     1
102
RTVSPropertyOp22
 70
     1
102
RTVSPropertyOp23
 70
     1
102
RTVSPropertyOp24
 70
     1
102
RTVSPropertyOp25
 70
     1
102
RTVSPropertyOp26
 70
     1
102
RTVSPropertyOp27
 70
     1
102
RTVSPropertyOp28
 70
     1
102
RTVSPropertyOp29
 70
     1
102
RTVSPropertyOp30
 70
     1
102
RTVSPropertyOp31
 70
     1
102
RTVSPropertyOp32
 70
     1
  0
XRECORD
  5
6B8
102
{ACAD_REACTORS
330
6B7
102
}
330
6B7
100
AcDbXrecord
280
     1
102
RTVSPropertyOp0
 70
     1
102
RTVSPropertyOp1
 70
     1
102
RTVSPropertyOp2
 70
     1
102
RTVSPropertyOp3
 70
     1
102
RTVSPropertyOp4
 70
     1
102
RTVSPropertyOp5
 70
     1
102
RTVSPropertyOp6
 70
     1
102
RTVSPropertyOp7
 70
     1
102
RTVSPropertyOp8
 70
     1
102
RTVSPropertyOp9
 70
     1
102
RTVSPropertyOp10
 70
     1
102
RTVSPropertyOp11
 70
     1
102
RTVSPropertyOp12
 70
     1
102
RTVSPropertyOp13
 70
     1
102
RTVSPropertyOp14
 70
     1
102
RTVSPropertyOp15
 70
     1
102
RTVSPropertyOp16
 70
     1
102
RTVSPropertyOp17
 70
     1
102
RTVSPropertyOp18
 70
     1
102
RTVSPropertyOp19
 70
     1
102
RTVSPropertyOp20
 70
     1
102
RTVSPropertyOp21
 70
     1
102
RTVSPropertyOp22
 70
     1
102
RTVSPropertyOp23
 70
     1
102
RTVSPropertyOp24
 70
     1
102
RTVSPropertyOp25
 70
     1
102
RTVSPropertyOp26
 70
     1
102
RTVSPropertyOp27
 70
     1
102
RTVSPropertyOp28
 70
     1
102
RTVSPropertyOp29
 70
     1
102
RTVSPropertyOp30
 70
     1
102
RTVSPropertyOp31
 70
     1
102
RTVSPropertyOp32
 70
     1
  0
XRECORD
  5
6A4
102
{ACAD_REACTORS
330
6A3
102
}
330
6A3
100
AcDbXrecord
280
     1
102
RTVSPropertyOp0
 70
     1
102
RTVSPropertyOp1
 70
     1
102
RTVSPropertyOp2
 70
     1
102
RTVSPropertyOp3
 70
     1
102
RTVSPropertyOp4
 70
     1
102
RTVSPropertyOp5
 70
     1
102
RTVSPropertyOp6
 70
     1
102
RTVSPropertyOp7
 70
     1
102
RTVSPropertyOp8
 70
     1
102
RTVSPropertyOp9
 70
     1
102
RTVSPropertyOp10
 70
     1
102
RTVSPropertyOp11
 70
     1
102
RTVSPropertyOp12
 70
     1
102
RTVSPropertyOp13
 70
     1
102
RTVSPropertyOp14
 70
     1
102
RTVSPropertyOp15
 70
     1
102
RTVSPropertyOp16
 70
     1
102
RTVSPropertyOp17
 70
     1
102
RTVSPropertyOp18
 70
     1
102
RTVSPropertyOp19
 70
     1
102
RTVSPropertyOp20
 70
     1
102
RTVSPropertyOp21
 70
     1
102
RTVSPropertyOp22
 70
     1
102
RTVSPropertyOp23
 70
     1
102
RTVSPropertyOp24
 70
     1
102
RTVSPropertyOp25
 70
     1
102
RTVSPropertyOp26
 70
     1
102
RTVSPropertyOp27
 70
     1
102
RTVSPropertyOp28
 70
     1
102
RTVSPropertyOp29
 70
     1
102
RTVSPropertyOp30
 70
     1
102
RTVSPropertyOp31
 70
     1
102
RTVSPropertyOp32
 70
     1
  0
XRECORD
  5
6B2
102
{ACAD_REACTORS
330
6B1
102
}
330
6B1
100
AcDbXrecord
280
     1
102
RTVSPropertyOp0
 70
     1
102
RTVSPropertyOp1
 70
     1
102
RTVSPropertyOp2
 70
     1
102
RTVSPropertyOp3
 70
     1
102
RTVSPropertyOp4
 70
     1
102
RTVSPropertyOp5
 70
     1
102
RTVSPropertyOp6
 70
     1
102
RTVSPropertyOp7
 70
     1
102
RTVSPropertyOp8
 70
     1
102
RTVSPropertyOp9
 70
     1
102
RTVSPropertyOp10
 70
     1
102
RTVSPropertyOp11
 70
     1
102
RTVSPropertyOp12
 70
     1
102
RTVSPropertyOp13
 70
     1
102
RTVSPropertyOp14
 70
     1
102
RTVSPropertyOp15
 70
     1
102
RTVSPropertyOp16
 70
     1
102
RTVSPropertyOp17
 70
     1
102
RTVSPropertyOp18
 70
     1
102
RTVSPropertyOp19
 70
     1
102
RTVSPropertyOp20
 70
     1
102
RTVSPropertyOp21
 70
     1
102
RTVSPropertyOp22
 70
     1
102
RTVSPropertyOp23
 70
     1
102
RTVSPropertyOp24
 70
     1
102
RTVSPropertyOp25
 70
     1
102
RTVSPropertyOp26
 70
     1
102
RTVSPropertyOp27
 70
     1
102
RTVSPropertyOp28
 70
     1
102
RTVSPropertyOp29
 70
     1
102
RTVSPropertyOp30
 70
     1
102
RTVSPropertyOp31
 70
     1
102
RTVSPropertyOp32
 70
     1
  0
XRECORD
  5
6BA
102
{ACAD_REACTORS
330
6B9
102
}
330
6B9
100
AcDbXrecord
280
     1
102
RTVSPropertyOp0
 70
     1
102
RTVSPropertyOp1
 70
     1
102
RTVSPropertyOp2
 70
     1
102
RTVSPropertyOp3
 70
     1
102
RTVSPropertyOp4
 70
     1
102
RTVSPropertyOp5
 70
     1
102
RTVSPropertyOp6
 70
     1
102
RTVSPropertyOp7
 70
     1
102
RTVSPropertyOp8
 70
     1
102
RTVSPropertyOp9
 70
     1
102
RTVSPropertyOp10
 70
     1
102
RTVSPropertyOp11
 70
     1
102
RTVSPropertyOp12
 70
     1
102
RTVSPropertyOp13
 70
     1
102
RTVSPropertyOp14
 70
     1
102
RTVSPropertyOp15
 70
     1
102
RTVSPropertyOp16
 70
     1
102
RTVSPropertyOp17
 70
     1
102
RTVSPropertyOp18
 70
     1
102
RTVSPropertyOp19
 70
     1
102
RTVSPropertyOp20
 70
     1
102
RTVSPropertyOp21
 70
     1
102
RTVSPropertyOp22
 70
     1
102
RTVSPropertyOp23
 70
     1
102
RTVSPropertyOp24
 70
     1
102
RTVSPropertyOp25
 70
     1
102
RTVSPropertyOp26
 70
     1
102
RTVSPropertyOp27
 70
     1
102
RTVSPropertyOp28
 70
     1
102
RTVSPropertyOp29
 70
     1
102
RTVSPropertyOp30
 70
     1
102
RTVSPropertyOp31
 70
     1
102
RTVSPropertyOp32
 70
     1
  0
ENDSEC
  0
EOF
