  0
SECTION
  2
HEADER
  9
$ACADVER
  1
AC1015
  9
$ACADMAINTVER
 70
    20
  9
$DWGCODEPAGE
  3
ANSI_1252
  9
$INSBASE
 10
0.0
 20
0.0
 30
0.0
  9
$EXTMIN
 10
-6.512282641269621
 20
-15.00274611055238
 30
-0.0015258207003583
  9
$EXTMAX
 10
48.57247965034616
 20
28.01559475950853
 30
0.0000000349246037
  9
$LIMMIN
 10
0.0
 20
0.0
  9
$LIMMAX
 10
297.0
 20
210.0
  9
$ORTHOMODE
 70
     0
  9
$REGENMODE
 70
     1
  9
$FILLMODE
 70
     1
  9
$QTEXTMODE
 70
     0
  9
$MIRRTEXT
 70
     1
  9
$LTSCALE
 40
25.4
  9
$ATTMODE
 70
     1
  9
$TEXTSIZE
 40
0.2
  9
$TRACEWID
 40
0.05
  9
$TEXTSTYLE
  7
Standard
  9
$CLAYER
  8
0
  9
$CELTYPE
  6
CONTINUOUS
  9
$CECOLOR
 62
   256
  9
$CELTSCALE
 40
1.0
  9
$DISPSILH
 70
     0
  9
$DIMSCALE
 40
1.0
  9
$DIMASZ
 40
0.18
  9
$DIMEXO
 40
0.0625
  9
$DIMDLI
 40
0.38
  9
$DIMRND
 40
0.0
  9
$DIMDLE
 40
0.0
  9
$DIMEXE
 40
0.18
  9
$DIMTP
 40
0.0
  9
$DIMTM
 40
0.0
  9
$DIMTXT
 40
0.18
  9
$DIMCEN
 40
0.09
  9
$DIMTSZ
 40
0.0
  9
$DIMTOL
 70
     0
  9
$DIMLIM
 70
     0
  9
$DIMTIH
 70
     1
  9
$DIMTOH
 70
     1
  9
$DIMSE1
 70
     0
  9
$DIMSE2
 70
     0
  9
$DIMTAD
 70
     0
  9
$DIMZIN
 70
     0
  9
$DIMBLK
  1

  9
$DIMASO
 70
     1
  9
$DIMSHO
 70
     1
  9
$DIMPOST
  1

  9
$DIMAPOST
  1

  9
$DIMALT
 70
     0
  9
$DIMALTD
 70
     2
  9
$DIMALTF
 40
25.4
  9
$DIMLFAC
 40
1.0
  9
$DIMTOFL
 70
     0
  9
$DIMTVP
 40
0.0
  9
$DIMTIX
 70
     0
  9
$DIMSOXD
 70
     0
  9
$DIMSAH
 70
     0
  9
$DIMBLK1
  1

  9
$DIMBLK2
  1

  9
$DIMSTYLE
  2
Standard
  9
$DIMCLRD
 70
     0
  9
$DIMCLRE
 70
     0
  9
$DIMCLRT
 70
     0
  9
$DIMTFAC
 40
1.0
  9
$DIMGAP
 40
0.09
  9
$DIMJUST
 70
     0
  9
$DIMSD1
 70
     0
  9
$DIMSD2
 70
     0
  9
$DIMTOLJ
 70
     1
  9
$DIMTZIN
 70
     0
  9
$DIMALTZ
 70
     0
  9
$DIMALTTZ
 70
     0
  9
$DIMUPT
 70
     0
  9
$DIMDEC
 70
     4
  9
$DIMTDEC
 70
     4
  9
$DIMALTU
 70
     2
  9
$DIMALTTD
 70
     2
  9
$DIMTXSTY
  7
Standard
  9
$DIMAUNIT
 70
     0
  9
$DIMADEC
 70
     0
  9
$DIMALTRND
 40
0.0
  9
$DIMAZIN
 70
     0
  9
$DIMDSEP
 70
    46
  9
$DIMATFIT
 70
     3
  9
$DIMFRAC
 70
     0
  9
$DIMLDRBLK
  1

  9
$DIMLUNIT
 70
     2
  9
$DIMLWD
 70
    -2
  9
$DIMLWE
 70
    -2
  9
$DIMTMOVE
 70
     2
  9
$LUNITS
 70
     2
  9
$LUPREC
 70
     4
  9
$SKETCHINC
 40
0.1
  9
$FILLETRAD
 40
0.0
  9
$AUNITS
 70
     0
  9
$AUPREC
 70
     0
  9
$MENU
  1
acad
  9
$ELEVATION
 40
0.0
  9
$PELEVATION
 40
0.0
  9
$THICKNESS
 40
0.0
  9
$LIMCHECK
 70
     0
  9
$CHAMFERA
 40
0.0
  9
$CHAMFERB
 40
0.0
  9
$CHAMFERC
 40
0.0
  9
$CHAMFERD
 40
0.0
  9
$SKPOLY
 70
     0
  9
$TDCREATE
 40
2444975.083333334
  9
$TDUCREATE
 40
2444975.000000000
  9
$TDUPDATE
 40
2455684.502535834
  9
$TDUUPDATE
 40
2455684.419202500
  9
$TDINDWG
 40
0.0020814468
  9
$TDUSRTIMER
 40
0.0020814468
  9
$USRTIMER
 70
     1
  9
$ANGBASE
 50
0.0
  9
$ANGDIR
 70
     0
  9
$PDMODE
 70
     0
  9
$PDSIZE
 40
0.0
  9
$PLINEWID
 40
0.0
  9
$SPLFRAME
 70
     0
  9
$SPLINETYPE
 70
     6
  9
$SPLINESEGS
 70
     8
  9
$HANDSEED
  5
669
  9
$SURFTAB1
 70
     6
  9
$SURFTAB2
 70
     6
  9
$SURFTYPE
 70
     6
  9
$SURFU
 70
     6
  9
$SURFV
 70
     6
  9
$UCSBASE
  2

  9
$UCSNAME
  2

  9
$UCSORG
 10
0.0
 20
0.0
 30
0.0
  9
$UCSXDIR
 10
1.0
 20
0.0
 30
0.0
  9
$UCSYDIR
 10
0.0
 20
1.0
 30
0.0
  9
$UCSORTHOREF
  2

  9
$UCSORTHOVIEW
 70
     0
  9
$UCSORGTOP
 10
0.0
 20
0.0
 30
0.0
  9
$UCSORGBOTTOM
 10
0.0
 20
0.0
 30
0.0
  9
$UCSORGLEFT
 10
0.0
 20
0.0
 30
0.0
  9
$UCSORGRIGHT
 10
0.0
 20
0.0
 30
0.0
  9
$UCSORGFRONT
 10
0.0
 20
0.0
 30
0.0
  9
$UCSORGBACK
 10
0.0
 20
0.0
 30
0.0
  9
$PUCSBASE
  2

  9
$PUCSNAME
  2

  9
$PUCSORG
 10
0.0
 20
0.0
 30
0.0
  9
$PUCSXDIR
 10
1.0
 20
0.0
 30
0.0
  9
$PUCSYDIR
 10
0.0
 20
1.0
 30
0.0
  9
$PUCSORTHOREF
  2

  9
$PUCSORTHOVIEW
 70
     0
  9
$PUCSORGTOP
 10
0.0
 20
0.0
 30
0.0
  9
$PUCSORGBOTTOM
 10
0.0
 20
0.0
 30
0.0
  9
$PUCSORGLEFT
 10
0.0
 20
0.0
 30
0.0
  9
$PUCSORGRIGHT
 10
0.0
 20
0.0
 30
0.0
  9
$PUCSORGFRONT
 10
0.0
 20
0.0
 30
0.0
  9
$PUCSORGBACK
 10
0.0
 20
0.0
 30
0.0
  9
$USERI1
 70
     0
  9
$USERI2
 70
     0
  9
$USERI3
 70
     0
  9
$USERI4
 70
     0
  9
$USERI5
 70
     0
  9
$USERR1
 40
0.0
  9
$USERR2
 40
0.0
  9
$USERR3
 40
0.0
  9
$USERR4
 40
0.0
  9
$USERR5
 40
0.0
  9
$WORLDVIEW
 70
     1
  9
$SHADEDGE
 70
     3
  9
$SHADEDIF
 70
    70
  9
$TILEMODE
 70
     1
  9
$MAXACTVP
 70
    16
  9
$PINSBASE
 10
0.0
 20
0.0
 30
0.0
  9
$PLIMCHECK
 70
     0
  9
$PEXTMIN
 10
1.000000000000000E+20
 20
1.000000000000000E+20
 30
1.000000000000000E+20
  9
$PEXTMAX
 10
-1.000000000000000E+20
 20
-1.000000000000000E+20
 30
-1.000000000000000E+20
  9
$PLIMMIN
 10
0.0
 20
0.0
  9
$PLIMMAX
 10
12.0
 20
9.0
  9
$UNITMODE
 70
     0
  9
$VISRETAIN
 70
     0
  9
$PLINEGEN
 70
     1
  9
$PSLTSCALE
 70
     0
  9
$TREEDEPTH
 70
  3020
  9
$CMLSTYLE
  2
Standard
  9
$CMLJUST
 70
     0
  9
$CMLSCALE
 40
1.0
  9
$PROXYGRAPHICS
 70
     1
  9
$MEASUREMENT
 70
     0
  9
$CELWEIGHT
370
    -1
  9
$ENDCAPS
280
     0
  9
$JOINSTYLE
280
     0
  9
$LWDISPLAY
290
     0
  9
$INSUNITS
 70
     0
  9
$HYPERLINKBASE
  1

  9
$STYLESHEET
  1

  9
$XEDIT
290
     1
  9
$CEPSNTYPE
380
     0
  9
$PSTYLEMODE
290
     1
  9
$FINGERPRINTGUID
  2
{2F72B660-AB98-44C6-8B4C-C0866519C2A2}
  9
$VERSIONGUID
  2
{82EFEE1A-913E-4D7C-B107-12E0D12F3925}
  9
$EXTNAMES
290
     1
  9
$PSVPSCALE
 40
0.0
  9
$OLESTARTUP
290
     0
  0
ENDSEC
  0
SECTION
  2
CLASSES
  0
CLASS
  1
ACDBDICTIONARYWDFLT
  2
AcDbDictionaryWithDefault
  3
ObjectDBX Classes
 90
        0
280
     0
281
     0
  0
CLASS
  1
MATERIAL
  2
AcDbMaterial
  3
ObjectDBX Classes
 90
     1153
280
     0
281
     0
  0
CLASS
  1
VISUALSTYLE
  2
AcDbVisualStyle
  3
ObjectDBX Classes
 90
     4095
280
     0
281
     0
  0
CLASS
  1
SCALE
  2
AcDbScale
  3
ObjectDBX Classes
 90
     1153
280
     0
281
     0
  0
CLASS
  1
TABLESTYLE
  2
AcDbTableStyle
  3
ObjectDBX Classes
 90
     4095
280
     0
281
     0
  0
CLASS
  1
MLEADERSTYLE
  2
AcDbMLeaderStyle
  3
ACDB_MLEADERSTYLE_CLASS
 90
     4095
280
     0
281
     0
  0
CLASS
  1
DIMASSOC
  2
AcDbDimAssoc
  3
"AcDbDimAssoc|Product Desc:     AcDim ARX App For Dimension|Company:          Autodesk, Inc.|WEB Address:      www.autodesk.com"
 90
        0
280
     0
281
     0
  0
CLASS
  1
DICTIONARYVAR
  2
AcDbDictionaryVar
  3
ObjectDBX Classes
 90
        0
280
     0
281
     0
  0
CLASS
  1
CELLSTYLEMAP
  2
AcDbCellStyleMap
  3
ObjectDBX Classes
 90
     1152
280
     0
281
     0
  0
CLASS
  1
ACDBPLACEHOLDER
  2
AcDbPlaceHolder
  3
ObjectDBX Classes
 90
        0
280
     0
281
     0
  0
CLASS
  1
LAYOUT
  2
AcDbLayout
  3
ObjectDBX Classes
 90
        0
280
     0
281
     0
  0
ENDSEC
  0
SECTION
  2
TABLES
  0
TABLE
  2
VPORT
  5
517
330
0
100
AcDbSymbolTable
 70
     1
  0
VPORT
  5
5A4
330
517
100
AcDbSymbolTableRecord
100
AcDbViewportTableRecord
  2
*ACTIVE
 70
     0
 10
0.0
 20
0.0
 11
1.0
 21
1.0
 12
21.03009850453827
 22
6.506424324478075
 13
0.0
 23
0.0
 14
1.0
 24
1.0
 15
0.0
 25
0.0
 16
0.0
 26
0.0
 36
1.0
 17
0.0
 27
0.0
 37
0.0
 40
43.33504031204909
 41
2.292383292383292
 42
50.0
 43
0.0
 44
0.0
 50
0.0
 51
0.0
 71
     0
 72
   100
 73
     1
 74
     1
 75
     0
 76
     0
 77
     0
 78
     0
281
     0
 65
     1
110
0.0
120
0.0
130
0.0
111
1.0
121
0.0
131
0.0
112
0.0
122
1.0
132
0.0
 79
     0
146
0.0
  0
ENDTAB
  0
TABLE
  2
LTYPE
  5
514
330
0
100
AcDbSymbolTable
 70
     5
  0
LTYPE
  5
569
330
514
100
AcDbSymbolTableRecord
100
AcDbLinetypeTableRecord
  2
ByBlock
 70
     0
  3

 72
    65
 73
     0
 40
0.0
  0
LTYPE
  5
56A
330
514
100
AcDbSymbolTableRecord
100
AcDbLinetypeTableRecord
  2
ByLayer
 70
     0
  3

 72
    65
 73
     0
 40
0.0
  0
LTYPE
  5
56B
330
514
100
AcDbSymbolTableRecord
100
AcDbLinetypeTableRecord
  2
CONTINUOUS
 70
     0
  3
Solid line
 72
    65
 73
     0
 40
0.0
  0
LTYPE
  5
5A0
330
514
100
AcDbSymbolTableRecord
100
AcDbLinetypeTableRecord
  2
HIDDEN2
 70
     0
  3
_ _ _ _ _ _ _ _ _ _ _ _ _ _ _ _ _ _ _ _ _ _ _ _
 72
    65
 73
     2
 40
0.1875
 49
0.125
 74
     0
 49
-0.0625
 74
     0
  0
LTYPE
  5
5A1
330
514
100
AcDbSymbolTableRecord
100
AcDbLinetypeTableRecord
  2
CENTER2
 70
     0
  3
___ _ ___ _ ___ _ ___ _ ___ _ ___ _ ___ _ ___ _
 72
    65
 73
     4
 40
1.125
 49
0.75
 74
     0
 49
-0.125
 74
     0
 49
0.125
 74
     0
 49
-0.125
 74
     0
  0
LTYPE
  5
5A2
330
514
100
AcDbSymbolTableRecord
100
AcDbLinetypeTableRecord
  2
PHANTOM2
 70
     0
  3
___ _ _ ___ _ _ ___ _ _ ___ _ _ ___ _ _ ___ _ _
 72
    65
 73
     6
 40
1.25
 49
0.625
 74
     0
 49
-0.125
 74
     0
 49
0.125
 74
     0
 49
-0.125
 74
     0
 49
0.125
 74
     0
 49
-0.125
 74
     0
  0
LTYPE
  5
5A3
330
514
100
AcDbSymbolTableRecord
100
AcDbLinetypeTableRecord
  2
DOT2
 70
     0
  3
...............................................
 72
    65
 73
     2
 40
0.125
 49
0.0
 74
     0
 49
-0.125
 74
     0
  0
ENDTAB
  0
TABLE
  2
LAYER
  5
511
330
0
100
AcDbSymbolTable
 70
     9
  0
LAYER
  5
563
330
511
100
AcDbSymbolTableRecord
100
AcDbLayerTableRecord
  2
0
 70
     0
 62
     7
  6
CONTINUOUS
370
    -3
390
51E
  0
LAYER
  5
5A5
330
511
100
AcDbSymbolTableRecord
100
AcDbLayerTableRecord
  2
DEFAULT
 70
     0
 62
     7
  6
CONTINUOUS
370
    -3
390
51E
  0
LAYER
  5
5A6
330
511
100
AcDbSymbolTableRecord
100
AcDbLayerTableRecord
  2
PREDEFINITO
 70
     0
 62
     7
  6
CONTINUOUS
370
    -3
390
51E
  0
LAYER
  5
5A7
330
511
100
AcDbSymbolTableRecord
100
AcDbLayerTableRecord
  2
TESTI
 70
     0
 62
     7
  6
CONTINUOUS
370
    -3
390
51E
  0
LAYER
  5
5A8
330
511
100
AcDbSymbolTableRecord
100
AcDbLayerTableRecord
  2
DV1_0
 70
     0
 62
     7
  6
CONTINUOUS
370
    -3
390
51E
  0
LAYER
  5
5A9
330
511
100
AcDbSymbolTableRecord
100
AcDbLayerTableRecord
  2
DV2_0
 70
     0
 62
     7
  6
CONTINUOUS
370
    -3
390
51E
  0
LAYER
  5
5AA
330
511
100
AcDbSymbolTableRecord
100
AcDbLayerTableRecord
  2
DV3_0
 70
     0
 62
     7
  6
CONTINUOUS
370
    -3
390
51E
  0
LAYER
  5
5AB
330
511
100
AcDbSymbolTableRecord
100
AcDbLayerTableRecord
  2
DV4_0
 70
     0
 62
     7
  6
CONTINUOUS
370
    -3
390
51E
  0
LAYER
  5
5B3
330
511
100
AcDbSymbolTableRecord
100
AcDbLayerTableRecord
  2
Defpoints
 70
     0
 62
     7
  6
CONTINUOUS
290
     0
370
    -3
390
51E
  0
ENDTAB
  0
TABLE
  2
STYLE
  5
512
330
0
100
AcDbSymbolTable
 70
     2
  0
STYLE
  5
564
330
512
100
AcDbSymbolTableRecord
100
AcDbTextStyleTableRecord
  2
Standard
 70
     0
 40
0.0
 41
1.0
 50
0.0
 71
     0
 42
0.2
  3
txt
  4

  0
STYLE
  5
568
330
512
100
AcDbSymbolTableRecord
100
AcDbTextStyleTableRecord
  2
seiso_ttf
 70
     0
 40
0.0
 41
1.0
 50
0.0
 71
     0
 42
0.2
  3
seiso.ttf
  4

1001
AcadAnnotative
1000
AnnotativeData
1002
{
1070
     1
1070
     1
1002
}
  0
ENDTAB
  0
TABLE
  2
VIEW
  5
515
330
0
100
AcDbSymbolTable
 70
     0
  0
ENDTAB
  0
TABLE
  2
UCS
  5
516
330
0
100
AcDbSymbolTable
 70
     0
  0
ENDTAB
  0
TABLE
  2
APPID
  5
518
330
0
100
AcDbSymbolTable
 70
     4
  0
APPID
  5
565
330
518
100
AcDbSymbolTableRecord
100
AcDbRegAppTableRecord
  2
ACAD
 70
     0
  0
APPID
  5
56C
330
518
100
AcDbSymbolTableRecord
100
AcDbRegAppTableRecord
  2
AcadAnnotative
 70
     0
  0
APPID
  5
61D
330
518
100
AcDbSymbolTableRecord
100
AcDbRegAppTableRecord
  2
DCO15
 70
     0
  0
APPID
  5
664
330
518
100
AcDbSymbolTableRecord
100
AcDbRegAppTableRecord
  2
ACAD_MLEADERVER
 70
     0
  0
ENDTAB
  0
TABLE
  2
DIMSTYLE
  5
519
330
0
100
AcDbSymbolTable
 70
     2
100
AcDbDimStyleTable
 71
     1
340
566
  0
DIMSTYLE
105
566
330
519
100
AcDbSymbolTableRecord
100
AcDbDimStyleTableRecord
  2
Standard
 70
     0
279
     2
340
564
  0
DIMSTYLE
105
567
330
519
100
AcDbSymbolTableRecord
100
AcDbDimStyleTableRecord
  2
Annotative
 70
     0
340
564
1001
AcadAnnotative
1000
AnnotativeData
1002
{
1070
     1
1070
     1
1002
}
  0
ENDTAB
  0
TABLE
  2
BLOCK_RECORD
  5
510
330
0
100
AcDbSymbolTable
 70
    37
  0
BLOCK_RECORD
  5
57A
330
510
100
AcDbSymbolTableRecord
100
AcDbBlockTableRecord
  2
*Model_Space
340
57D
  0
BLOCK_RECORD
  5
576
330
510
100
AcDbSymbolTableRecord
100
AcDbBlockTableRecord
  2
*Paper_Space
340
579
  0
BLOCK_RECORD
  5
57E
330
510
100
AcDbSymbolTableRecord
100
AcDbBlockTableRecord
  2
SE0
340
0
  0
BLOCK_RECORD
  5
57F
330
510
100
AcDbSymbolTableRecord
100
AcDbBlockTableRecord
  2
SE1
340
0
102
{BLKREFS
331
57
102
}
  0
BLOCK_RECORD
  5
580
330
510
100
AcDbSymbolTableRecord
100
AcDbBlockTableRecord
  2
SE2
340
0
102
{BLKREFS
331
53
102
}
  0
BLOCK_RECORD
  5
581
330
510
100
AcDbSymbolTableRecord
100
AcDbBlockTableRecord
  2
SE3
340
0
102
{BLKREFS
331
5F
102
}
  0
BLOCK_RECORD
  5
582
330
510
100
AcDbSymbolTableRecord
100
AcDbBlockTableRecord
  2
SE4
340
0
102
{BLKREFS
331
5B
102
}
  0
BLOCK_RECORD
  5
583
330
510
100
AcDbSymbolTableRecord
100
AcDbBlockTableRecord
  2
SE5
340
0
102
{BLKREFS
331
67
102
}
  0
BLOCK_RECORD
  5
584
330
510
100
AcDbSymbolTableRecord
100
AcDbBlockTableRecord
  2
SE6
340
0
102
{BLKREFS
331
63
102
}
  0
BLOCK_RECORD
  5
585
330
510
100
AcDbSymbolTableRecord
100
AcDbBlockTableRecord
  2
SE7
340
0
102
{BLKREFS
331
6F
102
}
  0
BLOCK_RECORD
  5
586
330
510
100
AcDbSymbolTableRecord
100
AcDbBlockTableRecord
  2
SE8
340
0
  0
BLOCK_RECORD
  5
587
330
510
100
AcDbSymbolTableRecord
100
AcDbBlockTableRecord
  2
SE9
340
0
  0
BLOCK_RECORD
  5
588
330
510
100
AcDbSymbolTableRecord
100
AcDbBlockTableRecord
  2
SE10
340
0
  0
BLOCK_RECORD
  5
589
330
510
100
AcDbSymbolTableRecord
100
AcDbBlockTableRecord
  2
SE11
340
0
  0
BLOCK_RECORD
  5
58A
330
510
100
AcDbSymbolTableRecord
100
AcDbBlockTableRecord
  2
SE12
340
0
  0
BLOCK_RECORD
  5
58B
330
510
100
AcDbSymbolTableRecord
100
AcDbBlockTableRecord
  2
SE13
340
0
  0
BLOCK_RECORD
  5
58C
330
510
100
AcDbSymbolTableRecord
100
AcDbBlockTableRecord
  2
SE14
340
0
  0
BLOCK_RECORD
  5
58D
330
510
100
AcDbSymbolTableRecord
100
AcDbBlockTableRecord
  2
SE15
340
0
  0
BLOCK_RECORD
  5
58E
330
510
100
AcDbSymbolTableRecord
100
AcDbBlockTableRecord
  2
SE16
340
0
  0
BLOCK_RECORD
  5
58F
330
510
100
AcDbSymbolTableRecord
100
AcDbBlockTableRecord
  2
SE17
340
0
  0
BLOCK_RECORD
  5
590
330
510
100
AcDbSymbolTableRecord
100
AcDbBlockTableRecord
  2
SE18
340
0
  0
BLOCK_RECORD
  5
591
330
510
100
AcDbSymbolTableRecord
100
AcDbBlockTableRecord
  2
SE19
340
0
  0
BLOCK_RECORD
  5
592
330
510
100
AcDbSymbolTableRecord
100
AcDbBlockTableRecord
  2
SE20
340
0
  0
BLOCK_RECORD
  5
593
330
510
100
AcDbSymbolTableRecord
100
AcDbBlockTableRecord
  2
SE21
340
0
  0
BLOCK_RECORD
  5
594
330
510
100
AcDbSymbolTableRecord
100
AcDbBlockTableRecord
  2
SE22
340
0
  0
BLOCK_RECORD
  5
595
330
510
100
AcDbSymbolTableRecord
100
AcDbBlockTableRecord
  2
SE23
340
0
  0
BLOCK_RECORD
  5
596
330
510
100
AcDbSymbolTableRecord
100
AcDbBlockTableRecord
  2
SE24
340
0
  0
BLOCK_RECORD
  5
597
330
510
100
AcDbSymbolTableRecord
100
AcDbBlockTableRecord
  2
SE25
340
0
  0
BLOCK_RECORD
  5
598
330
510
100
AcDbSymbolTableRecord
100
AcDbBlockTableRecord
  2
SE26
340
0
  0
BLOCK_RECORD
  5
599
330
510
100
AcDbSymbolTableRecord
100
AcDbBlockTableRecord
  2
SE27
340
0
  0
BLOCK_RECORD
  5
59A
330
510
100
AcDbSymbolTableRecord
100
AcDbBlockTableRecord
  2
SE28
340
0
  0
BLOCK_RECORD
  5
59B
330
510
100
AcDbSymbolTableRecord
100
AcDbBlockTableRecord
  2
SE29
340
0
  0
BLOCK_RECORD
  5
59C
330
510
100
AcDbSymbolTableRecord
100
AcDbBlockTableRecord
  2
SE30
340
0
  0
BLOCK_RECORD
  5
59D
330
510
100
AcDbSymbolTableRecord
100
AcDbBlockTableRecord
  2
SE31
340
0
  0
BLOCK_RECORD
  5
59E
330
510
100
AcDbSymbolTableRecord
100
AcDbBlockTableRecord
  2
SE32
340
0
  0
BLOCK_RECORD
  5
59F
330
510
100
AcDbSymbolTableRecord
100
AcDbBlockTableRecord
  2
SE33
340
0
  0
BLOCK_RECORD
  5
5B4
330
510
100
AcDbSymbolTableRecord
100
AcDbBlockTableRecord
  2
*D34
340
0
  0
BLOCK_RECORD
  5
5CE
330
510
100
AcDbSymbolTableRecord
100
AcDbBlockTableRecord
  2
*D35
340
0
  0
BLOCK_RECORD
  5
602
330
510
100
AcDbSymbolTableRecord
100
AcDbBlockTableRecord
  2
*D36
340
0
  0
ENDTAB
  0
ENDSEC
  0
SECTION
  2
BLOCKS
  0
BLOCK
  5
5AE
330
57A
100
AcDbEntity
  8
0
100
AcDbBlockBegin
  2
*Model_Space
 70
     0
 10
0.0
 20
0.0
 30
0.0
  3
*Model_Space
  1

  0
ENDBLK
  5
5AF
330
57A
100
AcDbEntity
  8
0
100
AcDbBlockEnd
  0
BLOCK
  5
5AC
330
576
100
AcDbEntity
 67
     1
  8
0
100
AcDbBlockBegin
  2
*Paper_Space
 70
     0
 10
0.0
 20
0.0
 30
0.0
  3
*Paper_Space
  1

  0
ENDBLK
  5
5AD
330
576
100
AcDbEntity
 67
     1
  8
0
100
AcDbBlockEnd
  0
BLOCK
  5
A2
330
57E
100
AcDbEntity
  8
DEFAULT
 62
     1
100
AcDbBlockBegin
  2
SE0
 70
     0
 10
0.0
 20
0.0
 30
0.0
  3
SE0
  1

  0
LWPOLYLINE
  5
A3
330
57E
100
AcDbEntity
  8
DEFAULT
  6
Continuous
 62
   136
100
AcDbPolyline
 90
        2
 70
     0
 43
0.0
 10
229.6231445001915
 20
172.1148534210949
 10
245.1087291750706
 20
185.0162521309062
  0
LWPOLYLINE
  5
A7
330
57E
100
AcDbEntity
  8
DEFAULT
  6
Continuous
 62
   136
100
AcDbPolyline
 90
        4
 70
     0
 43
0.0
 10
231.9388117280942
 20
174.8033406992191
 10
229.6231445001915
 20
172.1148534210949
 10
232.6855823465182
 20
173.9069898535142
 10
231.9388117280942
 20
174.8033406992191
  0
TEXT
  5
AD
330
57E
100
AcDbEntity
  8
0
  6
Continuous
 62
   136
100
AcDbText
 10
246.3337291750706
 20
183.2662521309062
 30
0.0
 40
3.5
  1
SM 0,5x45°
  7
seiso_ttf
 11
246.3337291750706
 21
186.7662521309062
 31
0.0
100
AcDbText
 73
     3
  0
ENDBLK
  5
AE
330
57E
100
AcDbEntity
  8
0
  6
Continuous
 62
   136
100
AcDbBlockEnd
  0
BLOCK
  5
DF
330
57F
100
AcDbEntity
  8
0
 62
     1
100
AcDbBlockBegin
  2
SE1
 70
     0
 10
0.0
 20
0.0
 30
0.0
  3
SE1
  1

  0
ENDBLK
  5
E0
330
57F
100
AcDbEntity
  8
0
 62
     1
100
AcDbBlockEnd
  0
BLOCK
  5
AF
330
580
100
AcDbEntity
  8
0
 62
     1
100
AcDbBlockBegin
  2
SE2
 70
     0
 10
0.0
 20
0.0
 30
0.0
  3
SE2
  1

  0
LINE
  5
B0
330
580
100
AcDbEntity
  8
DV1_0
  6
HIDDEN2
 62
     7
100
AcDbLine
 10
139.6156560506563
 20
166.6148534210949
 30
0.0
 11
175.0156560506563
 21
166.6148534210949
 31
0.0
  0
ARC
  5
B1
330
580
100
AcDbEntity
  8
DV1_0
  6
Continuous
 62
     7
100
AcDbCircle
 10
137.8156560506563
 20
166.6148534210949
 30
0.0
 40
2.0
100
AcDbArc
 50
180.0
 51
270.0
  0
LINE
  5
B2
330
580
100
AcDbEntity
  8
DV1_0
  6
Continuous
 62
     7
100
AcDbLine
 10
176.8156560506563
 20
164.6148534210949
 30
0.0
 11
137.8156560506563
 21
164.6148534210949
 31
0.0
  0
LINE
  5
B3
330
580
100
AcDbEntity
  8
DV1_0
  6
Continuous
 62
     7
100
AcDbLine
 10
177.8156560506563
 20
168.6148534210949
 30
0.0
 11
136.8156560506563
 21
168.6148534210949
 31
0.0
  0
LINE
  5
B4
330
580
100
AcDbEntity
  8
DV1_0
  6
Continuous
 62
     7
100
AcDbLine
 10
163.0156560506563
 20
172.6148534210949
 30
0.0
 11
162.0156560506563
 21
171.6148534210949
 31
0.0
  0
LINE
  5
B5
330
580
100
AcDbEntity
  8
DV1_0
  6
Continuous
 62
     7
100
AcDbLine
 10
168.0156560506563
 20
172.6148534210949
 30
0.0
 11
174.0156560506563
 21
172.6148534210949
 31
0.0
  0
LINE
  5
B6
330
580
100
AcDbEntity
  8
DV1_0
  6
Continuous
 62
     7
100
AcDbLine
 10
174.0156560506563
 20
172.6148534210949
 30
0.0
 11
174.0156560506563
 21
168.6148534210949
 31
0.0
  0
LINE
  5
B7
330
580
100
AcDbEntity
  8
DV1_0
  6
HIDDEN2
 62
     7
100
AcDbLine
 10
174.0156560506563
 20
168.6148534210949
 30
0.0
 11
174.0156560506563
 21
166.6148534210949
 31
0.0
  0
LINE
  5
B8
330
580
100
AcDbEntity
  8
DV1_0
  6
Continuous
 62
     7
100
AcDbLine
 10
143.6156560506563
 20
174.6148534210949
 30
0.0
 11
143.6156560506563
 21
168.6148534210949
 31
0.0
  0
LINE
  5
B9
330
580
100
AcDbEntity
  8
DV1_0
  6
HIDDEN2
 62
     7
100
AcDbLine
 10
143.6156560506563
 20
168.6148534210949
 30
0.0
 11
143.6156560506563
 21
166.6148534210949
 31
0.0
  0
LINE
  5
BA
330
580
100
AcDbEntity
  8
DV1_0
  6
Continuous
 62
     7
100
AcDbLine
 10
166.0156560506563
 20
172.6148534210949
 30
0.0
 11
168.0156560506563
 21
172.6148534210949
 31
0.0
  0
LINE
  5
BB
330
580
100
AcDbEntity
  8
DV1_0
  6
Continuous
 62
     7
100
AcDbLine
 10
163.0156560506563
 20
172.6148534210949
 30
0.0
 11
166.0156560506563
 21
172.6148534210949
 31
0.0
  0
LINE
  5
BC
330
580
100
AcDbEntity
  8
DV1_0
  6
Continuous
 62
     7
100
AcDbLine
 10
166.0156560506563
 20
172.6148534210949
 30
0.0
 11
166.0156560506563
 21
168.6148534210949
 31
0.0
  0
LINE
  5
BD
330
580
100
AcDbEntity
  8
DV1_0
  6
HIDDEN2
 62
     7
100
AcDbLine
 10
166.0156560506563
 20
168.6148534210949
 30
0.0
 11
166.0156560506563
 21
166.6148534210949
 31
0.0
  0
LINE
  5
BE
330
580
100
AcDbEntity
  8
DV1_0
  6
Continuous
 62
     7
100
AcDbLine
 10
162.0156560506563
 20
171.6148534210949
 30
0.0
 11
162.0156560506563
 21
168.6148534210949
 31
0.0
  0
LINE
  5
BF
330
580
100
AcDbEntity
  8
DV1_0
  6
HIDDEN2
 62
     7
100
AcDbLine
 10
162.0156560506563
 20
168.6148534210949
 30
0.0
 11
162.0156560506563
 21
166.6148534210949
 31
0.0
  0
LINE
  5
C0
330
580
100
AcDbEntity
  8
DV1_0
  6
HIDDEN2
 62
     7
100
AcDbLine
 10
175.0156560506563
 20
166.6148534210949
 30
0.0
 11
176.0156560506563
 21
166.6148534210949
 31
0.0
  0
LINE
  5
C1
330
580
100
AcDbEntity
  8
DV1_0
  6
HIDDEN2
 62
     7
100
AcDbLine
 10
138.6156560506563
 20
166.6148534210949
 30
0.0
 11
139.6156560506563
 21
166.6148534210949
 31
0.0
  0
LINE
  5
C2
330
580
100
AcDbEntity
  8
DV1_0
  6
HIDDEN2
 62
     7
100
AcDbLine
 10
176.0156560506563
 20
166.6148534210949
 30
0.0
 11
176.0156560506563
 21
168.6148534210949
 31
0.0
  0
LINE
  5
C3
330
580
100
AcDbEntity
  8
DV1_0
  6
HIDDEN2
 62
     7
100
AcDbLine
 10
138.6156560506563
 20
166.6148534210949
 30
0.0
 11
138.6156560506563
 21
168.6148534210949
 31
0.0
  0
ARC
  5
C4
330
580
100
AcDbEntity
  8
DV1_0
  6
Continuous
 62
     7
100
AcDbCircle
 10
176.8156560506563
 20
166.6148534210949
 30
0.0
 40
2.000000000000001
100
AcDbArc
 50
307.6267408508232
 51
360.0
  0
LINE
  5
C5
330
580
100
AcDbEntity
  8
DV1_0
  6
HIDDEN2
 62
     7
100
AcDbLine
 10
144.8156560506563
 20
176.2148534210949
 30
0.0
 11
144.8156560506563
 21
166.6148534210949
 31
0.0
  0
ARC
  5
C6
330
580
100
AcDbEntity
  8
DV1_0
  6
HIDDEN2
 62
     7
100
AcDbCircle
 10
144.4156560506563
 20
176.2148534210949
 30
0.0
 40
0.4
100
AcDbArc
 50
0.0
 51
90.0
  0
ARC
  5
C7
330
580
100
AcDbEntity
  8
DV1_0
  6
Continuous
 62
     7
100
AcDbCircle
 10
153.1141127631974
 20
176.22795684477
 30
0.0
 40
0.4
100
AcDbArc
 50
16.69924423398894
 51
75.29406021887216
  0
LINE
  5
C8
330
580
100
AcDbEntity
  8
DV1_0
  6
Continuous
 62
     7
100
AcDbLine
 10
144.1340688240268
 20
176.3428959989965
 30
0.0
 11
143.6156560506563
 21
174.6148534210949
 31
0.0
  0
LINE
  5
C9
330
580
100
AcDbEntity
  8
DV1_0
  6
Continuous
 62
     7
100
AcDbLine
 10
178.8156560506563
 20
168.6148534210949
 30
0.0
 11
177.8156560506563
 21
168.6148534210949
 31
0.0
  0
LINE
  5
CA
330
580
100
AcDbEntity
  8
DV1_0
  6
Continuous
 62
     7
100
AcDbLine
 10
135.8156560506563
 20
168.6148534210949
 30
0.0
 11
135.8156560506563
 21
166.6148534210949
 31
0.0
  0
LINE
  5
CB
330
580
100
AcDbEntity
  8
DV1_0
  6
Continuous
 62
     7
100
AcDbLine
 10
178.8156560506563
 20
168.6148534210949
 30
0.0
 11
178.8156560506563
 21
166.6148534210949
 31
0.0
  0
LINE
  5
CC
330
580
100
AcDbEntity
  8
DV1_0
  6
Continuous
 62
     7
100
AcDbLine
 10
154.0156560506563
 20
174.6148534210949
 30
0.0
 11
143.6156560506564
 21
174.6148534210949
 31
0.0
  0
LINE
  5
CD
330
580
100
AcDbEntity
  8
DV1_0
  6
Continuous
 62
     7
100
AcDbLine
 10
153.2156560506563
 20
176.6148534210949
 30
0.0
 11
144.4156560506563
 21
176.6148534210949
 31
0.0
  0
LINE
  5
CE
330
580
100
AcDbEntity
  8
DV1_0
  6
HIDDEN2
 62
     7
100
AcDbLine
 10
166.0156560506563
 20
171.6148534210949
 30
0.0
 11
174.0156560506563
 21
171.6148534210949
 31
0.0
  0
LINE
  5
CF
330
580
100
AcDbEntity
  8
DV1_0
  6
HIDDEN2
 62
     7
100
AcDbLine
 10
162.0156560506563
 20
171.6148534210949
 30
0.0
 11
166.0156560506563
 21
171.6148534210949
 31
0.0
  0
LINE
  5
D0
330
580
100
AcDbEntity
  8
DV1_0
  6
Continuous
 62
     7
100
AcDbLine
 10
136.8156560506563
 20
168.6148534210949
 30
0.0
 11
135.8156560506563
 21
168.6148534210949
 31
0.0
  0
POLYLINE
  5
D1
330
580
100
AcDbEntity
  8
DV1_0
  6
Continuous
 62
     7
100
AcDb2dPolyline
 66
     1
 10
0.0
 20
0.0
 30
0.0
 70
     4
  0
VERTEX
  5
D2
330
D1
100
AcDbEntity
  8
DV1_0
  6
Continuous
 62
     7
100
AcDbVertex
100
AcDb2dVertex
 10
176.8156560506563
 20
164.6148534210949
 30
0.0
 70
     8
  0
VERTEX
  5
D3
330
D1
100
AcDbEntity
  8
DV1_0
  6
Continuous
 62
     7
100
AcDbVertex
100
AcDb2dVertex
 10
177.1271820750651
 20
164.6411857423643
 30
0.0
 70
     8
  0
VERTEX
  5
D4
330
D1
100
AcDbEntity
  8
DV1_0
  6
Continuous
 62
     7
100
AcDbVertex
100
AcDb2dVertex
 10
177.4239305869235
 20
164.710942332208
 30
0.0
 70
     8
  0
VERTEX
  5
D5
330
D1
100
AcDbEntity
  8
DV1_0
  6
Continuous
 62
     7
100
AcDbVertex
100
AcDb2dVertex
 10
177.7273799615114
 20
164.8386071422661
 30
0.0
 70
     8
  0
VERTEX
  5
D6
330
D1
100
AcDbEntity
  8
DV1_0
  6
Continuous
 62
     7
100
AcDbVertex
100
AcDb2dVertex
 10
178.038413420661
 20
165.0321770757548
 30
0.0
 70
     8
  0
SEQEND
  5
D7
330
D1
100
AcDbEntity
  8
DV1_0
  6
Continuous
 62
     7
  0
LINE
  5
D8
330
580
100
AcDbEntity
  8
DV1_0
  6
HIDDEN2
 62
     7
100
AcDbLine
 10
154.0156560506563
 20
166.6148534210949
 30
0.0
 11
154.0156560506563
 21
168.6148534210949
 31
0.0
  0
LINE
  5
D9
330
580
100
AcDbEntity
  8
DV1_0
  6
Continuous
 62
     7
100
AcDbLine
 10
154.0156560506563
 20
168.6148534210949
 30
0.0
 11
154.0156560506563
 21
174.6148534210949
 31
0.0
  0
LINE
  5
DA
330
580
100
AcDbEntity
  8
DV1_0
  6
HIDDEN2
 62
     7
100
AcDbLine
 10
152.8156560506563
 20
166.6148534210949
 30
0.0
 11
152.8156560506563
 21
176.2148534210949
 31
0.0
  0
ARC
  5
DB
330
580
100
AcDbEntity
  8
DV1_0
  6
HIDDEN2
 62
     7
100
AcDbCircle
 10
153.2156560506563
 20
176.2148534210949
 30
0.0
 40
0.4
100
AcDbArc
 50
90.0
 51
180.0
  0
ARC
  5
DC
330
580
100
AcDbEntity
  8
DV1_0
  6
Continuous
 62
     7
100
AcDbCircle
 10
144.5171993381152
 20
176.22795684477
 30
0.0
 40
0.4
100
AcDbArc
 50
104.7059397811278
 51
163.300755766011
  0
LINE
  5
DD
330
580
100
AcDbEntity
  8
DV1_0
  6
Continuous
 62
     7
100
AcDbLine
 10
154.0156560506563
 20
174.6148534210949
 30
0.0
 11
153.4972432772858
 21
176.3428959989965
 31
0.0
  0
ENDBLK
  5
DE
330
580
100
AcDbEntity
  8
DV1_0
  6
Continuous
 62
     7
100
AcDbBlockEnd
  0
BLOCK
  5
103
330
581
100
AcDbEntity
  8
0
 62
     1
100
AcDbBlockBegin
  2
SE3
 70
     0
 10
0.0
 20
0.0
 30
0.0
  3
SE3
  1

  0
ENDBLK
  5
104
330
581
100
AcDbEntity
  8
0
 62
     1
100
AcDbBlockEnd
  0
BLOCK
  5
E1
330
582
100
AcDbEntity
  8
0
 62
     1
100
AcDbBlockBegin
  2
SE4
 70
     0
 10
0.0
 20
0.0
 30
0.0
  3
SE4
  1

  0
LINE
  5
E2
330
582
100
AcDbEntity
  8
DV2_0
  6
Continuous
 62
     7
100
AcDbLine
 10
162.0156560506563
 20
95.39696547113843
 30
0.0
 11
162.0156560506563
 21
103.4050584943942
 31
0.0
  0
LINE
  5
E3
330
582
100
AcDbEntity
  8
DV2_0
  6
Continuous
 62
     7
100
AcDbLine
 10
174.0156560506563
 20
103.4050584943942
 30
0.0
 11
174.0156560506563
 21
106.4050584943943
 31
0.0
  0
LINE
  5
E4
330
582
100
AcDbEntity
  8
DV2_0
  6
Continuous
 62
     7
100
AcDbLine
 10
163.0156560506563
 20
95.39696547113843
 30
0.0
 11
166.0156560506563
 21
95.39696547113843
 31
0.0
  0
LINE
  5
E5
330
582
100
AcDbEntity
  8
DV2_0
  6
Continuous
 62
     7
100
AcDbLine
 10
166.0156560506563
 20
95.39696547113843
 30
0.0
 11
166.0156560506563
 21
101.4050584943942
 31
0.0
  0
LINE
  5
E6
330
582
100
AcDbEntity
  8
DV2_0
  6
Continuous
 62
     7
100
AcDbLine
 10
138.6156560506563
 20
129.8050584943942
 30
0.0
 11
138.6156560506563
 21
94.40505849439427
 31
0.0
  0
LINE
  5
E7
330
582
100
AcDbEntity
  8
DV2_0
  6
Continuous
 62
     7
100
AcDbLine
 10
178.8156560506563
 20
132.6050584943943
 30
0.0
 11
178.8156560506563
 21
91.60505849439431
 31
0.0
  0
LINE
  5
E8
330
582
100
AcDbEntity
  8
DV2_0
  6
Continuous
 62
     7
100
AcDbLine
 10
136.8156560506563
 20
133.6050584943943
 30
0.0
 11
177.8156560506563
 21
133.6050584943943
 31
0.0
  0
LINE
  5
E9
330
582
100
AcDbEntity
  8
DV2_0
  6
Continuous
 62
     7
100
AcDbLine
 10
166.0156560506563
 20
107.4050584943943
 30
0.0
 11
174.0156560506563
 21
107.4050584943943
 31
0.0
  0
ARC
  5
EA
330
582
100
AcDbEntity
  8
DV2_0
  6
Continuous
 62
     7
100
AcDbCircle
 10
166.0156560506563
 20
103.4050584943942
 30
0.0
 40
4.0
100
AcDbArc
 50
90.0
 51
180.0
  0
LINE
  5
EB
330
582
100
AcDbEntity
  8
DV2_0
  6
Continuous
 62
     7
100
AcDbLine
 10
177.8156560506563
 20
90.60505849439428
 30
0.0
 11
136.8156560506563
 21
90.60505849439428
 31
0.0
  0
LINE
  5
EC
330
582
100
AcDbEntity
  8
DV2_0
  6
Continuous
 62
     7
100
AcDbLine
 10
135.8156560506563
 20
91.60505849439429
 30
0.0
 11
135.8156560506563
 21
132.6050584943943
 31
0.0
  0
ARC
  5
ED
330
582
100
AcDbEntity
  8
DV2_0
  6
Continuous
 62
     7
100
AcDbCircle
 10
136.8156560506563
 20
91.60505849439429
 30
0.0
 40
1.0
100
AcDbArc
 50
180.0
 51
270.0
  0
CIRCLE
  5
EE
330
582
100
AcDbEntity
  8
DV2_0
  6
Continuous
 62
     7
100
AcDbCircle
 10
148.8156560506563
 20
120.6050584943942
 30
0.0
 40
4.0
  0
LINE
  5
EF
330
582
100
AcDbEntity
  8
DV2_0
  6
Continuous
 62
     7
100
AcDbLine
 10
163.0156560506563
 20
95.39696547113843
 30
0.0
 11
162.0156560506563
 21
95.39696547113843
 31
0.0
  0
ARC
  5
F0
330
582
100
AcDbEntity
  8
DV2_0
  6
Continuous
 62
     7
100
AcDbCircle
 10
175.0156560506563
 20
129.8050584943942
 30
0.0
 40
1.0
100
AcDbArc
 50
0.0
 51
90.0
  0
LINE
  5
F1
330
582
100
AcDbEntity
  8
DV2_0
  6
Continuous
 62
     7
100
AcDbLine
 10
168.0156560506563
 20
103.4050584943942
 30
0.0
 11
174.0156560506563
 21
103.4050584943942
 31
0.0
  0
ARC
  5
F2
330
582
100
AcDbEntity
  8
DV2_0
  6
Continuous
 62
     7
100
AcDbCircle
 10
168.0156560506563
 20
101.4050584943942
 30
0.0
 40
2.0
100
AcDbArc
 50
90.0
 51
180.0
  0
LINE
  5
F3
330
582
100
AcDbEntity
  8
DV2_0
  6
Continuous
 62
     7
100
AcDbLine
 10
175.0156560506563
 20
130.8050584943942
 30
0.0
 11
139.6156560506563
 21
130.8050584943942
 31
0.0
  0
ARC
  5
F4
330
582
100
AcDbEntity
  8
DV2_0
  6
Continuous
 62
     7
100
AcDbCircle
 10
139.6156560506563
 20
94.40505849439428
 30
0.0
 40
1.0
100
AcDbArc
 50
180.0
 51
270.0
  0
LINE
  5
F5
330
582
100
AcDbEntity
  8
DV2_0
  6
Continuous
 62
     7
100
AcDbLine
 10
139.6156560506563
 20
93.40505849439427
 30
0.0
 11
175.0156560506563
 21
93.40505849439427
 31
0.0
  0
ARC
  5
F6
330
582
100
AcDbEntity
  8
DV2_0
  6
Continuous
 62
     7
100
AcDbCircle
 10
139.6156560506563
 20
129.8050584943942
 30
0.0
 40
1.0
100
AcDbArc
 50
90.0
 51
180.0
  0
LINE
  5
F7
330
582
100
AcDbEntity
  8
DV2_0
  6
Continuous
 62
     7
100
AcDbLine
 10
176.0156560506563
 20
94.40505849439428
 30
0.0
 11
176.0156560506563
 21
129.8050584943942
 31
0.0
  0
ARC
  5
F8
330
582
100
AcDbEntity
  8
DV2_0
  6
Continuous
 62
     7
100
AcDbCircle
 10
175.0156560506563
 20
94.40505849439428
 30
0.0
 40
1.0
100
AcDbArc
 50
270.0
 51
360.0
  0
ARC
  5
F9
330
582
100
AcDbEntity
  8
DV2_0
  6
Continuous
 62
     7
100
AcDbCircle
 10
177.8156560506563
 20
132.6050584943943
 30
0.0
 40
1.0
100
AcDbArc
 50
0.0
 51
90.0
  0
ARC
  5
FA
330
582
100
AcDbEntity
  8
DV2_0
  6
Continuous
 62
     7
100
AcDbCircle
 10
177.8156560506563
 20
91.60505849439429
 30
0.0
 40
1.0
100
AcDbArc
 50
270.0
 51
360.0
  0
ARC
  5
FB
330
582
100
AcDbEntity
  8
DV2_0
  6
Continuous
 62
     7
100
AcDbCircle
 10
166.0156560506563
 20
103.4050584943942
 30
0.0
 40
2.999999999999999
100
AcDbArc
 50
90.0
 51
180.0
  0
LINE
  5
FC
330
582
100
AcDbEntity
  8
DV2_0
  6
Continuous
 62
     7
100
AcDbLine
 10
163.0156560506563
 20
103.4050584943942
 30
0.0
 11
163.0156560506563
 21
95.39696547113843
 31
0.0
  0
CIRCLE
  5
FD
330
582
100
AcDbEntity
  8
DV2_0
  6
Continuous
 62
     7
100
AcDbCircle
 10
148.8156560506563
 20
120.6050584943942
 30
0.0
 40
5.2
  0
LINE
  5
FE
330
582
100
AcDbEntity
  8
DV2_0
  6
Continuous
 62
     7
100
AcDbLine
 10
174.0156560506563
 20
107.4050584943943
 30
0.0
 11
174.0156560506563
 21
106.4050584943943
 31
0.0
  0
LINE
  5
FF
330
582
100
AcDbEntity
  8
DV2_0
  6
Continuous
 62
     7
100
AcDbLine
 10
174.0156560506563
 20
106.4050584943943
 30
0.0
 11
166.0156560506563
 21
106.4050584943943
 31
0.0
  0
CIRCLE
  5
100
330
582
100
AcDbEntity
  8
DV2_0
  6
Continuous
 62
     7
100
AcDbCircle
 10
148.8156560506563
 20
120.6050584943942
 30
0.0
 40
4.4
  0
ARC
  5
101
330
582
100
AcDbEntity
  8
DV2_0
  6
Continuous
 62
     7
100
AcDbCircle
 10
136.8156560506563
 20
132.6050584943943
 30
0.0
 40
1.0
100
AcDbArc
 50
90.0
 51
180.0
  0
ENDBLK
  5
102
330
582
100
AcDbEntity
  8
DV2_0
  6
Continuous
 62
     7
100
AcDbBlockEnd
  0
BLOCK
  5
134
330
583
100
AcDbEntity
  8
0
 62
     1
100
AcDbBlockBegin
  2
SE5
 70
     0
 10
0.0
 20
0.0
 30
0.0
  3
SE5
  1

  0
ENDBLK
  5
135
330
583
100
AcDbEntity
  8
0
 62
     1
100
AcDbBlockEnd
  0
BLOCK
  5
105
330
584
100
AcDbEntity
  8
0
 62
     1
100
AcDbBlockBegin
  2
SE6
 70
     0
 10
0.0
 20
0.0
 30
0.0
  3
SE6
  1

  0
LINE
  5
106
330
584
100
AcDbEntity
  8
DV3_0
  6
HIDDEN2
 62
     7
100
AcDbLine
 10
206.7231445001915
 20
166.6148534210949
 30
0.0
 11
242.1231445001915
 21
166.6148534210949
 31
0.0
  0
LINE
  5
107
330
584
100
AcDbEntity
  8
DV3_0
  6
Continuous
 62
     7
100
AcDbLine
 10
210.7231445001915
 20
174.6148534210949
 30
0.0
 11
221.1231445001915
 21
174.6148534210949
 31
0.0
  0
LINE
  5
108
330
584
100
AcDbEntity
  8
DV3_0
  6
Continuous
 62
     7
100
AcDbLine
 10
229.1231445001916
 20
171.6148534210949
 30
0.0
 11
230.1231445001916
 21
172.6148534210949
 31
0.0
  0
LINE
  5
109
330
584
100
AcDbEntity
  8
DV3_0
  6
Continuous
 62
     7
100
AcDbLine
 10
243.9231445001916
 20
164.6148534210949
 30
0.0
 11
204.9231445001916
 21
164.6148534210949
 31
0.0
  0
LINE
  5
10A
330
584
100
AcDbEntity
  8
DV3_0
  6
Continuous
 62
     7
100
AcDbLine
 10
233.1231445001916
 20
172.6148534210949
 30
0.0
 11
241.1312375234474
 21
172.6148534210949
 31
0.0
  0
LINE
  5
10B
330
584
100
AcDbEntity
  8
DV3_0
  6
Continuous
 62
     7
100
AcDbLine
 10
244.9231445001916
 20
168.6148534210949
 30
0.0
 11
203.9231445001916
 21
168.6148534210949
 31
0.0
  0
ARC
  5
10C
330
584
100
AcDbEntity
  8
DV3_0
  6
Continuous
 62
     7
100
AcDbCircle
 10
243.9231445001916
 20
166.6148534210949
 30
0.0
 40
2.000000000000001
100
AcDbArc
 50
307.6267408508243
 51
360.0
  0
LINE
  5
10D
330
584
100
AcDbEntity
  8
DV3_0
  6
Continuous
 62
     7
100
AcDbLine
 10
241.1312375234474
 20
171.6148534210949
 30
0.0
 11
233.1231445001916
 21
171.6148534210949
 31
0.0
  0
LINE
  5
10E
330
584
100
AcDbEntity
  8
DV3_0
  6
Continuous
 62
     7
100
AcDbLine
 10
241.1312375234474
 20
172.6148534210949
 30
0.0
 11
241.1312375234474
 21
171.6148534210949
 31
0.0
  0
LINE
  5
10F
330
584
100
AcDbEntity
  8
DV3_0
  6
HIDDEN2
 62
     7
100
AcDbLine
 10
233.1231445001915
 20
172.6148534210949
 30
0.0
 11
233.1231445001915
 21
166.6148534210949
 31
0.0
  0
LINE
  5
110
330
584
100
AcDbEntity
  8
DV3_0
  6
Continuous
 62
     7
100
AcDbLine
 10
210.7231445001915
 20
174.6148534210949
 30
0.0
 11
210.7231445001915
 21
168.6148534210949
 31
0.0
  0
LINE
  5
111
330
584
100
AcDbEntity
  8
DV3_0
  6
HIDDEN2
 62
     7
100
AcDbLine
 10
210.7231445001915
 20
168.6148534210949
 30
0.0
 11
210.7231445001915
 21
166.6148534210949
 31
0.0
  0
LINE
  5
112
330
584
100
AcDbEntity
  8
DV3_0
  6
Continuous
 62
     7
100
AcDbLine
 10
229.1231445001916
 20
171.6148534210949
 30
0.0
 11
229.1231445001916
 21
168.6148534210949
 31
0.0
  0
LINE
  5
113
330
584
100
AcDbEntity
  8
DV3_0
  6
HIDDEN2
 62
     7
100
AcDbLine
 10
229.1231445001916
 20
168.6148534210949
 30
0.0
 11
229.1231445001916
 21
166.6148534210949
 31
0.0
  0
LINE
  5
114
330
584
100
AcDbEntity
  8
DV3_0
  6
Continuous
 62
     7
100
AcDbLine
 10
241.1312375234474
 20
171.6148534210949
 30
0.0
 11
241.1312375234474
 21
168.6148534210949
 31
0.0
  0
LINE
  5
115
330
584
100
AcDbEntity
  8
DV3_0
  6
HIDDEN2
 62
     7
100
AcDbLine
 10
241.1312375234474
 20
168.6148534210949
 30
0.0
 11
241.1312375234474
 21
166.6148534210949
 31
0.0
  0
LINE
  5
116
330
584
100
AcDbEntity
  8
DV3_0
  6
HIDDEN2
 62
     7
100
AcDbLine
 10
205.7231445001916
 20
166.6148534210949
 30
0.0
 11
206.7231445001915
 21
166.6148534210949
 31
0.0
  0
LINE
  5
117
330
584
100
AcDbEntity
  8
DV3_0
  6
HIDDEN2
 62
     7
100
AcDbLine
 10
242.1231445001915
 20
166.6148534210949
 30
0.0
 11
243.1231445001915
 21
166.6148534210949
 31
0.0
  0
LINE
  5
118
330
584
100
AcDbEntity
  8
DV3_0
  6
HIDDEN2
 62
     7
100
AcDbLine
 10
243.1231445001915
 20
166.6148534210949
 30
0.0
 11
243.1231445001915
 21
168.6148534210949
 31
0.0
  0
LINE
  5
119
330
584
100
AcDbEntity
  8
DV3_0
  6
HIDDEN2
 62
     7
100
AcDbLine
 10
205.7231445001916
 20
166.6148534210949
 30
0.0
 11
205.7231445001916
 21
168.6148534210949
 31
0.0
  0
LINE
  5
11A
330
584
100
AcDbEntity
  8
DV3_0
  6
HIDDEN2
 62
     7
100
AcDbLine
 10
211.9231445001916
 20
176.2148534210949
 30
0.0
 11
211.9231445001916
 21
166.6148534210949
 31
0.0
  0
ARC
  5
11B
330
584
100
AcDbEntity
  8
DV3_0
  6
HIDDEN2
 62
     7
100
AcDbCircle
 10
211.5231445001916
 20
176.2148534210949
 30
0.0
 40
0.4
100
AcDbArc
 50
0.0
 51
90.0
  0
ARC
  5
11C
330
584
100
AcDbEntity
  8
DV3_0
  6
Continuous
 62
     7
100
AcDbCircle
 10
220.2216012127326
 20
176.22795684477
 30
0.0
 40
0.4
100
AcDbArc
 50
16.69924423398777
 51
75.29406021887216
  0
LINE
  5
11D
330
584
100
AcDbEntity
  8
DV3_0
  6
Continuous
 62
     7
100
AcDbLine
 10
211.241557273562
 20
176.3428959989965
 30
0.0
 11
210.7231445001915
 21
174.6148534210949
 31
0.0
  0
LINE
  5
11E
330
584
100
AcDbEntity
  8
DV3_0
  6
Continuous
 62
     7
100
AcDbLine
 10
202.9231445001915
 20
168.6148534210949
 30
0.0
 11
202.9231445001915
 21
166.6148534210949
 31
0.0
  0
LINE
  5
11F
330
584
100
AcDbEntity
  8
DV3_0
  6
Continuous
 62
     7
100
AcDbLine
 10
245.9231445001916
 20
168.6148534210949
 30
0.0
 11
245.9231445001916
 21
166.6148534210949
 31
0.0
  0
LINE
  5
120
330
584
100
AcDbEntity
  8
DV3_0
  6
Continuous
 62
     7
100
AcDbLine
 10
230.1231445001916
 20
172.6148534210949
 30
0.0
 11
233.1231445001916
 21
172.6148534210949
 31
0.0
  0
LINE
  5
121
330
584
100
AcDbEntity
  8
DV3_0
  6
Continuous
 62
     7
100
AcDbLine
 10
233.1231445001916
 20
171.6148534210949
 30
0.0
 11
229.1231445001916
 21
171.6148534210949
 31
0.0
  0
LINE
  5
122
330
584
100
AcDbEntity
  8
DV3_0
  6
Continuous
 62
     7
100
AcDbLine
 10
211.5231445001916
 20
176.6148534210949
 30
0.0
 11
220.3231445001916
 21
176.6148534210949
 31
0.0
  0
ARC
  5
123
330
584
100
AcDbEntity
  8
DV3_0
  6
Continuous
 62
     7
100
AcDbCircle
 10
204.9231445001916
 20
166.6148534210949
 30
0.0
 40
2.0
100
AcDbArc
 50
180.0
 51
270.0
  0
LINE
  5
124
330
584
100
AcDbEntity
  8
DV3_0
  6
Continuous
 62
     7
100
AcDbLine
 10
245.9231445001916
 20
168.6148534210949
 30
0.0
 11
244.9231445001916
 21
168.6148534210949
 31
0.0
  0
LINE
  5
125
330
584
100
AcDbEntity
  8
DV3_0
  6
Continuous
 62
     7
100
AcDbLine
 10
203.9231445001916
 20
168.6148534210949
 30
0.0
 11
202.9231445001915
 21
168.6148534210949
 31
0.0
  0
POLYLINE
  5
126
330
584
100
AcDbEntity
  8
DV3_0
  6
Continuous
 62
     7
100
AcDb2dPolyline
 66
     1
 10
0.0
 20
0.0
 30
0.0
 70
     4
  0
VERTEX
  5
127
330
126
100
AcDbEntity
  8
DV3_0
  6
Continuous
 62
     7
100
AcDbVertex
100
AcDb2dVertex
 10
243.9231445001916
 20
164.6148534210949
 30
0.0
 70
     8
  0
VERTEX
  5
128
330
126
100
AcDbEntity
  8
DV3_0
  6
Continuous
 62
     7
100
AcDbVertex
100
AcDb2dVertex
 10
244.2346705246003
 20
164.6411857423643
 30
0.0
 70
     8
  0
VERTEX
  5
129
330
126
100
AcDbEntity
  8
DV3_0
  6
Continuous
 62
     7
100
AcDbVertex
100
AcDb2dVertex
 10
244.5314190364587
 20
164.710942332208
 30
0.0
 70
     8
  0
VERTEX
  5
12A
330
126
100
AcDbEntity
  8
DV3_0
  6
Continuous
 62
     7
100
AcDbVertex
100
AcDb2dVertex
 10
244.8348684110466
 20
164.8386071422661
 30
0.0
 70
     8
  0
VERTEX
  5
12B
330
126
100
AcDbEntity
  8
DV3_0
  6
Continuous
 62
     7
100
AcDbVertex
100
AcDb2dVertex
 10
245.1459018701963
 20
165.0321770757548
 30
0.0
 70
     8
  0
SEQEND
  5
12C
330
126
100
AcDbEntity
  8
DV3_0
  6
Continuous
 62
     7
  0
LINE
  5
12D
330
584
100
AcDbEntity
  8
DV3_0
  6
HIDDEN2
 62
     7
100
AcDbLine
 10
221.1231445001915
 20
166.6148534210949
 30
0.0
 11
221.1231445001915
 21
168.6148534210949
 31
0.0
  0
LINE
  5
12E
330
584
100
AcDbEntity
  8
DV3_0
  6
Continuous
 62
     7
100
AcDbLine
 10
221.1231445001915
 20
168.6148534210949
 30
0.0
 11
221.1231445001915
 21
174.6148534210949
 31
0.0
  0
LINE
  5
12F
330
584
100
AcDbEntity
  8
DV3_0
  6
HIDDEN2
 62
     7
100
AcDbLine
 10
219.9231445001915
 20
166.6148534210949
 30
0.0
 11
219.9231445001915
 21
176.2148534210949
 31
0.0
  0
ARC
  5
130
330
584
100
AcDbEntity
  8
DV3_0
  6
HIDDEN2
 62
     7
100
AcDbCircle
 10
220.3231445001915
 20
176.2148534210949
 30
0.0
 40
0.4
100
AcDbArc
 50
90.0
 51
180.0
  0
ARC
  5
131
330
584
100
AcDbEntity
  8
DV3_0
  6
Continuous
 62
     7
100
AcDbCircle
 10
211.6246877876505
 20
176.22795684477
 30
0.0
 40
0.4
100
AcDbArc
 50
104.7059397811239
 51
163.3007557660122
  0
LINE
  5
132
330
584
100
AcDbEntity
  8
DV3_0
  6
Continuous
 62
     7
100
AcDbLine
 10
221.1231445001915
 20
174.6148534210949
 30
0.0
 11
220.6047317268211
 21
176.3428959989965
 31
0.0
  0
ENDBLK
  5
133
330
584
100
AcDbEntity
  8
DV3_0
  6
Continuous
 62
     7
100
AcDbBlockEnd
  0
BLOCK
  5
37B
330
585
100
AcDbEntity
  8
0
 62
     1
100
AcDbBlockBegin
  2
SE7
 70
     0
 10
0.0
 20
0.0
 30
0.0
  3
SE7
  1

  0
ENDBLK
  5
37C
330
585
100
AcDbEntity
  8
0
 62
     1
100
AcDbBlockEnd
  0
BLOCK
  5
136
330
586
100
AcDbEntity
  8
0
 62
     1
100
AcDbBlockBegin
  2
SE8
 70
     0
 10
0.0
 20
0.0
 30
0.0
  3
SE8
  1

  0
LWPOLYLINE
  5
137
330
586
100
AcDbEntity
  8
DV4_0
  6
Continuous
 62
     7
100
AcDbPolyline
 90
       33
 70
     0
 43
0.0
 10
60.03271871622529
 20
60.79622633535482
 10
60.01657736872934
 20
61.0034864270823
 10
59.96610733840814
 20
61.21593017811473
 10
59.87871371155472
 20
61.43087124812118
 10
59.7526178047211
 20
61.64521608233009
 10
59.58706712693672
 20
61.85556691251785
 10
59.38249725619617
 20
62.05836522538098
 10
59.14061943854712
 20
62.25006643433292
 10
58.86441435356869
 20
62.42733023736398
 10
58.55802399190015
 20
62.58720681772068
 10
58.22654799392218
 20
62.72729798086821
 10
57.87576502406864
 20
62.84587511072603
 10
57.51181051268772
 20
62.94194202463227
 10
57.14084696185584
 20
63.01523901304374
 10
56.76876120318514
 20
63.06619266824659
 10
56.40091552963472
 20
63.09582275694648
 10
56.04196880750014
 20
63.10562123704139
 10
55.68294743089676
 20
63.09678134432955
 10
55.31486833115277
 20
63.06813381767358
 10
54.94237837296943
 20
63.01817427472883
 10
54.57083162281376
 20
62.94586864095776
 10
54.20611143199279
 20
62.85077460924099
 10
53.85438231715103
 20
62.73313543083535
 10
53.52178762322775
 20
62.593930894528
 10
53.21411980043589
 20
62.43487416735016
 10
52.93649764605188
 20
62.25834980079961
 10
52.69308673678448
 20
62.06729651987063
 10
52.48689447879952
 20
61.86504663164464
 10
52.31966049479004
 20
61.65514011531795
 10
52.191848864604
 20
61.4411342830255
 10
52.10273432413572
 20
61.2264288759998
 10
52.05056299078683
 20
61.01412216547982
 10
52.03276149831959
 20
60.80690739216996
  0
LWPOLYLINE
  5
15A
330
586
100
AcDbEntity
  8
DV4_0
  6
Continuous
 62
     7
100
AcDbPolyline
 90
        3
 70
     0
 43
0.0
 10
52.03276149831959
 20
60.80690739216996
 10
52.03272941176315
 20
60.80156687804233
 10
52.03271871622529
 20
60.79622633535482
  0
LWPOLYLINE
  5
15F
330
586
100
AcDbEntity
  8
DV4_0
  6
Continuous
 62
     7
100
AcDbPolyline
 90
        3
 70
     0
 43
0.0
 10
60.03271716997885
 20
60.79419573863608
 10
60.03271832966368
 20
60.79521103689763
 10
60.03271871622529
 20
60.79622633535482
  0
LWPOLYLINE
  5
164
330
586
100
AcDbEntity
  8
DV4_0
  6
Continuous
 62
     7
100
AcDbPolyline
 90
       33
 70
     0
 43
0.0
 10
51.35113148959576
 20
60.90077266242465
 10
51.37218817473743
 20
60.64470364021932
 10
51.43841739481809
 20
60.38126830612065
 10
51.55375186881923
 20
60.11419464332806
 10
51.72093915913478
 20
59.84786937284923
 10
51.941178642725
 20
59.58718231691094
 10
52.21383415590175
 20
59.33729580240386
 10
52.53627445000283
 20
59.10335447200647
 10
52.90388172710583
 20
58.89016429213341
 10
53.31024536292171
 20
58.7018791678772
 10
53.74752778489017
 20
58.54173603928937
 10
54.20695971074121
 20
58.41187310542962
 10
54.67940051544687
 20
58.31325204685602
 10
55.15589194390305
 20
58.24568736738076
 10
55.62814084548936
 20
58.20796893724363
 10
56.08888564647098
 20
58.19805154988625
 10
56.53212565630692
 20
58.21327992328816
 10
56.97087323475763
 20
58.25268372510317
 10
57.41748807060421
 20
58.31880488598558
 10
57.86513043002496
 20
58.41350332493381
 10
58.30595254846503
 20
58.53788834416039
 10
58.73140538893528
 20
58.6921268327306
 10
59.13266642148011
 20
58.87530290742763
 10
59.50115639642543
 20
59.08535728120503
 10
59.82909123597091
 20
59.31912640489642
 10
60.11000107047628
 20
59.57248710524289
 10
60.33914741714663
 20
59.84059487789653
 10
60.51378339927204
 20
60.11818757293144
 10
60.63322791516168
 20
60.39991537368795
 10
60.69875603958287
 20
60.6806555287779
 10
60.71333648830105
 20
60.95577639644678
 10
60.68126607619375
 20
61.22132759930279
 10
60.60775776603859
 20
61.47414765700317
  0
LWPOLYLINE
  5
187
330
586
100
AcDbEntity
  8
DV4_0
  6
Continuous
 62
     7
100
AcDbPolyline
 90
        3
 70
     0
 43
0.0
 10
60.60775776603859
 20
61.47414765700317
 10
60.59938053242152
 20
61.4959921785237
 10
60.59069040013366
 20
61.51779591677567
  0
LWPOLYLINE
  5
18C
330
586
100
AcDbEntity
  8
DV4_0
  6
Continuous
 62
     7
100
AcDbPolyline
 90
        3
 70
     0
 43
0.0
 10
51.4675354039511
 20
61.49976077746359
 10
51.4625537048656
 20
61.48696112173454
 10
51.45767966641198
 20
61.47414765700319
  0
LWPOLYLINE
  5
191
330
586
100
AcDbEntity
  8
DV4_0
  6
Continuous
 62
     7
100
AcDbPolyline
 90
        3
 70
     0
 43
0.0
 10
51.45767966641198
 20
61.47414765700319
 10
51.3778447470679
 20
61.18910539371594
 10
51.35113148959576
 20
60.90077266242465
  0
LINE
  5
196
330
586
100
AcDbEntity
  8
DV4_0
  6
Continuous
 62
     7
100
AcDbLine
 10
48.24882149154877
 20
41.76855203683159
 30
0.0
 11
47.54171471036221
 21
41.36030374636764
 31
0.0
  0
LINE
  5
197
330
586
100
AcDbEntity
  8
DV4_0
  6
Continuous
 62
     7
100
AcDbLine
 10
61.68957296571768
 20
40.54711112834904
 30
0.0
 11
61.68957296571768
 21
35.6481316427824
 31
0.0
  0
LINE
  5
198
330
586
100
AcDbEntity
  8
DV4_0
  6
Continuous
 62
     7
100
AcDbLine
 10
57.4469322785984
 20
42.99660087113193
 30
0.0
 11
57.4469322785984
 21
38.0976213855653
 31
0.0
  0
LINE
  5
199
330
586
100
AcDbEntity
  8
DV4_0
  6
Continuous
 62
     7
100
AcDbLine
 10
57.4469322785984
 20
38.09762138556529
 30
0.0
 11
61.68957296571768
 21
35.64813164278239
 31
0.0
  0
LINE
  5
19A
330
586
100
AcDbEntity
  8
DV4_0
  6
Continuous
 62
     7
100
AcDbLine
 10
57.4469322785984
 20
42.99660087113193
 30
0.0
 11
61.68957296571768
 21
40.54711112834903
 31
0.0
  0
LWPOLYLINE
  5
19B
330
586
100
AcDbEntity
  8
DV4_0
  6
Continuous
 62
     7
100
AcDbPolyline
 90
        9
 70
     0
 43
0.0
 10
81.7714055514156
 20
47.24238309195505
 10
81.88826797249959
 20
47.32348475183374
 10
81.98204064822833
 20
47.42132093392429
 10
82.04307969938456
 20
47.53232684218258
 10
82.06429877022909
 20
47.65063138241887
 10
82.04307969938456
 20
47.76893592265516
 10
81.98204064822835
 20
47.87994183091345
 10
81.88826797249962
 20
47.97777801300399
 10
81.77140555141562
 20
48.05887967288268
  0
LINE
  5
1A6
330
586
100
AcDbEntity
  8
DV4_0
  6
Continuous
 62
     7
100
AcDbLine
 10
54.6185051538522
 20
42.99660087113192
 30
0.0
 11
54.6185051538522
 21
38.09762138556529
 31
0.0
  0
LWPOLYLINE
  5
1A7
330
586
100
AcDbEntity
  8
DV4_0
  6
Continuous
 62
     7
100
AcDbPolyline
 90
        9
 70
     0
 43
0.0
 10
57.4469322785984
 20
38.0976213855653
 10
57.16598788762222
 20
38.23256248610726
 10
56.82707341122344
 20
38.34084184525648
 10
56.44253766513601
 20
38.41132367048871
 10
56.0327187162253
 20
38.4358253430168
 10
55.62289976731459
 20
38.41132367048871
 10
55.23836402122715
 20
38.34084184525648
 10
54.89944954482837
 20
38.23256248610726
 10
54.61850515385219
 20
38.0976213855653
  0
LINE
  5
1B2
330
586
100
AcDbEntity
  8
DV4_0
  6
Continuous
 62
     7
100
AcDbLine
 10
50.83271871622528
 20
59.48983180587038
 30
0.0
 11
50.83271871622528
 21
52.9578591584482
 31
0.0
  0
LINE
  5
1B3
330
586
100
AcDbEntity
  8
DV4_0
  6
Continuous
 62
     7
100
AcDbLine
 10
50.37586446673316
 20
35.64813164278253
 30
0.0
 11
54.6185051538522
 21
38.09762138556529
 31
0.0
  0
LINE
  5
1B4
330
586
100
AcDbEntity
  8
DV4_0
  6
Continuous
 62
     7
100
AcDbLine
 10
61.68957296571768
 20
40.54711112834904
 30
0.0
 11
63.81089330927733
 21
41.77185599974047
 31
0.0
  0
LINE
  5
1B5
330
586
100
AcDbEntity
  8
DV4_0
  6
Continuous
 62
     7
100
AcDbLine
 10
48.24882149154877
 20
41.76855203683159
 30
0.0
 11
50.37014183510841
 21
40.54380716544015
 31
0.0
  0
LINE
  5
1B6
330
586
100
AcDbEntity
  8
DV4_0
  6
Continuous
 62
     7
100
AcDbLine
 10
50.37014183510841
 20
40.54380716544015
 30
0.0
 11
54.6185051538522
 21
42.99660087113193
 31
0.0
  0
LWPOLYLINE
  5
1B7
330
586
100
AcDbEntity
  8
DV4_0
  6
Continuous
 62
     7
100
AcDbPolyline
 90
        9
 70
     0
 43
0.0
 10
57.4469322785984
 20
42.99660087113192
 10
57.16598788762222
 20
43.13154197167388
 10
56.82707341122345
 20
43.23982133082309
 10
56.44253766513602
 20
43.31030315605532
 10
56.0327187162253
 20
43.33480482858341
 10
55.62289976731459
 20
43.31030315605532
 10
55.23836402122715
 20
43.23982133082309
 10
54.89944954482837
 20
43.13154197167388
 10
54.61850515385219
 20
42.99660087113192
  0
LINE
  5
1C2
330
586
100
AcDbEntity
  8
DV4_0
  6
Continuous
 62
     7
100
AcDbLine
 10
64.51800009046387
 20
41.36360770927652
 30
0.0
 11
64.51800009046387
 21
37.28112480463766
 31
0.0
  0
LINE
  5
1C3
330
586
100
AcDbEntity
  8
DV4_0
  6
Continuous
 62
     7
100
AcDbLine
 10
47.54171471036221
 20
41.36030374636763
 30
0.0
 11
47.54171471036221
 21
37.28442876754682
 31
0.0
  0
LINE
  5
1C4
330
586
100
AcDbEntity
  8
DV4_0
  6
Continuous
 62
     7
100
AcDbLine
 10
50.37014183510841
 20
40.54380716544015
 30
0.0
 11
50.37014183510841
 21
35.65143560569155
 31
0.0
  0
LINE
  5
1C5
330
586
100
AcDbEntity
  8
DV4_0
  6
Continuous
 62
     7
100
AcDbLine
 10
81.77140555141562
 20
48.0588796728827
 30
0.0
 11
61.17051553607694
 21
59.95280906878299
 31
0.0
  0
LINE
  5
1C6
330
586
100
AcDbEntity
  8
DV4_0
  6
Continuous
 62
     7
100
AcDbLine
 10
30.29403188103496
 20
47.24238309195505
 30
0.0
 11
55.32561193503873
 21
32.79039360953597
 31
0.0
  0
LWPOLYLINE
  5
1C7
330
586
100
AcDbEntity
  8
DV4_0
  6
Continuous
 62
     7
100
AcDbPolyline
 90
        9
 70
     0
 43
0.0
 10
30.29403188103496
 20
48.05887967288268
 10
30.17716945995097
 20
47.97777801300399
 10
30.08339678422224
 20
47.87994183091345
 10
30.02235773306604
 20
47.76893592265516
 10
30.00113866222151
 20
47.65063138241886
 10
30.02235773306604
 20
47.53232684218256
 10
30.08339678422224
 20
47.42132093392427
 10
30.17716945995098
 20
47.32348475183374
 10
30.29403188103496
 20
47.24238309195505
  0
LINE
  5
1D2
330
586
100
AcDbEntity
  8
DV4_0
  6
Continuous
 62
     7
100
AcDbLine
 10
50.89492189637364
 20
59.95280906878298
 30
0.0
 11
30.29403188103496
 21
48.05887967288269
 31
0.0
  0
LINE
  5
1D3
330
586
100
AcDbEntity
  8
DV4_0
  6
Continuous
 62
     7
100
AcDbLine
 10
81.06429877022881
 20
46.8341348014911
 30
0.0
 11
61.23271871622527
 21
58.28390288412435
 31
0.0
  0
LINE
  5
1D4
330
586
100
AcDbEntity
  8
DV4_0
  6
Continuous
 62
     7
100
AcDbLine
 10
56.73982549741183
 20
32.79039360953596
 30
0.0
 11
81.77140555141562
 21
47.24238309195505
 31
0.0
  0
LWPOLYLINE
  5
1D5
330
586
100
AcDbEntity
  8
DV4_0
  6
Continuous
 62
     7
100
AcDbPolyline
 90
        9
 70
     0
 43
0.0
 10
55.32561193503873
 20
32.79039360953597
 10
55.46608413052681
 20
32.72292305926499
 10
55.63554136872621
 20
32.66878337969039
 10
55.82780924176993
 20
32.63354246707427
 10
56.0327187162253
 20
32.62129163081024
 10
56.23762819068065
 20
32.63354246707427
 10
56.42989606372437
 20
32.66878337969039
 10
56.59935330192375
 20
32.72292305926499
 10
56.73982549741183
 20
32.79039360953597
  0
LINE
  5
1E0
330
586
100
AcDbEntity
  8
DV4_0
  6
Continuous
 62
     7
100
AcDbLine
 10
50.83271871622528
 20
58.28390288412435
 30
0.0
 11
31.00113866222175
 21
46.8341348014911
 31
0.0
  0
LINE
  5
1E1
330
586
100
AcDbEntity
  8
DV4_0
  6
Continuous
 62
     7
100
AcDbLine
 10
30.29403188103496
 20
47.24238309195505
 30
0.0
 11
30.29403188103496
 21
48.05887967288268
 31
0.0
  0
LINE
  5
1E2
330
586
100
AcDbEntity
  8
DV4_0
  6
Continuous
 62
     7
100
AcDbLine
 10
81.7714055514156
 20
47.24238309195506
 30
0.0
 11
81.7714055514156
 21
48.0588796728827
 31
0.0
  0
LWPOLYLINE
  5
1E3
330
586
100
AcDbEntity
  8
DV4_0
  6
Continuous
 62
     7
100
AcDbPolyline
 90
        9
 70
     0
 43
0.0
 10
85.10988318250053
 20
44.57426254758916
 10
85.2474499874423
 20
44.66443461918969
 10
85.37144135867052
 20
44.76879094650903
 10
85.47951982255893
 20
44.88631182525357
 10
85.56972762981519
 20
45.01554655261343
 10
85.64059739279981
 20
45.15466905094697
 10
85.69122995190589
 20
45.30156270089236
 10
85.72133100486402
 20
45.45392625948382
 10
85.7312035260603
 20
45.60938993009953
  0
LWPOLYLINE
  5
1EE
330
586
100
AcDbEntity
  8
DV4_0
  6
Continuous
 62
     7
100
AcDbPolyline
 90
        6
 70
     0
 43
0.0
 10
55.32561193503876
 20
28.87121002108305
 10
55.33890177074248
 20
28.57911562284649
 10
55.3792956676693
 20
28.34006341598114
 10
55.44522045637221
 20
28.16961833179996
 10
55.48644858032345
 20
28.11289719787522
 10
55.53219549938587
 20
28.07553229544331
  0
LWPOLYLINE
  5
1F6
330
586
100
AcDbEntity
  8
DV4_0
  6
Continuous
 62
     7
100
AcDbPolyline
 90
        7
 70
     0
 43
0.0
 10
56.53342953386681
 20
28.0756416780962
 10
56.57913747512672
 20
28.11305751528958
 10
56.62032890439248
 20
28.16981050406663
 10
56.65622991866745
 20
28.24577663007515
 10
56.68619251622335
 20
28.34025896572206
 10
56.72654809818746
 20
28.57924015835561
 10
56.73982549741185
 20
28.87121002108305
  0
LWPOLYLINE
  5
1FF
330
586
100
AcDbEntity
  8
DV4_0
  6
Continuous
 62
     7
100
AcDbPolyline
 90
        9
 70
     0
 43
0.0
 10
85.73120352606029
 20
47.24238309195505
 10
85.84806594714427
 20
47.32348475183374
 10
85.941838622873
 20
47.42132093392428
 10
86.00287767402919
 20
47.53232684218257
 10
86.02409674487374
 20
47.65063138241887
 10
86.00287767402919
 20
47.76893592265516
 10
85.941838622873
 20
47.87994183091347
 10
85.84806594714427
 20
47.97777801300401
 10
85.73120352606029
 20
48.05887967288271
  0
LINE
  5
20A
330
586
100
AcDbEntity
  8
DV4_0
  6
Continuous
 62
     7
100
AcDbLine
 10
85.73120352606029
 20
47.24238309195507
 30
0.0
 11
56.73982549741185
 21
30.5042031829386
 31
0.0
  0
POLYLINE
  5
20B
330
586
100
AcDbEntity
  8
DV4_0
  6
Continuous
 62
     7
100
AcDb2dPolyline
 66
     1
 10
0.0
 20
0.0
 30
0.0
 70
     4
  0
VERTEX
  5
20C
330
20B
100
AcDbEntity
  8
DV4_0
  6
Continuous
 62
     7
100
AcDbVertex
100
AcDb2dVertex
 10
58.94398855344611
 20
59.34634401882782
 30
0.0
 70
     8
  0
VERTEX
  5
20D
330
20B
100
AcDbEntity
  8
DV4_0
  6
Continuous
 62
     7
100
AcDbVertex
100
AcDb2dVertex
 10
58.64058814269236
 20
59.18924167606211
 30
0.0
 70
     8
  0
VERTEX
  5
20E
330
20B
100
AcDbEntity
  8
DV4_0
  6
Continuous
 62
     7
100
AcDbVertex
100
AcDb2dVertex
 10
58.31928672978651
 20
59.05068699617847
 30
0.0
 70
     8
  0
VERTEX
  5
20F
330
20B
100
AcDbEntity
  8
DV4_0
  6
Continuous
 62
     7
100
AcDbVertex
100
AcDb2dVertex
 10
57.9819825924982
 20
58.93142134718949
 30
0.0
 70
     8
  0
VERTEX
  5
210
330
20B
100
AcDbEntity
  8
DV4_0
  6
Continuous
 62
     7
100
AcDbVertex
100
AcDb2dVertex
 10
57.63057400859704
 20
58.83218609710784
 30
0.0
 70
     8
  0
VERTEX
  5
211
330
20B
100
AcDbEntity
  8
DV4_0
  6
Continuous
 62
     7
100
AcDbVertex
100
AcDb2dVertex
 10
57.26695925585268
 20
58.75372261394611
 30
0.0
 70
     8
  0
VERTEX
  5
212
330
20B
100
AcDbEntity
  8
DV4_0
  6
Continuous
 62
     7
100
AcDbVertex
100
AcDb2dVertex
 10
56.89303661203472
 20
58.69677226571694
 30
0.0
 70
     8
  0
VERTEX
  5
213
330
20B
100
AcDbEntity
  8
DV4_0
  6
Continuous
 62
     7
100
AcDbVertex
100
AcDb2dVertex
 10
56.5107043549128
 20
58.66207642043296
 30
0.0
 70
     8
  0
VERTEX
  5
214
330
20B
100
AcDbEntity
  8
DV4_0
  6
Continuous
 62
     7
100
AcDbVertex
100
AcDb2dVertex
 10
56.12186076225652
 20
58.65037644610681
 30
0.0
 70
     8
  0
VERTEX
  5
215
330
20B
100
AcDbEntity
  8
DV4_0
  6
Continuous
 62
     7
100
AcDbVertex
100
AcDb2dVertex
 10
55.70870105656204
 20
58.6632595530558
 30
0.0
 70
     8
  0
VERTEX
  5
216
330
20B
100
AcDbEntity
  8
DV4_0
  6
Continuous
 62
     7
100
AcDbVertex
100
AcDb2dVertex
 10
55.29568364603779
 20
58.70070305819861
 30
0.0
 70
     8
  0
VERTEX
  5
217
330
20B
100
AcDbEntity
  8
DV4_0
  6
Continuous
 62
     7
100
AcDbVertex
100
AcDb2dVertex
 10
54.88804773094675
 20
58.76104040564186
 30
0.0
 70
     8
  0
VERTEX
  5
218
330
20B
100
AcDbEntity
  8
DV4_0
  6
Continuous
 62
     7
100
AcDbVertex
100
AcDb2dVertex
 10
54.49103251155193
 20
58.84260503949217
 30
0.0
 70
     8
  0
VERTEX
  5
219
330
20B
100
AcDbEntity
  8
DV4_0
  6
Continuous
 62
     7
100
AcDbVertex
100
AcDb2dVertex
 10
54.10987718811631
 20
58.94373040385615
 30
0.0
 70
     8
  0
VERTEX
  5
21A
330
20B
100
AcDbEntity
  8
DV4_0
  6
Continuous
 62
     7
100
AcDbVertex
100
AcDb2dVertex
 10
53.74982096090292
 20
59.06274994284039
 30
0.0
 70
     8
  0
VERTEX
  5
21B
330
20B
100
AcDbEntity
  8
DV4_0
  6
Continuous
 62
     7
100
AcDbVertex
100
AcDb2dVertex
 10
53.41610303017471
 20
59.19799710055152
 30
0.0
 70
     8
  0
VERTEX
  5
21C
330
20B
100
AcDbEntity
  8
DV4_0
  6
Continuous
 62
     7
100
AcDbVertex
100
AcDb2dVertex
 10
53.11396259619471
 20
59.34780532109614
 30
0.0
 70
     8
  0
VERTEX
  5
21D
330
20B
100
AcDbEntity
  8
DV4_0
  6
Continuous
 62
     7
100
AcDbVertex
100
AcDb2dVertex
 10
52.8571094850397
 20
59.50419786456991
 30
0.0
 70
     8
  0
VERTEX
  5
21E
330
20B
100
AcDbEntity
  8
DV4_0
  6
Continuous
 62
     7
100
AcDbVertex
100
AcDb2dVertex
 10
52.63462887630751
 20
59.67100562670749
 30
0.0
 70
     8
  0
VERTEX
  5
21F
330
20B
100
AcDbEntity
  8
DV4_0
  6
Continuous
 62
     7
100
AcDbVertex
100
AcDb2dVertex
 10
52.44678107169414
 20
59.84669652930136
 30
0.0
 70
     8
  0
VERTEX
  5
220
330
20B
100
AcDbEntity
  8
DV4_0
  6
Continuous
 62
     7
100
AcDbVertex
100
AcDb2dVertex
 10
52.29382637289553
 20
60.02973849414402
 30
0.0
 70
     8
  0
VERTEX
  5
221
330
20B
100
AcDbEntity
  8
DV4_0
  6
Continuous
 62
     7
100
AcDbVertex
100
AcDb2dVertex
 10
52.17602508160767
 20
60.21859944302793
 30
0.0
 70
     8
  0
VERTEX
  5
222
330
20B
100
AcDbEntity
  8
DV4_0
  6
Continuous
 62
     7
100
AcDbVertex
100
AcDb2dVertex
 10
52.09363749952652
 20
60.41174729774557
 30
0.0
 70
     8
  0
VERTEX
  5
223
330
20B
100
AcDbEntity
  8
DV4_0
  6
Continuous
 62
     7
100
AcDbVertex
100
AcDb2dVertex
 10
52.04692392834803
 20
60.60764998008941
 30
0.0
 70
     8
  0
VERTEX
  5
224
330
20B
100
AcDbEntity
  8
DV4_0
  6
Continuous
 62
     7
100
AcDbVertex
100
AcDb2dVertex
 10
52.03614466976818
 20
60.80477541185197
 30
0.0
 70
     8
  0
SEQEND
  5
225
330
20B
100
AcDbEntity
  8
DV4_0
  6
Continuous
 62
     7
  0
POLYLINE
  5
226
330
586
100
AcDbEntity
  8
DV4_0
  6
Continuous
 62
     7
100
AcDb2dPolyline
 66
     1
 10
0.0
 20
0.0
 30
0.0
 70
     4
  0
VERTEX
  5
227
330
226
100
AcDbEntity
  8
DV4_0
  6
Continuous
 62
     7
100
AcDbVertex
100
AcDb2dVertex
 10
52.79325082615068
 20
62.90817300202535
 30
0.0
 70
     8
  0
VERTEX
  5
228
330
226
100
AcDbEntity
  8
DV4_0
  6
Continuous
 62
     7
100
AcDbVertex
100
AcDb2dVertex
 10
52.33923789936524
 20
62.60250008438176
 30
0.0
 70
     8
  0
VERTEX
  5
229
330
226
100
AcDbEntity
  8
DV4_0
  6
Continuous
 62
     7
100
AcDbVertex
100
AcDb2dVertex
 10
51.98113728232111
 20
62.28084428505527
 30
0.0
 70
     8
  0
VERTEX
  5
22A
330
226
100
AcDbEntity
  8
DV4_0
  6
Continuous
 62
     7
100
AcDbVertex
100
AcDb2dVertex
 10
51.82695087129912
 20
62.10727247397584
 30
0.0
 70
     8
  0
VERTEX
  5
22B
330
226
100
AcDbEntity
  8
DV4_0
  6
Continuous
 62
     7
100
AcDbVertex
100
AcDb2dVertex
 10
51.68991216463207
 20
61.92217663367483
 30
0.0
 70
     8
  0
VERTEX
  5
22C
330
226
100
AcDbEntity
  8
DV4_0
  6
Continuous
 62
     7
100
AcDbVertex
100
AcDb2dVertex
 10
51.57124957701487
 20
61.72187602263238
 30
0.0
 70
     8
  0
VERTEX
  5
22D
330
226
100
AcDbEntity
  8
DV4_0
  6
Continuous
 62
     7
100
AcDbVertex
100
AcDb2dVertex
 10
51.47219152314246
 20
61.50268989932861
 30
0.0
 70
     8
  0
SEQEND
  5
22E
330
226
100
AcDbEntity
  8
DV4_0
  6
Continuous
 62
     7
  0
LINE
  5
22F
330
586
100
AcDbEntity
  8
DV4_0
  6
Continuous
 62
     7
100
AcDbLine
 10
51.45767966641198
 20
61.47414765700317
 30
0.0
 11
50.95106544194532
 21
60.12669913899383
 31
0.0
  0
LINE
  5
230
330
586
100
AcDbEntity
  8
DV4_0
  6
Continuous
 62
     7
100
AcDbLine
 10
56.73982549741182
 20
64.79705958189916
 30
0.0
 11
85.73120352606029
 21
48.05887967288271
 31
0.0
  0
LWPOLYLINE
  5
231
330
586
100
AcDbEntity
  8
DV4_0
  6
Continuous
 62
     7
100
AcDbPolyline
 90
        9
 70
     0
 43
0.0
 10
55.32561193503874
 20
30.5042031829386
 10
55.46608413052682
 20
30.43673263266762
 10
55.63554136872621
 20
30.38259295309301
 10
55.82780924176993
 20
30.3473520404769
 10
56.0327187162253
 20
30.33510120421285
 10
56.23762819068065
 20
30.3473520404769
 10
56.42989606372437
 20
30.38259295309301
 10
56.59935330192376
 20
30.43673263266762
 10
56.73982549741185
 20
30.5042031829386
  0
LINE
  5
23C
330
586
100
AcDbEntity
  8
DV4_0
  6
Continuous
 62
     7
100
AcDbLine
 10
85.73120352606029
 20
47.24238309195507
 30
0.0
 11
85.73120352606029
 21
45.60938993009952
 31
0.0
  0
LINE
  5
23D
330
586
100
AcDbEntity
  8
DV4_0
  6
Continuous
 62
     7
100
AcDbLine
 10
26.3342339063903
 20
47.24238309195505
 30
0.0
 11
26.3342339063903
 21
45.6093899300995
 31
0.0
  0
LINE
  5
23E
330
586
100
AcDbEntity
  8
DV4_0
  6
Continuous
 62
     7
100
AcDbLine
 10
55.32561193503875
 20
30.5042031829386
 30
0.0
 11
55.32561193503875
 21
28.87121002108305
 31
0.0
  0
LINE
  5
23F
330
586
100
AcDbEntity
  8
DV4_0
  6
Continuous
 62
     7
100
AcDbLine
 10
56.73982549741184
 20
30.5042031829386
 30
0.0
 11
56.73982549741184
 21
28.87121002108305
 31
0.0
  0
LWPOLYLINE
  5
240
330
586
100
AcDbEntity
  8
DV4_0
  6
Continuous
 62
     7
100
AcDbPolyline
 90
        5
 70
     0
 43
0.0
 10
85.73120352606029
 20
45.60938993009951
 10
85.85450323275665
 20
45.69596288481733
 10
85.94797627738504
 20
45.79669583787297
 10
86.00525302130519
 20
45.90608500274153
 10
86.02409674487374
 20
46.01763822056333
  0
LINE
  5
247
330
586
100
AcDbEntity
  8
DV4_0
  6
Continuous
 62
     7
100
AcDbLine
 10
56.73982549741186
 20
28.87121002108305
 30
0.0
 11
85.73120352606029
 21
45.6093899300995
 31
0.0
  0
LINE
  5
248
330
586
100
AcDbEntity
  8
DV4_0
  6
Continuous
 62
     7
100
AcDbLine
 10
26.3342339063903
 20
45.6093899300995
 30
0.0
 11
55.32561193503876
 21
28.87121002108304
 31
0.0
  0
LWPOLYLINE
  5
249
330
586
100
AcDbEntity
  8
DV4_0
  6
Continuous
 62
     7
100
AcDbPolyline
 90
        9
 70
     0
 43
0.0
 10
55.32561193503875
 20
28.87121002108305
 10
55.46608413052682
 20
28.80373947081207
 10
55.63554136872622
 20
28.74959979123746
 10
55.82780924176994
 20
28.71435887862135
 10
56.0327187162253
 20
28.7021080423573
 10
56.23762819068065
 20
28.71435887862136
 10
56.42989606372436
 20
28.74959979123746
 10
56.59935330192376
 20
28.80373947081207
 10
56.73982549741185
 20
28.87121002108305
  0
LWPOLYLINE
  5
254
330
586
100
AcDbEntity
  8
DV4_0
  6
Continuous
 62
     7
100
AcDbPolyline
 90
        5
 70
     0
 43
0.0
 10
26.04134068757684
 20
46.01763822056332
 10
26.0601844111454
 20
45.90608500274153
 10
26.11746115506555
 20
45.79669583787294
 10
26.21093419969394
 20
45.69596288481731
 10
26.33423390639029
 20
45.6093899300995
  0
LWPOLYLINE
  5
25B
330
586
100
AcDbEntity
  8
DV4_0
  6
Continuous
 62
     7
100
AcDbPolyline
 90
       38
 70
     0
 43
0.0
 10
50.83271871622528
 20
59.48983180587038
 10
50.85610710085558
 20
59.20540713299585
 10
50.92967017417833
 20
58.91280044406753
 10
51.05777614246928
 20
58.61615253828426
 10
51.2434768178077
 20
58.32033589759186
 10
51.48810438944725
 20
58.03078181576925
 10
51.79095224849267
 20
57.75322426690088
 10
52.14909777652819
 20
57.49337758260825
 10
52.55741182652865
 20
57.25657991513466
 10
53.00877389754234
 20
57.04744514977922
 10
53.49447852807913
 20
56.86956866722219
 10
54.0047853746196
 20
56.72532543872279
 10
54.52954163046708
 20
56.61578363596289
 10
55.05879705347368
 20
56.54073722194482
 10
55.58334015592414
 20
56.49884206391007
 10
56.0951052580409
 20
56.48782648057009
 10
56.58742718638961
 20
56.50474115883124
 10
57.07475921663915
 20
56.54850831717286
 10
57.57082968034687
 20
56.62195136542642
 10
58.0680414498398
 20
56.7271361796129
 10
58.55767774302893
 20
56.86529489986468
 10
59.03024285040554
 20
57.03661289560828
 10
59.47593728441384
 20
57.24007286384437
 10
59.88523177727652
 20
57.47338748360186
 10
60.24948028597389
 20
57.73304289198144
 10
60.56149650370429
 20
58.01445933858906
 10
60.6961883487839
 20
58.16166879049886
 10
60.81601723460257
 20
58.312255865773
 10
60.92067322534582
 20
58.46547823462532
 10
61.00999142820228
 20
58.62058762256924
 10
61.08394957764502
 20
58.77684120643712
 10
61.14266256142248
 20
58.93351238355646
 10
61.18637422828901
 20
59.08990061888315
 10
61.21544690367546
 20
59.24534013252244
 10
61.2303490967322
 20
59.39920725505473
 10
61.2316419096989
 20
59.55092634562138
 10
61.19602019960677
 20
59.84588320277373
 10
61.11437199050526
 20
60.12669913899382
  0
LWPOLYLINE
  5
283
330
586
100
AcDbEntity
  8
DV4_0
  6
Continuous
 62
     7
100
AcDbPolyline
 90
        5
 70
     0
 43
0.0
 10
50.95106544194531
 20
60.12669913899384
 10
50.89943149876453
 20
59.96919330587288
 10
50.86239005035423
 20
59.81009289044149
 10
50.84013124761853
 20
59.6500768066953
 10
50.83271871622528
 20
59.48983180587038
  0
LWPOLYLINE
  5
28A
330
586
100
AcDbEntity
  8
DV4_0
  6
Continuous
 62
     7
100
AcDbPolyline
 90
       33
 70
     0
 43
0.0
 10
50.83271871622528
 20
52.9578591584482
 10
50.85375319143832
 20
52.688096242126
 10
50.9195308004591
 20
52.41156578852613
 10
51.03344413365271
 20
52.1317732775126
 10
51.19781955070065
 20
51.85275734425364
 10
51.41364188071056
 20
51.57895510236961
 10
51.6803420578883
 20
51.31501432666389
 10
51.99568214083609
 20
51.0655646351276
 10
52.35576345405524
 20
50.83496804803636
 10
52.75516845894928
 20
50.62707500491916
 10
53.18722799862255
 20
50.44501332314299
 10
53.64438683233408
 20
50.29103390405651
 10
54.11862622650355
 20
50.16642882372818
 10
54.60189599902936
 20
50.07152663244741
 10
55.08651084368214
 20
50.00575873886379
 10
55.56547563915723
 20
49.967782018589
 10
56.03271871622528
 20
49.95563775866249
 10
56.49996179329335
 20
49.967782018589
 10
56.97892658876844
 20
50.00575873886379
 10
57.4635414334212
 20
50.07152663244741
 10
57.94681120594702
 20
50.16642882372818
 10
58.4210506001165
 20
50.29103390405651
 10
58.87820943382803
 20
50.44501332314299
 10
59.31026897350128
 20
50.62707500491916
 10
59.70967397839533
 20
50.83496804803636
 10
60.06975529161447
 20
51.0655646351276
 10
60.38509537456228
 20
51.31501432666389
 10
60.65179555174001
 20
51.57895510236961
 10
60.86761788174992
 20
51.85275734425364
 10
61.03199329879785
 20
52.1317732775126
 10
61.14590663199148
 20
52.41156578852613
 10
61.21168424101226
 20
52.688096242126
 10
61.23271871622528
 20
52.9578591584482
  0
LWPOLYLINE
  5
2AD
330
586
100
AcDbEntity
  8
DV4_0
  6
Continuous
 62
     7
100
AcDbPolyline
 90
       17
 70
     0
 43
0.0
 10
58.15403905978493
 20
45.037842323451
 10
57.95484807806236
 20
45.1429368805073
 10
57.7326224733207
 20
45.24025397426396
 10
57.48845516565545
 20
45.32756450791331
 10
57.22425075872249
 20
45.40267301298777
 10
56.94274268683527
 20
45.46353743106652
 10
56.64744713959136
 20
45.50839575083611
 10
56.34254828877696
 20
45.53588643468535
 10
56.03271871622529
 20
45.54514825962824
 10
55.72288914367362
 20
45.53588643468535
 10
55.41799029285924
 20
45.50839575083611
 10
55.12269474561533
 20
45.46353743106652
 10
54.84118667372809
 20
45.40267301298777
 10
54.57698226679515
 20
45.32756450791331
 10
54.33281495912991
 20
45.24025397426396
 10
54.11058935438823
 20
45.1429368805073
 10
53.91139837266566
 20
45.037842323451
  0
LINE
  5
2C0
330
586
100
AcDbEntity
  8
DV4_0
  6
Continuous
 62
     7
100
AcDbLine
 10
53.91139837266565
 20
45.037842323451
 30
0.0
 11
48.24882149154876
 21
41.76855203683159
 31
0.0
  0
LWPOLYLINE
  5
2C1
330
586
100
AcDbEntity
  8
DV4_0
  6
Continuous
 62
     7
100
AcDbPolyline
 90
       79
 70
     1
 43
0.0
 10
51.63271871622528
 20
61.12282496772593
 10
51.63936524190503
 20
60.98324792845101
 10
51.66010460834146
 20
60.83983741585875
 10
51.6961125262573
 20
60.6931558108423
 10
51.74850818990949
 20
60.54387759930493
 10
51.81832051600031
 20
60.39279122194423
 10
51.9064514351193
 20
60.24079731795644
 10
52.01363744414049
 20
60.08890270624195
 10
52.1404110239176
 20
59.93820958311069
 10
52.28706388146396
 20
59.78989963112876
 10
52.45361423861336
 20
59.64521302742759
 10
52.63978050689363
 20
59.50542269786481
 10
52.84496361418446
 20
59.37180455956285
 10
53.0682399517465
 20
59.24560489050605
 10
53.30836638461905
 20
59.12800631487641
 10
53.56379804002242
 20
59.0200941484804
 10
53.83271871622528
 20
58.92282496772618
 10
54.11308282545805
 20
58.83699922000187
 10
54.40266690275378
 20
58.76323947549821
 10
54.69912798263455
 20
58.70197554687679
 10
55.00006565500078
 20
58.65343721262416
 10
55.60585304458349
 20
58.59446675877099
 10
56.20194948545605
 20
58.58436342926469
 10
56.77281088212388
 20
58.61867750228842
 10
57.30640292675158
 20
58.69124602035778
 10
57.79454444236636
 20
58.79502413785068
 10
58.23271871622528
 20
58.92282496772619
 10
58.64350709796802
 20
59.07801168971786
 10
59.04324503201476
 20
59.27019338877879
 10
59.41889383143266
 20
59.50070515205791
 10
59.59314274449384
 20
59.63024546242576
 10
59.75579563930221
 20
59.76897881387994
 10
59.9049341385019
 20
59.91646021864405
 10
60.03868886547902
 20
60.07207869906935
 10
60.15529122568303
 20
60.23505699799084
 10
60.25312687949059
 20
60.40445762078724
 10
60.33078821429477
 20
60.57919562409664
 10
60.387122861303
 20
60.75805812834772
 10
60.42127528319536
 20
60.93973003924739
 10
60.43271871622529
 20
61.12282496772593
 10
60.42127528319536
 20
61.30591989620444
 10
60.387122861303
 20
61.48759180710412
 10
60.33078821429477
 20
61.6664543113552
 10
60.25312687949059
 20
61.84119231466461
 10
60.15529122568303
 20
62.01059293746101
 10
60.03868886547902
 20
62.17357123638252
 10
59.9049341385019
 20
62.3291897168078
 10
59.75579563930221
 20
62.47667112157192
 10
59.59314274449384
 20
62.61540447302611
 10
59.41889383143266
 20
62.74494478339395
 10
59.23496843501043
 20
62.86500719494733
 10
59.04324503201476
 20
62.9754565466731
 10
58.64350709796802
 20
63.16763824573399
 10
58.23271871622528
 20
63.32282496772568
 10
57.79454444236638
 20
63.45062579760117
 10
57.30640292675159
 20
63.55440391509406
 10
56.7728108821239
 20
63.62697243316342
 10
56.20194948545606
 20
63.66128650618716
 10
55.60585304458349
 20
63.65118317668084
 10
55.00006565500079
 20
63.59221272282767
 10
54.40266690275377
 20
63.48241045995361
 10
54.11308282545805
 20
63.40865071544996
 10
53.83271871622529
 20
63.32282496772567
 10
53.56379804002243
 20
63.22555578697145
 10
53.30836638461907
 20
63.11764362057543
 10
53.06823995174651
 20
63.00004504494578
 10
52.84496361418446
 20
62.87384537588898
 10
52.63978050689363
 20
62.74022723758702
 10
52.45361423861333
 20
62.60043690802426
 10
52.28706388146395
 20
62.45575030432307
 10
52.14041102391758
 20
62.30744035234118
 10
52.01363744414046
 20
62.1567472292099
 10
51.90645143511929
 20
62.00485261749541
 10
51.81832051600032
 20
61.85285871350763
 10
51.74850818990949
 20
61.7017723361469
 10
51.69611252625731
 20
61.55249412460955
 10
51.66010460834147
 20
61.40581251959312
 10
51.63936524190504
 20
61.26240200700085
 10
51.63271871622528
 20
61.12282496772593
  0
LINE
  5
312
330
586
100
AcDbEntity
  8
DV4_0
  6
Continuous
 62
     7
100
AcDbLine
 10
64.51800009046387
 20
41.36360770927652
 30
0.0
 11
63.81089330927732
 21
41.77185599974047
 31
0.0
  0
LINE
  5
313
330
586
100
AcDbEntity
  8
DV4_0
  6
Continuous
 62
     7
100
AcDbLine
 10
63.81089330927732
 20
41.77185599974047
 30
0.0
 11
58.15403905978493
 21
45.037842323451
 31
0.0
  0
LWPOLYLINE
  5
314
330
586
100
AcDbEntity
  8
DV4_0
  6
Continuous
 62
     7
100
AcDbPolyline
 90
        9
 70
     0
 43
0.0
 10
26.33423390639029
 20
45.60938993009949
 10
26.34410642758658
 20
45.45392625948379
 10
26.37420748054472
 20
45.30156270089234
 10
26.42484003965079
 20
45.15466905094695
 10
26.4957098026354
 20
45.0155465526134
 10
26.58591760989168
 20
44.88631182525354
 10
26.69399607378009
 20
44.768790946509
 10
26.81798744500832
 20
44.66443461918969
 10
26.95555424995006
 20
44.57426254758916
  0
LWPOLYLINE
  5
31F
330
586
100
AcDbEntity
  8
DV4_0
  6
Continuous
 62
     7
100
AcDbPolyline
 90
        9
 70
     0
 43
0.0
 10
56.73982549741182
 20
64.79705958189915
 10
56.59935330192372
 20
64.86453013217012
 10
56.42989606372434
 20
64.91866981174474
 10
56.23762819068063
 20
64.95391072436084
 10
56.03271871622528
 20
64.9661615606249
 10
55.82780924176992
 20
64.95391072436084
 10
55.63554136872621
 20
64.91866981174474
 10
55.4660841305268
 20
64.86453013217012
 10
55.32561193503873
 20
64.79705958189915
  0
LINE
  5
32A
330
586
100
AcDbEntity
  8
DV4_0
  6
Continuous
 62
     7
100
AcDbLine
 10
26.33423390639029
 20
48.05887967288269
 30
0.0
 11
55.32561193503872
 21
64.79705958189915
 31
0.0
  0
LWPOLYLINE
  5
32B
330
586
100
AcDbEntity
  8
DV4_0
  6
Continuous
 62
     7
100
AcDbPolyline
 90
        9
 70
     0
 43
0.0
 10
26.3342339063903
 20
48.05887967288268
 10
26.21737148530632
 20
47.97777801300399
 10
26.12359880957759
 20
47.87994183091345
 10
26.06255975842139
 20
47.76893592265516
 10
26.04134068757684
 20
47.65063138241886
 10
26.06255975842139
 20
47.53232684218256
 10
26.12359880957759
 20
47.42132093392428
 10
26.21737148530632
 20
47.32348475183374
 10
26.3342339063903
 20
47.24238309195505
  0
LINE
  5
336
330
586
100
AcDbEntity
  8
DV4_0
  6
Continuous
 62
     7
100
AcDbLine
 10
55.32561193503875
 20
30.5042031829386
 30
0.0
 11
26.33423390639029
 21
47.24238309195505
 31
0.0
  0
LINE
  5
337
330
586
100
AcDbEntity
  8
DV4_0
  6
Continuous
 62
     7
100
AcDbLine
 10
86.02409674487374
 20
46.01763822056333
 30
0.0
 11
86.02409674487374
 21
47.65063138241887
 31
0.0
  0
ARC
  5
338
330
586
100
AcDbEntity
  8
DV4_0
  6
Continuous
 62
     7
100
AcDbCircle
 10
56.0327187162253
 20
28.94125435409528
 30
0.0
 40
1.0
100
AcDbArc
 50
239.8542006495099
 51
300.3584382024421
  0
POLYLINE
  5
339
330
586
100
AcDbEntity
  8
DV4_0
  6
Continuous
 62
     7
100
AcDb2dPolyline
 66
     1
 10
0.0
 20
0.0
 30
0.0
 70
     4
  0
VERTEX
  5
33A
330
339
100
AcDbEntity
  8
DV4_0
  6
Continuous
 62
     7
100
AcDbVertex
100
AcDb2dVertex
 10
85.09709126419613
 20
44.567971401179
 30
0.0
 70
     8
  0
VERTEX
  5
33B
330
339
100
AcDbEntity
  8
DV4_0
  6
Continuous
 62
     7
100
AcDbVertex
100
AcDb2dVertex
 10
85.30046427691004
 20
44.68989950850527
 30
0.0
 70
     8
  0
VERTEX
  5
33C
330
339
100
AcDbEntity
  8
DV4_0
  6
Continuous
 62
     7
100
AcDbVertex
100
AcDb2dVertex
 10
85.47555376753585
 20
44.83127420980321
 30
0.0
 70
     8
  0
VERTEX
  5
33D
330
339
100
AcDbEntity
  8
DV4_0
  6
Continuous
 62
     7
100
AcDbVertex
100
AcDb2dVertex
 10
85.625360331488
 20
44.9897559930062
 30
0.0
 70
     8
  0
VERTEX
  5
33E
330
339
100
AcDbEntity
  8
DV4_0
  6
Continuous
 62
     7
100
AcDbVertex
100
AcDb2dVertex
 10
85.75288456418098
 20
45.16300534604766
 30
0.0
 70
     8
  0
VERTEX
  5
33F
330
339
100
AcDbEntity
  8
DV4_0
  6
Continuous
 62
     7
100
AcDbVertex
100
AcDb2dVertex
 10
85.86201671299404
 20
45.35350934577607
 30
0.0
 70
     8
  0
VERTEX
  5
340
330
339
100
AcDbEntity
  8
DV4_0
  6
Continuous
 62
     7
100
AcDbVertex
100
AcDb2dVertex
 10
85.94656492297207
 20
45.55846514757663
 30
0.0
 70
     8
  0
VERTEX
  5
341
330
339
100
AcDbEntity
  8
DV4_0
  6
Continuous
 62
     7
100
AcDbVertex
100
AcDb2dVertex
 10
86.00207599872776
 20
45.77934926724164
 30
0.0
 70
     8
  0
VERTEX
  5
342
330
339
100
AcDbEntity
  8
DV4_0
  6
Continuous
 62
     7
100
AcDbVertex
100
AcDb2dVertex
 10
86.02409674487374
 20
46.01763822056333
 30
0.0
 70
     8
  0
SEQEND
  5
343
330
339
100
AcDbEntity
  8
DV4_0
  6
Continuous
 62
     7
  0
POLYLINE
  5
344
330
586
100
AcDbEntity
  8
DV4_0
  6
Continuous
 62
     7
100
AcDb2dPolyline
 66
     1
 10
0.0
 20
0.0
 30
0.0
 70
     4
  0
VERTEX
  5
345
330
344
100
AcDbEntity
  8
DV4_0
  6
Continuous
 62
     7
100
AcDbVertex
100
AcDb2dVertex
 10
26.04134068757684
 20
46.01763822056332
 30
0.0
 70
     8
  0
VERTEX
  5
346
330
344
100
AcDbEntity
  8
DV4_0
  6
Continuous
 62
     7
100
AcDbVertex
100
AcDb2dVertex
 10
26.06433057825609
 20
45.78433436484771
 30
0.0
 70
     8
  0
VERTEX
  5
347
330
344
100
AcDbEntity
  8
DV4_0
  6
Continuous
 62
     7
100
AcDbVertex
100
AcDb2dVertex
 10
26.1163827008229
 20
45.56698334262441
 30
0.0
 70
     8
  0
VERTEX
  5
348
330
344
100
AcDbEntity
  8
DV4_0
  6
Continuous
 62
     7
100
AcDbVertex
100
AcDb2dVertex
 10
26.19533347560772
 20
45.36538762676373
 30
0.0
 70
     8
  0
VERTEX
  5
349
330
344
100
AcDbEntity
  8
DV4_0
  6
Continuous
 62
     7
100
AcDbVertex
100
AcDb2dVertex
 10
26.29901932294098
 20
45.17934969013596
 30
0.0
 70
     8
  0
VERTEX
  5
34A
330
344
100
AcDbEntity
  8
DV4_0
  6
Continuous
 62
     7
100
AcDbVertex
100
AcDb2dVertex
 10
26.42825094256394
 20
45.00562464826931
 30
0.0
 70
     8
  0
VERTEX
  5
34B
330
344
100
AcDbEntity
  8
DV4_0
  6
Continuous
 62
     7
100
AcDbVertex
100
AcDb2dVertex
 10
26.5814398353358
 20
44.84717925583453
 30
0.0
 70
     8
  0
VERTEX
  5
34C
330
344
100
AcDbEntity
  8
DV4_0
  6
Continuous
 62
     7
100
AcDbVertex
100
AcDb2dVertex
 10
26.75914012947255
 20
44.70336695799756
 30
0.0
 70
     8
  0
VERTEX
  5
34D
330
344
100
AcDbEntity
  8
DV4_0
  6
Continuous
 62
     7
100
AcDbVertex
100
AcDb2dVertex
 10
26.96190595319018
 20
44.57354119992432
 30
0.0
 70
     8
  0
SEQEND
  5
34E
330
344
100
AcDbEntity
  8
DV4_0
  6
Continuous
 62
     7
  0
LINE
  5
34F
330
586
100
AcDbEntity
  8
DV4_0
  6
Continuous
 62
     7
100
AcDbLine
 10
56.53271871622525
 20
28.07522895031082
 30
0.0
 11
85.10988318250049
 21
44.57426254758916
 31
0.0
  0
LINE
  5
350
330
586
100
AcDbEntity
  8
DV4_0
  6
Continuous
 62
     7
100
AcDbLine
 10
26.95555424995007
 20
44.57426254758915
 30
0.0
 11
55.53271871622534
 21
28.07522895031082
 31
0.0
  0
LINE
  5
351
330
586
100
AcDbEntity
  8
DV4_0
  6
Continuous
 62
     7
100
AcDbLine
 10
26.04134068757684
 20
47.65063138241886
 30
0.0
 11
26.04134068757684
 21
46.01763822056332
 31
0.0
  0
LINE
  5
352
330
586
100
AcDbEntity
  8
DV4_0
  6
Continuous
 62
     7
100
AcDbLine
 10
61.23271871622528
 20
52.9578591584482
 30
0.0
 11
61.23271871622528
 21
59.48983180587038
 31
0.0
  0
POLYLINE
  5
353
330
586
100
AcDbEntity
  8
DV4_0
  6
Continuous
 62
     7
100
AcDb2dPolyline
 66
     1
 10
0.0
 20
0.0
 30
0.0
 70
     4
  0
VERTEX
  5
354
330
353
100
AcDbEntity
  8
DV4_0
  6
Continuous
 62
     7
100
AcDbVertex
100
AcDb2dVertex
 10
60.02937147100812
 20
60.79461722765521
 30
0.0
 70
     8
  0
VERTEX
  5
355
330
353
100
AcDbEntity
  8
DV4_0
  6
Continuous
 62
     7
100
AcDbVertex
100
AcDb2dVertex
 10
60.01573571473861
 20
60.59614994309468
 30
0.0
 70
     8
  0
VERTEX
  5
356
330
353
100
AcDbEntity
  8
DV4_0
  6
Continuous
 62
     7
100
AcDbVertex
100
AcDb2dVertex
 10
59.96390989552471
 20
60.40574059299043
 30
0.0
 70
     8
  0
VERTEX
  5
357
330
353
100
AcDbEntity
  8
DV4_0
  6
Continuous
 62
     7
100
AcDbVertex
100
AcDb2dVertex
 10
59.87633347970252
 20
60.22084631350587
 30
0.0
 70
     8
  0
VERTEX
  5
358
330
353
100
AcDbEntity
  8
DV4_0
  6
Continuous
 62
     7
100
AcDbVertex
100
AcDb2dVertex
 10
59.75544593360814
 20
60.03892424080445
 30
0.0
 70
     8
  0
VERTEX
  5
359
330
353
100
AcDbEntity
  8
DV4_0
  6
Continuous
 62
     7
100
AcDbVertex
100
AcDb2dVertex
 10
59.60844164829464
 20
59.86442037938346
 30
0.0
 70
     8
  0
VERTEX
  5
35A
330
353
100
AcDbEntity
  8
DV4_0
  6
Continuous
 62
     7
100
AcDbVertex
100
AcDb2dVertex
 10
59.42761821277142
 20
59.69061962889817
 30
0.0
 70
     8
  0
VERTEX
  5
35B
330
353
100
AcDbEntity
  8
DV4_0
  6
Continuous
 62
     7
100
AcDbVertex
100
AcDb2dVertex
 10
59.20784429262605
 20
59.51782612887186
 30
0.0
 70
     8
  0
VERTEX
  5
35C
330
353
100
AcDbEntity
  8
DV4_0
  6
Continuous
 62
     7
100
AcDbVertex
100
AcDb2dVertex
 10
58.94398855344611
 20
59.34634401882782
 30
0.0
 70
     8
  0
SEQEND
  5
35D
330
353
100
AcDbEntity
  8
DV4_0
  6
Continuous
 62
     7
  0
POLYLINE
  5
35E
330
586
100
AcDbEntity
  8
DV4_0
  6
Continuous
 62
     7
100
AcDb2dPolyline
 66
     1
 10
0.0
 20
0.0
 30
0.0
 70
     4
  0
VERTEX
  5
35F
330
35E
100
AcDbEntity
  8
DV4_0
  6
Continuous
 62
     7
100
AcDbVertex
100
AcDb2dVertex
 10
60.58620461146787
 20
61.52345973253943
 30
0.0
 70
     8
  0
VERTEX
  5
360
330
35E
100
AcDbEntity
  8
DV4_0
  6
Continuous
 62
     7
100
AcDbVertex
100
AcDb2dVertex
 10
60.45989296556864
 20
61.78412548733082
 30
0.0
 70
     8
  0
VERTEX
  5
361
330
35E
100
AcDbEntity
  8
DV4_0
  6
Continuous
 62
     7
100
AcDbVertex
100
AcDb2dVertex
 10
60.30644357833327
 20
62.02681579682811
 30
0.0
 70
     8
  0
VERTEX
  5
362
330
35E
100
AcDbEntity
  8
DV4_0
  6
Continuous
 62
     7
100
AcDbVertex
100
AcDb2dVertex
 10
60.1263923199242
 20
62.25196299121288
 30
0.0
 70
     8
  0
VERTEX
  5
363
330
35E
100
AcDbEntity
  8
DV4_0
  6
Continuous
 62
     7
100
AcDbVertex
100
AcDb2dVertex
 10
59.92027506050384
 20
62.45999940066671
 30
0.0
 70
     8
  0
VERTEX
  5
364
330
35E
100
AcDbEntity
  8
DV4_0
  6
Continuous
 62
     7
100
AcDbVertex
100
AcDb2dVertex
 10
59.68862767023464
 20
62.6513573553712
 30
0.0
 70
     8
  0
VERTEX
  5
365
330
35E
100
AcDbEntity
  8
DV4_0
  6
Continuous
 62
     7
100
AcDbVertex
100
AcDb2dVertex
 10
59.43198601927905
 20
62.82646918550797
 30
0.0
 70
     8
  0
VERTEX
  5
366
330
35E
100
AcDbEntity
  8
DV4_0
  6
Continuous
 62
     7
100
AcDbVertex
100
AcDb2dVertex
 10
59.15088597779948
 20
62.98576722125858
 30
0.0
 70
     8
  0
VERTEX
  5
367
330
35E
100
AcDbEntity
  8
DV4_0
  6
Continuous
 62
     7
100
AcDbVertex
100
AcDb2dVertex
 10
58.84586341595834
 20
63.12968379280465
 30
0.0
 70
     8
  0
VERTEX
  5
368
330
35E
100
AcDbEntity
  8
DV4_0
  6
Continuous
 62
     7
100
AcDbVertex
100
AcDb2dVertex
 10
58.50420814161177
 20
63.26338064101269
 30
0.0
 70
     8
  0
VERTEX
  5
369
330
35E
100
AcDbEntity
  8
DV4_0
  6
Continuous
 62
     7
100
AcDbVertex
100
AcDb2dVertex
 10
58.14131578566318
 20
63.3801788514495
 30
0.0
 70
     8
  0
VERTEX
  5
36A
330
35E
100
AcDbEntity
  8
DV4_0
  6
Continuous
 62
     7
100
AcDbVertex
100
AcDb2dVertex
 10
57.76127446674287
 20
63.47936807364479
 30
0.0
 70
     8
  0
VERTEX
  5
36B
330
35E
100
AcDbEntity
  8
DV4_0
  6
Continuous
 62
     7
100
AcDbVertex
100
AcDb2dVertex
 10
57.36817230348112
 20
63.56023795712835
 30
0.0
 70
     8
  0
VERTEX
  5
36C
330
35E
100
AcDbEntity
  8
DV4_0
  6
Continuous
 62
     7
100
AcDbVertex
100
AcDb2dVertex
 10
56.96609741450821
 20
63.62207815142989
 30
0.0
 70
     8
  0
VERTEX
  5
36D
330
35E
100
AcDbEntity
  8
DV4_0
  6
Continuous
 62
     7
100
AcDbVertex
100
AcDb2dVertex
 10
56.55913791845442
 20
63.66417830607916
 30
0.0
 70
     8
  0
VERTEX
  5
36E
330
35E
100
AcDbEntity
  8
DV4_0
  6
Continuous
 62
     7
100
AcDbVertex
100
AcDb2dVertex
 10
56.15138193395004
 20
63.68582807060592
 30
0.0
 70
     8
  0
VERTEX
  5
36F
330
35E
100
AcDbEntity
  8
DV4_0
  6
Continuous
 62
     7
100
AcDbVertex
100
AcDb2dVertex
 10
55.74691757962537
 20
63.68631709453991
 30
0.0
 70
     8
  0
VERTEX
  5
370
330
35E
100
AcDbEntity
  8
DV4_0
  6
Continuous
 62
     7
100
AcDbVertex
100
AcDb2dVertex
 10
55.34669689353772
 20
63.6648732590582
 30
0.0
 70
     8
  0
VERTEX
  5
371
330
35E
100
AcDbEntity
  8
DV4_0
  6
Continuous
 62
     7
100
AcDbVertex
100
AcDb2dVertex
 10
54.95441301752434
 20
63.62143938712316
 30
0.0
 70
     8
  0
VERTEX
  5
372
330
35E
100
AcDbEntity
  8
DV4_0
  6
Continuous
 62
     7
100
AcDbVertex
100
AcDb2dVertex
 10
54.57052788110571
 20
63.55617847180678
 30
0.0
 70
     8
  0
VERTEX
  5
373
330
35E
100
AcDbEntity
  8
DV4_0
  6
Continuous
 62
     7
100
AcDbVertex
100
AcDb2dVertex
 10
54.19550341380231
 20
63.46925350618107
 30
0.0
 70
     8
  0
VERTEX
  5
374
330
35E
100
AcDbEntity
  8
DV4_0
  6
Continuous
 62
     7
100
AcDbVertex
100
AcDb2dVertex
 10
53.82980154513464
 20
63.36082748331806
 30
0.0
 70
     8
  0
VERTEX
  5
375
330
35E
100
AcDbEntity
  8
DV4_0
  6
Continuous
 62
     7
100
AcDbVertex
100
AcDb2dVertex
 10
53.47388420462316
 20
63.23106339628977
 30
0.0
 70
     8
  0
VERTEX
  5
376
330
35E
100
AcDbEntity
  8
DV4_0
  6
Continuous
 62
     7
100
AcDbVertex
100
AcDb2dVertex
 10
53.12821332178834
 20
63.08012423816819
 30
0.0
 70
     8
  0
VERTEX
  5
377
330
35E
100
AcDbEntity
  8
DV4_0
  6
Continuous
 62
     7
100
AcDbVertex
100
AcDb2dVertex
 10
52.79325082615068
 20
62.90817300202535
 30
0.0
 70
     8
  0
SEQEND
  5
378
330
35E
100
AcDbEntity
  8
DV4_0
  6
Continuous
 62
     7
  0
LINE
  5
379
330
586
100
AcDbEntity
  8
DV4_0
  6
Continuous
 62
     7
100
AcDbLine
 10
61.11437199050526
 20
60.12669913899383
 30
0.0
 11
60.60775776603859
 21
61.47414765700317
 31
0.0
  0
ENDBLK
  5
37A
330
586
100
AcDbEntity
  8
DV4_0
  6
Continuous
 62
     7
100
AcDbBlockEnd
  0
BLOCK
  5
37D
330
587
100
AcDbEntity
  8
DEFAULT
 62
     1
100
AcDbBlockBegin
  2
SE9
 70
     0
 10
0.0
 20
0.0
 30
0.0
  3
SE9
  1

  0
LWPOLYLINE
  5
37E
330
587
100
AcDbEntity
  8
DEFAULT
  6
Continuous
 62
   136
100
AcDbPolyline
 90
        4
 70
     0
 43
0.0
 10
139.3156561586897
 20
145.2832248025241
 10
135.8156560506563
 20
144.6998914511852
 10
139.3156561586897
 20
144.1165580998463
 10
139.3156561586897
 20
145.2832248025241
  0
LWPOLYLINE
  5
384
330
587
100
AcDbEntity
  8
DEFAULT
  6
Continuous
 62
   136
100
AcDbPolyline
 90
        4
 70
     0
 43
0.0
 10
175.3156559426229
 20
145.2832248025241
 10
178.8156560506563
 20
144.6998914511852
 10
175.3156559426229
 20
144.1165580998463
 10
175.3156559426229
 20
145.2832248025241
  0
LINE
  5
38A
330
587
100
AcDbEntity
  8
DEFAULT
  6
Continuous
 62
   136
100
AcDbLine
 10
135.8156560506563
 20
132.6050584943943
 30
0.0
 11
135.8156560506563
 21
146.4498915052019
 31
0.0
  0
LINE
  5
38B
330
587
100
AcDbEntity
  8
DEFAULT
  6
Continuous
 62
   136
100
AcDbLine
 10
178.8156560506563
 20
132.6050584943943
 30
0.0
 11
178.8156560506563
 21
146.4498915052019
 31
0.0
  0
LINE
  5
38C
330
587
100
AcDbEntity
  8
DEFAULT
  6
Continuous
 62
   136
100
AcDbLine
 10
135.8156560506563
 20
144.6998914511852
 30
0.0
 11
178.8156575109701
 21
144.6998914511852
 31
0.0
  0
TEXT
  5
38D
330
587
100
AcDbEntity
  8
DEFAULT
  6
Continuous
 62
   136
100
AcDbText
 10
154.2133840535405
 20
145.5748914511852
 30
0.0
 40
3.5
  1
21,5
  7
seiso_ttf
 11
154.2133840535405
 21
149.0748914511851
 31
0.0
100
AcDbText
 73
     3
  0
ENDBLK
  5
38E
330
587
100
AcDbEntity
  8
DEFAULT
  6
Continuous
 62
   136
100
AcDbBlockEnd
  0
BLOCK
  5
38F
330
588
100
AcDbEntity
  8
DEFAULT
 62
     1
100
AcDbBlockBegin
  2
SE10
 70
     0
 10
0.0
 20
0.0
 30
0.0
  3
SE10
  1

  0
LWPOLYLINE
  5
390
330
588
100
AcDbEntity
  8
DEFAULT
  6
Continuous
 62
   136
100
AcDbPolyline
 90
        4
 70
     0
 43
0.0
 10
119.0672932778687
 20
130.1050583863608
 10
119.6506266292076
 20
133.6050584943943
 10
120.2339599805465
 20
130.1050583863608
 10
119.0672932778687
 20
130.1050583863608
  0
LWPOLYLINE
  5
396
330
588
100
AcDbEntity
  8
DEFAULT
  6
Continuous
 62
   136
100
AcDbPolyline
 90
        4
 70
     0
 43
0.0
 10
119.0672932778687
 20
94.1050586024277
 10
119.6506266292076
 20
90.60505849439428
 10
120.2339599805465
 20
94.1050586024277
 10
119.0672932778687
 20
94.1050586024277
  0
LINE
  5
39C
330
588
100
AcDbEntity
  8
DEFAULT
  6
Continuous
 62
   136
100
AcDbLine
 10
136.8156560506563
 20
133.6050584943943
 30
0.0
 11
117.9006265751909
 21
133.6050584943943
 31
0.0
  0
LINE
  5
39D
330
588
100
AcDbEntity
  8
DEFAULT
  6
Continuous
 62
   136
100
AcDbLine
 10
136.8156560506563
 20
90.60505849439428
 30
0.0
 11
117.9006265751909
 21
90.60505849439428
 31
0.0
  0
LINE
  5
39E
330
588
100
AcDbEntity
  8
DEFAULT
  6
Continuous
 62
   136
100
AcDbLine
 10
119.6506266292076
 20
133.6050584943943
 30
0.0
 11
119.6506266292076
 21
90.60505703408049
 31
0.0
  0
TEXT
  5
39F
330
588
100
AcDbEntity
  8
DEFAULT
  6
Continuous
 62
   136
100
AcDbText
 10
118.7756266292076
 20
109.0027850369646
 30
0.0
 40
3.5
  1
21,5
 50
90.0
  7
seiso_ttf
 11
115.2756266292076
 21
109.0027850369646
 31
0.0
100
AcDbText
 73
     3
  0
ENDBLK
  5
3A0
330
588
100
AcDbEntity
  8
DEFAULT
  6
Continuous
 62
   136
100
AcDbBlockEnd
  0
BLOCK
  5
3A1
330
589
100
AcDbEntity
  8
DEFAULT
 62
     1
100
AcDbBlockBegin
  2
SE11
 70
     0
 10
0.0
 20
0.0
 30
0.0
  3
SE11
  1

  0
LWPOLYLINE
  5
3A2
330
589
100
AcDbEntity
  8
DEFAULT
  6
Continuous
 62
   136
100
AcDbPolyline
 90
        4
 70
     0
 43
0.0
 10
132.3156559426229
 20
112.7067450546327
 10
135.8156560506563
 20
112.1234117032938
 10
132.3156559426229
 20
111.5400783519548
 10
132.3156559426229
 20
112.7067450546327
  0
LWPOLYLINE
  5
3A8
330
589
100
AcDbEntity
  8
DEFAULT
  6
Continuous
 62
   136
100
AcDbPolyline
 90
        4
 70
     0
 43
0.0
 10
142.1156561586897
 20
112.7067450546327
 10
138.6156560506563
 20
112.1234117032938
 10
142.1156561586897
 20
111.5400783519548
 10
142.1156561586897
 20
112.7067450546327
  0
LINE
  5
3AE
330
589
100
AcDbEntity
  8
DEFAULT
  6
Continuous
 62
   136
100
AcDbLine
 10
122.5525580864291
 20
112.1234117032938
 30
0.0
 11
145.6156561668854
 21
112.1234117032938
 31
0.0
  0
TEXT
  5
3AF
330
589
100
AcDbEntity
  8
DEFAULT
  6
Continuous
 62
   136
100
AcDbText
 10
123.7775579891652
 20
112.9984117032938
 30
0.0
 40
3.5
  1
1,4
  7
seiso_ttf
 11
123.7775579891652
 21
116.4984117032938
 31
0.0
100
AcDbText
 73
     3
  0
ENDBLK
  5
3B0
330
589
100
AcDbEntity
  8
DEFAULT
  6
Continuous
 62
   136
100
AcDbBlockEnd
  0
BLOCK
  5
3B1
330
58A
100
AcDbEntity
  8
DEFAULT
 62
     1
100
AcDbBlockBegin
  2
SE12
 70
     0
 10
0.0
 20
0.0
 30
0.0
  3
SE12
  1

  0
LWPOLYLINE
  5
3B2
330
58A
100
AcDbEntity
  8
DEFAULT
  6
Continuous
 62
   136
100
AcDbPolyline
 90
        4
 70
     0
 43
0.0
 10
194.8752161609521
 20
103.9050583863608
 10
194.2918828096132
 20
107.4050584943943
 10
193.7085494582744
 20
103.9050583863608
 10
194.8752161609521
 20
103.9050583863608
  0
LWPOLYLINE
  5
3B8
330
58A
100
AcDbEntity
  8
DEFAULT
  6
Continuous
 62
   136
100
AcDbPolyline
 90
        4
 70
     0
 43
0.0
 10
194.8752161609521
 20
94.1050586024277
 10
194.2918828096132
 20
90.60505849439428
 10
193.7085494582744
 20
94.1050586024277
 10
194.8752161609521
 20
94.1050586024277
  0
LINE
  5
3BE
330
58A
100
AcDbEntity
  8
DEFAULT
  6
Continuous
 62
   136
100
AcDbLine
 10
170.0156560506563
 20
107.4050584943943
 30
0.0
 11
196.0418828636299
 21
107.4050584943943
 31
0.0
  0
LINE
  5
3BF
330
58A
100
AcDbEntity
  8
DEFAULT
  6
Continuous
 62
   136
100
AcDbLine
 10
177.8156560506563
 20
90.60505849439428
 30
0.0
 11
196.0418828636299
 21
90.60505849439428
 31
0.0
  0
LINE
  5
3C0
330
58A
100
AcDbEntity
  8
DEFAULT
  6
Continuous
 62
   136
100
AcDbLine
 10
194.2918828096132
 20
107.4050584943943
 30
0.0
 11
194.2918828096132
 21
90.60505909342095
 31
0.0
  0
TEXT
  5
3C1
330
58A
100
AcDbEntity
  8
DEFAULT
  6
Continuous
 62
   136
100
AcDbText
 10
193.4168828096132
 20
96.53914970299855
 30
0.0
 40
3.5
  1
8,4
 50
90.0
  7
seiso_ttf
 11
189.9168828096133
 21
96.53914970299855
 31
0.0
100
AcDbText
 73
     3
  0
ENDBLK
  5
3C2
330
58A
100
AcDbEntity
  8
DEFAULT
  6
Continuous
 62
   136
100
AcDbBlockEnd
  0
BLOCK
  5
3C3
330
58B
100
AcDbEntity
  8
DEFAULT
 62
     1
100
AcDbBlockBegin
  2
SE13
 70
     0
 10
0.0
 20
0.0
 30
0.0
  3
SE13
  1

  0
LWPOLYLINE
  5
3C4
330
58B
100
AcDbEntity
  8
DEFAULT
  6
Continuous
 62
   136
100
AcDbPolyline
 90
        4
 70
     0
 43
0.0
 10
165.5156561586897
 20
75.80083115206187
 10
162.0156560506563
 20
76.38416450340078
 10
165.5156561586897
 20
76.96749785473969
 10
165.5156561586897
 20
75.80083115206187
  0
LWPOLYLINE
  5
3CA
330
58B
100
AcDbEntity
  8
DEFAULT
  6
Continuous
 62
   136
100
AcDbPolyline
 90
        4
 70
     0
 43
0.0
 10
175.3156559426229
 20
75.80083115206187
 10
178.8156560506563
 20
76.38416450340078
 10
175.3156559426229
 20
76.96749785473969
 10
175.3156559426229
 20
75.80083115206187
  0
LINE
  5
3D0
330
58B
100
AcDbEntity
  8
DEFAULT
  6
Continuous
 62
   136
100
AcDbLine
 10
162.0156560506563
 20
95.39696585256384
 30
0.0
 11
162.0156560506563
 21
74.63416444938407
 31
0.0
  0
LINE
  5
3D1
330
58B
100
AcDbEntity
  8
DEFAULT
  6
Continuous
 62
   136
100
AcDbLine
 10
178.8156560506563
 20
91.60505849439429
 30
0.0
 11
178.8156560506563
 21
74.63416444938409
 31
0.0
  0
LINE
  5
3D2
330
58B
100
AcDbEntity
  8
DEFAULT
  6
Continuous
 62
   136
100
AcDbLine
 10
162.0156560506563
 20
76.38416450340078
 30
0.0
 11
178.8156554516296
 21
76.38416450340078
 31
0.0
  0
TEXT
  5
3D3
330
58B
100
AcDbEntity
  8
DEFAULT
  6
Continuous
 62
   136
100
AcDbText
 10
167.9497466602339
 20
77.25916450340078
 30
0.0
 40
3.5
  1
8,4
  7
seiso_ttf
 11
167.9497466602339
 21
80.75916450340079
 31
0.0
100
AcDbText
 73
     3
  0
ENDBLK
  5
3D4
330
58B
100
AcDbEntity
  8
DEFAULT
  6
Continuous
 62
   136
100
AcDbBlockEnd
  0
BLOCK
  5
3D5
330
58C
100
AcDbEntity
  8
DEFAULT
 62
     1
100
AcDbBlockBegin
  2
SE14
 70
     0
 10
0.0
 20
0.0
 30
0.0
  3
SE14
  1

  0
LWPOLYLINE
  5
3D6
330
58C
100
AcDbEntity
  8
DEFAULT
  6
Continuous
 62
   136
100
AcDbPolyline
 90
        4
 70
     0
 43
0.0
 10
158.5156559426229
 20
98.2564640554178
 10
162.0156560506563
 20
98.8397974067567
 10
158.5156559426229
 20
99.42313075809561
 10
158.5156559426229
 20
98.2564640554178
  0
LWPOLYLINE
  5
3DC
330
58C
100
AcDbEntity
  8
DEFAULT
  6
Continuous
 62
   136
100
AcDbPolyline
 90
        4
 70
     0
 43
0.0
 10
169.5156561586897
 20
98.2564640554178
 10
166.0156560506563
 20
98.8397974067567
 10
169.5156561586897
 20
99.42313075809561
 10
169.5156561586897
 20
98.2564640554178
  0
LINE
  5
3E2
330
58C
100
AcDbEntity
  8
DEFAULT
  6
Continuous
 62
   136
100
AcDbLine
 10
152.0572510030012
 20
98.8397974067567
 30
0.0
 11
173.0156559910517
 21
98.8397974067567
 31
0.0
  0
TEXT
  5
3E3
330
58C
100
AcDbEntity
  8
DEFAULT
  6
Continuous
 62
   136
100
AcDbText
 10
153.2822509396035
 20
99.7147974067567
 30
0.0
 40
3.5
  1
2
  7
seiso_ttf
 11
153.2822509396035
 21
103.2147974067567
 31
0.0
100
AcDbText
 73
     3
  0
ENDBLK
  5
3E4
330
58C
100
AcDbEntity
  8
DEFAULT
  6
Continuous
 62
   136
100
AcDbBlockEnd
  0
BLOCK
  5
3E5
330
58D
100
AcDbEntity
  8
DEFAULT
 62
     1
100
AcDbBlockBegin
  2
SE15
 70
     0
 10
0.0
 20
0.0
 30
0.0
  3
SE15
  1

  0
LINE
  5
3E6
330
58D
100
AcDbEntity
  8
DEFAULT
  6
Continuous
 62
   136
100
AcDbLine
 10
166.0156560506563
 20
103.4050584943942
 30
0.0
 11
153.7778152087643
 21
112.6706170386238
 31
0.0
  0
LWPOLYLINE
  5
3E7
330
58D
100
AcDbEntity
  8
DEFAULT
  6
Continuous
 62
   136
100
AcDbPolyline
 90
        4
 70
     0
 43
0.0
 10
159.6840471233706
 20
107.4672017478014
 10
162.8265935852278
 20
105.8195730608433
 10
160.3882805603222
 20
108.3973449955952
 10
159.6840471233706
 20
107.4672017478014
  0
TEXT
  5
3ED
330
58D
100
AcDbEntity
  8
DEFAULT
  6
Continuous
 62
   136
100
AcDbText
 10
155.282640489614
 20
112.6287794885542
 30
0.0
 40
3.5
  1
R
 50
322.8697755932807
  7
seiso_ttf
 11
157.3953407352569
 21
115.4192091458042
 31
0.0
100
AcDbText
 73
     3
  0
TEXT
  5
3EE
330
58D
100
AcDbEntity
  8
DEFAULT
  6
Continuous
 62
   136
100
AcDbText
 10
158.6057885359753
 20
110.1127455596522
 30
0.0
 40
3.5
  1
2
 50
322.8697755932807
  7
seiso_ttf
 11
160.7184887816182
 21
112.9031752169022
 31
0.0
100
AcDbText
 73
     3
  0
ENDBLK
  5
3EF
330
58D
100
AcDbEntity
  8
DEFAULT
  6
Continuous
 62
   136
100
AcDbBlockEnd
  0
BLOCK
  5
3F0
330
58E
100
AcDbEntity
  8
DEFAULT
 62
     1
100
AcDbBlockBegin
  2
SE16
 70
     0
 10
0.0
 20
0.0
 30
0.0
  3
SE16
  1

  0
LINE
  5
3F1
330
58E
100
AcDbEntity
  8
DEFAULT
  6
Continuous
 62
   136
100
AcDbLine
 10
136.8156560506563
 20
91.60505849439429
 30
0.0
 11
123.5495345377454
 21
77.6837432694621
 31
0.0
  0
LWPOLYLINE
  5
3F2
330
58E
100
AcDbEntity
  8
DEFAULT
  6
Continuous
 62
   136
100
AcDbPolyline
 90
        4
 70
     0
 43
0.0
 10
134.1335565202039
 20
87.94491903259343
 10
136.1257902283752
 20
90.88112124072628
 10
133.2889630315214
 20
88.74976251676427
 10
134.1335565202039
 20
87.94491903259343
  0
TEXT
  5
3F8
330
58E
100
AcDbEntity
  8
DEFAULT
  6
Continuous
 62
   136
100
AcDbText
 10
123.7611749299107
 20
79.17419884946088
 30
0.0
 40
3.5
  1
R
 50
46.38051152229258
  7
seiso_ttf
 11
121.2273945420727
 21
81.58872922744485
 31
0.0
100
AcDbText
 73
     3
  0
TEXT
  5
3F9
330
58E
100
AcDbEntity
  8
DEFAULT
  6
Continuous
 62
   136
100
AcDbText
 10
126.636661107328
 20
82.19170094770433
 30
0.0
 40
3.5
  1
0,5
 50
46.38051152229258
  7
seiso_ttf
 11
124.10288071949
 21
84.60623132568832
 31
0.0
100
AcDbText
 73
     3
  0
ENDBLK
  5
3FA
330
58E
100
AcDbEntity
  8
DEFAULT
  6
Continuous
 62
   136
100
AcDbBlockEnd
  0
BLOCK
  5
3FB
330
58F
100
AcDbEntity
  8
DEFAULT
 62
     1
100
AcDbBlockBegin
  2
SE17
 70
     0
 10
0.0
 20
0.0
 30
0.0
  3
SE17
  1

  0
LWPOLYLINE
  5
3FC
330
58F
100
AcDbEntity
  8
DEFAULT
  6
Continuous
 62
   136
100
AcDbPolyline
 90
        4
 70
     0
 43
0.0
 10
186.3357506292453
 20
103.9050583863608
 10
185.7524172779064
 20
107.4050584943943
 10
185.1690839265675
 20
103.9050583863608
 10
186.3357506292453
 20
103.9050583863608
  0
LWPOLYLINE
  5
402
330
58F
100
AcDbEntity
  8
DEFAULT
  6
Continuous
 62
   136
100
AcDbPolyline
 90
        4
 70
     0
 43
0.0
 10
186.3357506292453
 20
98.89696557917185
 10
185.7524172779064
 20
95.39696547113843
 10
185.1690839265675
 20
98.89696557917185
 10
186.3357506292453
 20
98.89696557917185
  0
LINE
  5
408
330
58F
100
AcDbEntity
  8
DEFAULT
  6
Continuous
 62
   136
100
AcDbLine
 10
174.0156564306359
 20
107.4050584943943
 30
0.0
 11
187.5024173319231
 21
107.4050584943943
 31
0.0
  0
LINE
  5
409
330
58F
100
AcDbEntity
  8
DEFAULT
  6
Continuous
 62
   136
100
AcDbLine
 10
166.0156560506563
 20
95.39696547113843
 30
0.0
 11
187.5024173319231
 21
95.39696547113843
 31
0.0
  0
LINE
  5
40A
330
58F
100
AcDbEntity
  8
DEFAULT
  6
Continuous
 62
   136
100
AcDbLine
 10
185.7524172779064
 20
107.4050584943943
 30
0.0
 11
185.7524172779064
 21
95.39696519691274
 31
0.0
  0
TEXT
  5
40B
330
58F
100
AcDbEntity
  8
DEFAULT
  6
Continuous
 62
   136
100
AcDbText
 10
184.8774172779064
 20
100.2961463434261
 30
0.0
 40
3.5
  1
6
 50
90.0
  7
seiso_ttf
 11
181.3774172779064
 21
100.2961463434261
 31
0.0
100
AcDbText
 73
     3
  0
ENDBLK
  5
40C
330
58F
100
AcDbEntity
  8
DEFAULT
  6
Continuous
 62
   136
100
AcDbBlockEnd
  0
BLOCK
  5
40D
330
590
100
AcDbEntity
  8
DEFAULT
 62
     1
100
AcDbBlockBegin
  2
SE18
 70
     0
 10
0.0
 20
0.0
 30
0.0
  3
SE18
  1

  0
LWPOLYLINE
  5
40E
330
590
100
AcDbEntity
  8
DEFAULT
  6
Continuous
 62
   136
100
AcDbPolyline
 90
        4
 70
     0
 43
0.0
 10
170.5156559426229
 20
83.07519130216068
 10
174.0156560506563
 20
83.65852465349957
 10
170.5156559426229
 20
84.24185800483849
 10
170.5156559426229
 20
83.07519130216068
  0
LWPOLYLINE
  5
414
330
590
100
AcDbEntity
  8
DEFAULT
  6
Continuous
 62
   136
100
AcDbPolyline
 90
        4
 70
     0
 43
0.0
 10
165.5156561586897
 20
83.07519130216068
 10
162.0156560506563
 20
83.65852465349957
 10
165.5156561586897
 20
84.24185800483849
 10
165.5156561586897
 20
83.07519130216068
  0
LINE
  5
41A
330
590
100
AcDbEntity
  8
DEFAULT
  6
Continuous
 62
   136
100
AcDbLine
 10
174.0156560506563
 20
104.9050584943943
 30
0.0
 11
174.0156560506563
 21
81.90852459948287
 31
0.0
  0
LINE
  5
41B
330
590
100
AcDbEntity
  8
DEFAULT
  6
Continuous
 62
   136
100
AcDbLine
 10
162.0156560506563
 20
95.39696547113843
 30
0.0
 11
162.0156560506563
 21
81.90852459948287
 31
0.0
  0
LINE
  5
41C
330
590
100
AcDbEntity
  8
DEFAULT
  6
Continuous
 62
   136
100
AcDbLine
 10
174.0156560506563
 20
83.65852465349957
 30
0.0
 11
162.0156559463482
 21
83.65852465349957
 31
0.0
  0
TEXT
  5
41D
330
590
100
AcDbEntity
  8
DEFAULT
  6
Continuous
 62
   136
100
AcDbText
 10
166.9417923621386
 20
84.53352465349958
 30
0.0
 40
3.5
  1
6
  7
seiso_ttf
 11
166.9417923621386
 21
88.03352465349957
 31
0.0
100
AcDbText
 73
     3
  0
ENDBLK
  5
41E
330
590
100
AcDbEntity
  8
DEFAULT
  6
Continuous
 62
   136
100
AcDbBlockEnd
  0
BLOCK
  5
41F
330
591
100
AcDbEntity
  8
DEFAULT
 62
     1
100
AcDbBlockBegin
  2
SE19
 70
     0
 10
0.0
 20
0.0
 30
0.0
  3
SE19
  1

  0
LWPOLYLINE
  5
420
330
591
100
AcDbEntity
  8
DEFAULT
  6
Continuous
 62
   136
100
AcDbPolyline
 90
        4
 70
     0
 43
0.0
 10
115.90452740241
 20
172.1148535291283
 10
116.4878607537489
 20
168.6148534210949
 10
117.0711941050878
 20
172.1148535291283
 10
115.90452740241
 20
172.1148535291283
  0
LWPOLYLINE
  5
426
330
591
100
AcDbEntity
  8
DEFAULT
  6
Continuous
 62
   136
100
AcDbPolyline
 90
        4
 70
     0
 43
0.0
 10
115.90452740241
 20
161.1148533130615
 10
116.4878607537489
 20
164.6148534210949
 10
117.0711941050878
 20
161.1148533130615
 10
115.90452740241
 20
161.1148533130615
  0
LINE
  5
42C
330
591
100
AcDbEntity
  8
DEFAULT
  6
Continuous
 62
   136
100
AcDbLine
 10
136.8156560506563
 20
168.6148534210949
 30
0.0
 11
114.7378606997322
 21
168.6148534210949
 31
0.0
  0
LINE
  5
42D
330
591
100
AcDbEntity
  8
DEFAULT
  6
Continuous
 62
   136
100
AcDbLine
 10
137.8156560506563
 20
164.6148534210949
 30
0.0
 11
114.7378606997322
 21
164.6148534210949
 31
0.0
  0
LINE
  5
42E
330
591
100
AcDbEntity
  8
DEFAULT
  6
Continuous
 62
   136
100
AcDbLine
 10
116.4878607537489
 20
175.6148536371618
 30
0.0
 11
116.4878607537489
 21
157.6148534806996
 31
0.0
  0
TEXT
  5
42F
330
591
100
AcDbEntity
  8
DEFAULT
  6
Continuous
 62
   136
100
AcDbText
 10
115.6128607537489
 20
165.5409896897364
 30
0.0
 40
3.5
  1
2
 50
90.0
  7
seiso_ttf
 11
112.1128607537489
 21
165.5409896897364
 31
0.0
100
AcDbText
 73
     3
  0
ENDBLK
  5
430
330
591
100
AcDbEntity
  8
DEFAULT
  6
Continuous
 62
   136
100
AcDbBlockEnd
  0
BLOCK
  5
431
330
592
100
AcDbEntity
  8
DEFAULT
 62
     1
100
AcDbBlockBegin
  2
SE20
 70
     0
 10
0.0
 20
0.0
 30
0.0
  3
SE20
  1

  0
LWPOLYLINE
  5
432
330
592
100
AcDbEntity
  8
DEFAULT
  6
Continuous
 62
   136
100
AcDbPolyline
 90
        4
 70
     0
 43
0.0
 10
125.0765469511242
 20
172.1148535291283
 10
125.6598803024631
 20
168.6148534210949
 10
126.2432136538019
 20
172.1148535291283
 10
125.0765469511242
 20
172.1148535291283
  0
LWPOLYLINE
  5
438
330
592
100
AcDbEntity
  8
DEFAULT
  6
Continuous
 62
   136
100
AcDbPolyline
 90
        4
 70
     0
 43
0.0
 10
125.0765469511242
 20
163.1148533130615
 10
125.6598803024631
 20
166.6148534210949
 10
126.2432136538019
 20
163.1148533130615
 10
125.0765469511242
 20
163.1148533130615
  0
LINE
  5
43E
330
592
100
AcDbEntity
  8
DEFAULT
  6
Continuous
 62
   136
100
AcDbLine
 10
136.8156560506563
 20
168.6148534210949
 30
0.0
 11
123.9098802484464
 21
168.6148534210949
 31
0.0
  0
LINE
  5
43F
330
592
100
AcDbEntity
  8
DEFAULT
  6
Continuous
 62
   136
100
AcDbLine
 10
139.6156560506563
 20
166.6148534210949
 30
0.0
 11
123.9098802484464
 21
166.6148534210949
 31
0.0
  0
LINE
  5
440
330
592
100
AcDbEntity
  8
DEFAULT
  6
Continuous
 62
   136
100
AcDbLine
 10
125.6598803024631
 20
175.6148536371618
 30
0.0
 11
125.6598803024631
 21
155.3875638785391
 31
0.0
  0
TEXT
  5
441
330
592
100
AcDbEntity
  8
DEFAULT
  6
Continuous
 62
   136
100
AcDbText
 10
124.7848803024631
 20
156.6125633802985
 30
0.0
 40
3.5
  1
1
 50
90.0
  7
seiso_ttf
 11
121.2848803024631
 21
156.6125633802985
 31
0.0
100
AcDbText
 73
     3
  0
ENDBLK
  5
442
330
592
100
AcDbEntity
  8
DEFAULT
  6
Continuous
 62
   136
100
AcDbBlockEnd
  0
BLOCK
  5
443
330
593
100
AcDbEntity
  8
DEFAULT
 62
     1
100
AcDbBlockBegin
  2
SE21
 70
     0
 10
0.0
 20
0.0
 30
0.0
  3
SE21
  1

  0
LINE
  5
444
330
593
100
AcDbEntity
  8
DEFAULT
  6
Continuous
 62
   136
100
AcDbLine
 10
137.8156560506563
 20
166.6148534210949
 30
0.0
 11
129.0012944891406
 21
152.4322319913892
 31
0.0
  0
LWPOLYLINE
  5
445
330
593
100
AcDbEntity
  8
DEFAULT
  6
Continuous
 62
   136
100
AcDbPolyline
 90
        4
 70
     0
 43
0.0
 10
135.4079064584852
 20
161.6355943508565
 10
136.7599487192869
 20
164.9161827553999
 10
134.4170152062442
 20
162.2514236464972
 10
135.4079064584852
 20
161.6355943508565
  0
TEXT
  5
44B
330
593
100
AcDbEntity
  8
DEFAULT
  6
Continuous
 62
   136
100
AcDbText
 10
128.9047469691023
 20
153.934539982192
 30
0.0
 40
3.5
  1
R
 50
58.13944995403313
  7
seiso_ttf
 11
125.9320733041359
 21
155.7820278120884
 31
0.0
100
AcDbText
 73
     3
  0
TEXT
  5
44C
330
593
100
AcDbEntity
  8
DEFAULT
  6
Continuous
 62
   136
100
AcDbText
 10
131.1049370210698
 20
157.4747240741065
 30
0.0
 40
3.5
  1
1
 50
58.13944995403313
  7
seiso_ttf
 11
128.1322633561035
 21
159.3222119040029
 31
0.0
100
AcDbText
 73
     3
  0
ENDBLK
  5
44D
330
593
100
AcDbEntity
  8
DEFAULT
  6
Continuous
 62
   136
100
AcDbBlockEnd
  0
BLOCK
  5
44E
330
594
100
AcDbEntity
  8
DEFAULT
 62
     1
100
AcDbBlockBegin
  2
SE22
 70
     0
 10
0.0
 20
0.0
 30
0.0
  3
SE22
  1

  0
LWPOLYLINE
  5
44F
330
594
100
AcDbEntity
  8
DEFAULT
  6
Continuous
 62
   136
100
AcDbPolyline
 90
        4
 70
     0
 43
0.0
 10
207.2231443921581
 20
187.9963452243486
 10
210.7231445001915
 20
187.4130118730097
 10
207.2231443921581
 20
186.8296785216708
 10
207.2231443921581
 20
187.9963452243486
  0
LWPOLYLINE
  5
455
330
594
100
AcDbEntity
  8
DEFAULT
  6
Continuous
 62
   136
100
AcDbPolyline
 90
        4
 70
     0
 43
0.0
 10
224.623144608225
 20
187.9963452243486
 10
221.1231445001915
 20
187.4130118730097
 10
224.623144608225
 20
186.8296785216708
 10
224.623144608225
 20
187.9963452243486
  0
LINE
  5
45B
330
594
100
AcDbEntity
  8
DEFAULT
  6
Continuous
 62
   136
100
AcDbLine
 10
210.7231445001915
 20
174.6148534210949
 30
0.0
 11
210.7231445001915
 21
189.1630119270264
 31
0.0
  0
LINE
  5
45C
330
594
100
AcDbEntity
  8
DEFAULT
  6
Continuous
 62
   136
100
AcDbLine
 10
221.1231445001915
 20
174.6148534210949
 30
0.0
 11
221.1231445001915
 21
189.1630119270264
 31
0.0
  0
LINE
  5
45D
330
594
100
AcDbEntity
  8
DEFAULT
  6
Continuous
 62
   136
100
AcDbLine
 10
203.7231442841247
 20
187.4130118730097
 30
0.0
 11
228.1231447445706
 21
187.4130118730097
 31
0.0
  0
TEXT
  5
45E
330
594
100
AcDbEntity
  8
DEFAULT
  6
Continuous
 62
   136
100
AcDbText
 10
213.536780877984
 20
188.2880118730097
 30
0.0
 40
3.5
  1
5,2
  7
seiso_ttf
 11
213.536780877984
 21
191.7880118730097
 31
0.0
100
AcDbText
 73
     3
  0
ENDBLK
  5
45F
330
594
100
AcDbEntity
  8
DEFAULT
  6
Continuous
 62
   136
100
AcDbBlockEnd
  0
BLOCK
  5
460
330
595
100
AcDbEntity
  8
DEFAULT
 62
     1
100
AcDbBlockBegin
  2
SE23
 70
     0
 10
0.0
 20
0.0
 30
0.0
  3
SE23
  1

  0
LWPOLYLINE
  5
461
330
595
100
AcDbEntity
  8
DEFAULT
  6
Continuous
 62
   136
100
AcDbPolyline
 90
        4
 70
     0
 43
0.0
 10
263.3317152210235
 20
176.1148535291283
 10
262.7483818696846
 20
172.6148534210949
 10
262.1650485183457
 20
176.1148535291283
 10
263.3317152210235
 20
176.1148535291283
  0
LWPOLYLINE
  5
467
330
595
100
AcDbEntity
  8
DEFAULT
  6
Continuous
 62
   136
100
AcDbPolyline
 90
        4
 70
     0
 43
0.0
 10
263.3317152210235
 20
161.1148533130615
 10
262.7483818696846
 20
164.6148534210949
 10
262.1650485183457
 20
161.1148533130615
 10
263.3317152210235
 20
161.1148533130615
  0
LINE
  5
46D
330
595
100
AcDbEntity
  8
DEFAULT
  6
Continuous
 62
   136
100
AcDbLine
 10
241.1312375234474
 20
172.6148534210949
 30
0.0
 11
264.4983819237013
 21
172.6148534210949
 31
0.0
  0
LINE
  5
46E
330
595
100
AcDbEntity
  8
DEFAULT
  6
Continuous
 62
   136
100
AcDbLine
 10
243.9231445001916
 20
164.6148534210949
 30
0.0
 11
264.4983819237013
 21
164.6148534210949
 31
0.0
  0
LINE
  5
46F
330
595
100
AcDbEntity
  8
DEFAULT
  6
Continuous
 62
   136
100
AcDbLine
 10
262.7483818696846
 20
179.6148536371618
 30
0.0
 11
262.7483818696846
 21
157.614853756371
 31
0.0
  0
TEXT
  5
470
330
595
100
AcDbEntity
  8
DEFAULT
  6
Continuous
 62
   136
100
AcDbText
 10
261.8733818696846
 20
167.5807623220142
 30
0.0
 40
3.5
  1
4
 50
90.0
  7
seiso_ttf
 11
258.3733818696846
 21
167.5807623220142
 31
0.0
100
AcDbText
 73
     3
  0
ENDBLK
  5
471
330
595
100
AcDbEntity
  8
DEFAULT
  6
Continuous
 62
   136
100
AcDbBlockEnd
  0
BLOCK
  5
472
330
596
100
AcDbEntity
  8
DEFAULT
 62
     1
100
AcDbBlockBegin
  2
SE24
 70
     0
 10
0.0
 20
0.0
 30
0.0
  3
SE24
  1

  0
LWPOLYLINE
  5
473
330
596
100
AcDbEntity
  8
DEFAULT
  6
Continuous
 62
   136
100
AcDbPolyline
 90
        4
 70
     0
 43
0.0
 10
254.3673012533171
 20
175.1148535291283
 10
253.7839679019781
 20
171.6148534210949
 10
253.2006345506392
 20
175.1148535291283
 10
254.3673012533171
 20
175.1148535291283
  0
LWPOLYLINE
  5
479
330
596
100
AcDbEntity
  8
DEFAULT
  6
Continuous
 62
   136
100
AcDbPolyline
 90
        4
 70
     0
 43
0.0
 10
254.3673012533171
 20
165.1148533130615
 10
253.7839679019781
 20
168.6148534210949
 10
253.2006345506392
 20
165.1148533130615
 10
254.3673012533171
 20
165.1148533130615
  0
LINE
  5
47F
330
596
100
AcDbEntity
  8
DEFAULT
  6
Continuous
 62
   136
100
AcDbLine
 10
237.1271910118195
 20
171.6148534210949
 30
0.0
 11
255.5339679559948
 21
171.6148534210949
 31
0.0
  0
LINE
  5
480
330
596
100
AcDbEntity
  8
DEFAULT
  6
Continuous
 62
   136
100
AcDbLine
 10
244.9231445001916
 20
168.6148534210949
 30
0.0
 11
255.5339679559948
 21
168.6148534210949
 31
0.0
  0
LINE
  5
481
330
596
100
AcDbEntity
  8
DEFAULT
  6
Continuous
 62
   136
100
AcDbLine
 10
253.7839679019781
 20
178.6148536371618
 30
0.0
 11
253.7839679019781
 21
161.6148536446123
 31
0.0
  0
TEXT
  5
482
330
596
100
AcDbEntity
  8
DEFAULT
  6
Continuous
 62
   136
100
AcDbText
 10
252.9089679019781
 20
168.0864443171473
 30
0.0
 40
3.5
  1
1,5
 50
90.0
  7
seiso_ttf
 11
249.4089679019781
 21
168.0864443171473
 31
0.0
100
AcDbText
 73
     3
  0
ENDBLK
  5
483
330
596
100
AcDbEntity
  8
DEFAULT
  6
Continuous
 62
   136
100
AcDbBlockEnd
  0
BLOCK
  5
484
330
597
100
AcDbEntity
  8
DEFAULT
 62
     1
100
AcDbBlockBegin
  2
SE25
 70
     0
 10
0.0
 20
0.0
 30
0.0
  3
SE25
  1

  0
LINE
  5
485
330
597
100
AcDbEntity
  8
DEFAULT
  6
Continuous
 62
   136
100
AcDbLine
 10
243.9231445001916
 20
166.6148534210949
 30
0.0
 11
251.9911415303496
 21
150.6949528826438
 31
0.0
  0
LWPOLYLINE
  5
486
330
597
100
AcDbEntity
  8
DEFAULT
  6
Continuous
 62
   136
100
AcDbPolyline
 90
        4
 70
     0
 43
0.0
 10
246.9297492590195
 20
161.9725903079846
 10
244.8272447605787
 20
164.8308683541261
 10
245.889091271166
 20
161.4451984731466
 10
246.9297492590195
 20
161.9725903079846
  0
TEXT
  5
48C
330
597
100
AcDbEntity
  8
DEFAULT
  6
Continuous
 62
   136
100
AcDbText
 10
249.6863931462076
 20
157.1783452200378
 30
0.0
 40
3.5
  1
R
 50
296.8752944469455
  7
seiso_ttf
 11
252.8083670134031
 21
158.7605206757153
 31
0.0
100
AcDbText
 73
     3
  0
TEXT
  5
48D
330
597
100
AcDbEntity
  8
DEFAULT
  6
Continuous
 62
   136
100
AcDbText
 10
251.5706202797872
 20
153.4603581600141
 30
0.0
 40
3.5
  1
1
 50
296.8752944469455
  7
seiso_ttf
 11
254.6925941469827
 21
155.0425336156916
 31
0.0
100
AcDbText
 73
     3
  0
ENDBLK
  5
48E
330
597
100
AcDbEntity
  8
DEFAULT
  6
Continuous
 62
   136
100
AcDbBlockEnd
  0
BLOCK
  5
48F
330
598
100
AcDbEntity
  8
DEFAULT
 62
     1
100
AcDbBlockBegin
  2
SE26
 70
     0
 10
0.0
 20
0.0
 30
0.0
  3
SE26
  1

  0
LWPOLYLINE
  5
490
330
598
100
AcDbEntity
  8
DEFAULT
  6
Continuous
 62
   136
100
AcDbPolyline
 90
        4
 70
     0
 43
0.0
 10
145.3156559426229
 20
137.4850076698365
 10
148.8156560506563
 20
136.9016743184976
 10
145.3156559426229
 20
136.3183409671587
 10
145.3156559426229
 20
137.4850076698365
  0
LWPOLYLINE
  5
496
330
598
100
AcDbEntity
  8
DEFAULT
  6
Continuous
 62
   136
100
AcDbPolyline
 90
        4
 70
     0
 43
0.0
 10
139.3156561586897
 20
137.4850076698365
 10
135.8156560506563
 20
136.9016743184976
 10
139.3156561586897
 20
136.3183409671587
 10
139.3156561586897
 20
137.4850076698365
  0
LINE
  5
49C
330
598
100
AcDbEntity
  8
DEFAULT
  6
Continuous
 62
   136
100
AcDbLine
 10
148.8156560506563
 20
120.6050584943942
 30
0.0
 11
148.8156560506563
 21
138.6516743725143
 31
0.0
  0
LINE
  5
49D
330
598
100
AcDbEntity
  8
DEFAULT
  6
Continuous
 62
   136
100
AcDbLine
 10
135.8156560506563
 20
132.6050584943943
 30
0.0
 11
135.8156560506563
 21
138.6516743725143
 31
0.0
  0
LINE
  5
49E
330
598
100
AcDbEntity
  8
DEFAULT
  6
Continuous
 62
   136
100
AcDbLine
 10
148.8156560506563
 20
136.9016743184976
 30
0.0
 11
135.8156557824354
 21
136.9016743184976
 31
0.0
  0
TEXT
  5
49F
330
598
100
AcDbEntity
  8
DEFAULT
  6
Continuous
 62
   136
100
AcDbText
 10
139.9292922801822
 20
137.7766743184976
 30
0.0
 40
3.5
  1
6,5
  7
seiso_ttf
 11
139.9292922801822
 21
141.2766743184976
 31
0.0
100
AcDbText
 73
     3
  0
ENDBLK
  5
4A0
330
598
100
AcDbEntity
  8
DEFAULT
  6
Continuous
 62
   136
100
AcDbBlockEnd
  0
BLOCK
  5
4A1
330
599
100
AcDbEntity
  8
DEFAULT
 62
     1
100
AcDbBlockBegin
  2
SE27
 70
     0
 10
0.0
 20
0.0
 30
0.0
  3
SE27
  1

  0
LWPOLYLINE
  5
4A2
330
599
100
AcDbEntity
  8
DEFAULT
  6
Continuous
 62
   136
100
AcDbPolyline
 90
        4
 70
     0
 43
0.0
 10
129.6722596054167
 20
124.1050586024277
 10
130.2555929567556
 20
120.6050584943942
 10
130.8389263080945
 20
124.1050586024277
 10
129.6722596054167
 20
124.1050586024277
  0
LWPOLYLINE
  5
4A8
330
599
100
AcDbEntity
  8
DEFAULT
  6
Continuous
 62
   136
100
AcDbPolyline
 90
        4
 70
     0
 43
0.0
 10
129.6722596054167
 20
130.1050583863608
 10
130.2555929567556
 20
133.6050584943943
 10
130.8389263080945
 20
130.1050583863608
 10
129.6722596054167
 20
130.1050583863608
  0
LINE
  5
4AE
330
599
100
AcDbEntity
  8
DEFAULT
  6
Continuous
 62
   136
100
AcDbLine
 10
148.8156560506563
 20
120.6050584943942
 30
0.0
 11
128.5055929027389
 21
120.6050584943942
 31
0.0
  0
LINE
  5
4AF
330
599
100
AcDbEntity
  8
DEFAULT
  6
Continuous
 62
   136
100
AcDbLine
 10
136.8156560506563
 20
133.6050584943943
 30
0.0
 11
128.5055929027389
 21
133.6050584943943
 31
0.0
  0
LINE
  5
4B0
330
599
100
AcDbEntity
  8
DEFAULT
  6
Continuous
 62
   136
100
AcDbLine
 10
130.2555929567556
 20
120.6050584943942
 30
0.0
 11
130.2555929567556
 21
133.6050587626152
 31
0.0
  0
TEXT
  5
4B1
330
599
100
AcDbEntity
  8
DEFAULT
  6
Continuous
 62
   136
100
AcDbText
 10
129.3805929567556
 20
124.7186949921411
 30
0.0
 40
3.5
  1
6,5
 50
90.0
  7
seiso_ttf
 11
125.8805929567556
 21
124.7186949921411
 31
0.0
100
AcDbText
 73
     3
  0
ENDBLK
  5
4B2
330
599
100
AcDbEntity
  8
DEFAULT
  6
Continuous
 62
   136
100
AcDbBlockEnd
  0
BLOCK
  5
4B3
330
59A
100
AcDbEntity
  8
DEFAULT
 62
     1
100
AcDbBlockBegin
  2
SE28
 70
     0
 10
0.0
 20
0.0
 30
0.0
  3
SE28
  1

  0
LWPOLYLINE
  5
4B4
330
59A
100
AcDbEntity
  8
DEFAULT
  6
Continuous
 62
   136
100
AcDbPolyline
 90
        4
 70
     0
 43
0.0
 10
106.6462402467818
 20
173.1148533130615
 10
107.2295735981207
 20
176.6148534210949
 10
107.8129069494596
 20
173.1148533130615
 10
106.6462402467818
 20
173.1148533130615
  0
LWPOLYLINE
  5
4BA
330
59A
100
AcDbEntity
  8
DEFAULT
  6
Continuous
 62
   136
100
AcDbPolyline
 90
        4
 70
     0
 43
0.0
 10
106.6462402467818
 20
168.1148535291283
 10
107.2295735981207
 20
164.6148534210949
 10
107.8129069494596
 20
168.1148535291283
 10
106.6462402467818
 20
168.1148535291283
  0
LINE
  5
4C0
330
59A
100
AcDbEntity
  8
DEFAULT
  6
Continuous
 62
   136
100
AcDbLine
 10
144.4156560506563
 20
176.6148534210949
 30
0.0
 11
105.479573544104
 21
176.6148534210949
 31
0.0
  0
LINE
  5
4C1
330
59A
100
AcDbEntity
  8
DEFAULT
  6
Continuous
 62
   136
100
AcDbLine
 10
137.8156560506563
 20
164.6148534210949
 30
0.0
 11
105.479573544104
 21
164.6148534210949
 31
0.0
  0
LINE
  5
4C2
330
59A
100
AcDbEntity
  8
DEFAULT
  6
Continuous
 62
   136
100
AcDbLine
 10
107.2295735981207
 20
176.6148534210949
 30
0.0
 11
107.2295735981207
 21
164.6148533167868
 31
0.0
  0
TEXT
  5
4C3
330
59A
100
AcDbEntity
  8
DEFAULT
  6
Continuous
 62
   136
100
AcDbText
 10
106.3545735981207
 20
169.5409897325772
 30
0.0
 40
3.5
  1
6
 50
90.0
  7
seiso_ttf
 11
102.8545735981207
 21
169.5409897325772
 31
0.0
100
AcDbText
 73
     3
  0
ENDBLK
  5
4C4
330
59A
100
AcDbEntity
  8
DEFAULT
  6
Continuous
 62
   136
100
AcDbBlockEnd
  0
BLOCK
  5
4C5
330
59B
100
AcDbEntity
  8
DEFAULT
 62
     1
100
AcDbBlockBegin
  2
SE29
 70
     0
 10
0.0
 20
0.0
 30
0.0
  3
SE29
  1

  0
LWPOLYLINE
  5
4C6
330
59B
100
AcDbEntity
  8
DEFAULT
  6
Continuous
 62
   136
100
AcDbPolyline
 90
        4
 70
     0
 43
0.0
 10
183.018849065513
 20
163.1148533130615
 10
183.6021824168518
 20
166.6148534210949
 10
184.1855157681907
 20
163.1148533130615
 10
183.018849065513
 20
163.1148533130615
  0
LWPOLYLINE
  5
4CC
330
59B
100
AcDbEntity
  8
DEFAULT
  6
Continuous
 62
   136
100
AcDbPolyline
 90
        4
 70
     0
 43
0.0
 10
183.018849065513
 20
180.1148535291283
 10
183.6021824168518
 20
176.6148534210949
 10
184.1855157681907
 20
180.1148535291283
 10
183.018849065513
 20
180.1148535291283
  0
LINE
  5
4D2
330
59B
100
AcDbEntity
  8
DEFAULT
  6
Continuous
 62
   136
100
AcDbLine
 10
206.7231445001915
 20
166.6148534210949
 30
0.0
 11
181.8521823628351
 21
166.6148534210949
 31
0.0
  0
LINE
  5
4D3
330
59B
100
AcDbEntity
  8
DEFAULT
  6
Continuous
 62
   136
100
AcDbLine
 10
211.5231445001916
 20
176.6148534210949
 30
0.0
 11
181.8521823628351
 21
176.6148534210949
 31
0.0
  0
LINE
  5
4D4
330
59B
100
AcDbEntity
  8
DEFAULT
  6
Continuous
 62
   136
100
AcDbLine
 10
183.6021824168518
 20
159.6148532050281
 30
0.0
 11
183.6021824168518
 21
183.6148543449669
 31
0.0
  0
TEXT
  5
4D5
330
59B
100
AcDbEntity
  8
DEFAULT
  6
Continuous
 62
   136
100
AcDbText
 10
182.7271824168518
 20
170.6205351275181
 30
0.0
 40
3.5
  1
5
 50
90.0
  7
seiso_ttf
 11
179.2271824168518
 21
170.6205351275181
 31
0.0
100
AcDbText
 73
     3
  0
ENDBLK
  5
4D6
330
59B
100
AcDbEntity
  8
DEFAULT
  6
Continuous
 62
   136
100
AcDbBlockEnd
  0
BLOCK
  5
4D7
330
59C
100
AcDbEntity
  8
DEFAULT
 62
     1
100
AcDbBlockBegin
  2
SE30
 70
     0
 10
0.0
 20
0.0
 30
0.0
  3
SE30
  1

  0
LWPOLYLINE
  5
4D8
330
59C
100
AcDbEntity
  8
DEFAULT
  6
Continuous
 62
   136
100
AcDbPolyline
 90
        4
 70
     0
 43
0.0
 10
195.0465898197001
 20
180.1148535291283
 10
195.6299231710389
 20
176.6148534210949
 10
196.2132565223778
 20
180.1148535291283
 10
195.0465898197001
 20
180.1148535291283
  0
LINE
  5
4DE
330
59C
100
AcDbEntity
  8
DEFAULT
  6
Continuous
 62
   136
100
AcDbLine
 10
210.7231445001915
 20
174.6148534210949
 30
0.0
 11
193.8799231170222
 21
174.6148534210949
 31
0.0
  0
LINE
  5
4DF
330
59C
100
AcDbEntity
  8
DEFAULT
  6
Continuous
 62
   136
100
AcDbLine
 10
220.3231445001915
 20
176.6148534210949
 30
0.0
 11
193.8799231170222
 21
176.6148534210949
 31
0.0
  0
LINE
  5
4E0
330
59C
100
AcDbEntity
  8
DEFAULT
  6
Continuous
 62
   136
100
AcDbLine
 10
195.6299231710389
 20
167.6148532050281
 30
0.0
 11
195.6299231710389
 21
184.0694697665601
 31
0.0
  0
TEXT
  5
4E1
330
59C
100
AcDbEntity
  8
DEFAULT
  6
Continuous
 62
   136
100
AcDbText
 10
194.7549231710389
 20
181.4126516173213
 30
0.0
 40
3.5
  1
1
 50
90.0
  7
seiso_ttf
 11
191.2549231710389
 21
181.4126516173213
 31
0.0
100
AcDbText
 73
     3
  0
ENDBLK
  5
4E2
330
59C
100
AcDbEntity
  8
DEFAULT
  6
Continuous
 62
   136
100
AcDbBlockEnd
  0
BLOCK
  5
4E3
330
59D
100
AcDbEntity
  8
DEFAULT
 62
     1
100
AcDbBlockBegin
  2
SE31
 70
     0
 10
0.0
 20
0.0
 30
0.0
  3
SE31
  1

  0
LWPOLYLINE
  5
4E4
330
59D
100
AcDbEntity
  8
DEFAULT
  6
Continuous
 62
   136
100
AcDbPolyline
 90
        4
 70
     0
 43
0.0
 10
195.0465898197001
 20
165.1148533130615
 10
195.6299231710389
 20
168.6148534210949
 10
196.2132565223778
 20
165.1148533130615
 10
195.0465898197001
 20
165.1148533130615
  0
LINE
  5
4EA
330
59D
100
AcDbEntity
  8
DEFAULT
  6
Continuous
 62
   136
100
AcDbLine
 10
210.7231445001915
 20
174.6148534210949
 30
0.0
 11
193.8799231170222
 21
174.6148534210949
 31
0.0
  0
LINE
  5
4EB
330
59D
100
AcDbEntity
  8
DEFAULT
  6
Continuous
 62
   136
100
AcDbLine
 10
203.9231445001916
 20
168.6148534210949
 30
0.0
 11
193.8799231170223
 21
168.6148534210949
 31
0.0
  0
LINE
  5
4EC
330
59D
100
AcDbEntity
  8
DEFAULT
  6
Continuous
 62
   136
100
AcDbLine
 10
195.6299231710389
 20
181.6148536371618
 30
0.0
 11
195.6299231710389
 21
156.844138363245
 31
0.0
  0
TEXT
  5
4ED
330
59D
100
AcDbEntity
  8
DEFAULT
  6
Continuous
 62
   136
100
AcDbText
 10
194.7549231710389
 20
158.0691374857021
 30
0.0
 40
3.5
  1
3
 50
90.0
  7
seiso_ttf
 11
191.2549231710389
 21
158.0691374857021
 31
0.0
100
AcDbText
 73
     3
  0
ENDBLK
  5
4EE
330
59D
100
AcDbEntity
  8
DEFAULT
  6
Continuous
 62
   136
100
AcDbBlockEnd
  0
BLOCK
  5
4EF
330
59E
100
AcDbEntity
  8
DEFAULT
 62
     1
100
AcDbBlockBegin
  2
SE32
 70
     0
 10
0.0
 20
0.0
 30
0.0
  3
SE32
  1

  0
LWPOLYLINE
  5
4F0
330
59E
100
AcDbEntity
  8
DEFAULT
  6
Continuous
 62
   136
100
AcDbPolyline
 90
        4
 70
     0
 43
0.0
 10
208.4231443921582
 20
181.9685297408381
 10
211.9231445001916
 20
181.3851963894992
 10
208.4231443921582
 20
180.8018630381603
 10
208.4231443921582
 20
181.9685297408381
  0
LWPOLYLINE
  5
4F6
330
59E
100
AcDbEntity
  8
DEFAULT
  6
Continuous
 62
   136
100
AcDbPolyline
 90
        4
 70
     0
 43
0.0
 10
223.423144608225
 20
181.9685297408381
 10
219.9231445001915
 20
181.3851963894992
 10
223.423144608225
 20
180.8018630381603
 10
223.423144608225
 20
181.9685297408381
  0
LINE
  5
4FC
330
59E
100
AcDbEntity
  8
DEFAULT
  6
Continuous
 62
   136
100
AcDbLine
 10
211.9231445001916
 20
176.2148538770705
 30
0.0
 11
211.9231445001916
 21
183.1351964435159
 31
0.0
  0
LINE
  5
4FD
330
59E
100
AcDbEntity
  8
DEFAULT
  6
Continuous
 62
   136
100
AcDbLine
 10
219.9231445001915
 20
176.2148538770705
 30
0.0
 11
219.9231445001915
 21
183.1351964435159
 31
0.0
  0
LINE
  5
4FE
330
59E
100
AcDbEntity
  8
DEFAULT
  6
Continuous
 62
   136
100
AcDbLine
 10
204.9231442841247
 20
181.3851963894992
 30
0.0
 11
226.9231441649155
 21
181.3851963894992
 31
0.0
  0
TEXT
  5
4FF
330
59E
100
AcDbEntity
  8
DEFAULT
  6
Continuous
 62
   136
100
AcDbText
 10
214.8890537810905
 20
182.2601963894992
 30
0.0
 40
3.5
  1
4
  7
seiso_ttf
 11
214.8890537810905
 21
185.7601963894992
 31
0.0
100
AcDbText
 73
     3
  0
ENDBLK
  5
500
330
59E
100
AcDbEntity
  8
DEFAULT
  6
Continuous
 62
   136
100
AcDbBlockEnd
  0
BLOCK
  5
501
330
59F
100
AcDbEntity
  8
DEFAULT
 62
     1
100
AcDbBlockBegin
  2
SE33
 70
     0
 10
0.0
 20
0.0
 30
0.0
  3
SE33
  1

  0
LINE
  5
502
330
59F
100
AcDbEntity
  8
DEFAULT
  6
Continuous
 62
   136
100
AcDbLine
 10
144.4156560506563
 20
176.2148534210949
 30
0.0
 11
154.7032961527184
 21
186.1593292350446
 31
0.0
  0
LWPOLYLINE
  5
503
330
59F
100
AcDbEntity
  8
DEFAULT
  6
Continuous
 62
   136
100
AcDbPolyline
 90
        4
 70
     0
 43
0.0
 10
146.8143194374273
 20
179.3448202896751
 10
144.7032547950485
 20
176.4928587487849
 10
147.6251683348847
 20
178.5059905926392
 10
146.8143194374273
 20
179.3448202896751
  0
TEXT
  5
509
330
59F
100
AcDbEntity
  8
DEFAULT
  6
Continuous
 62
   136
100
AcDbText
 10
146.7287098648319
 20
179.6677241409346
 30
0.0
 40
3.5
  1
R
 50
44.02827858924821
  7
seiso_ttf
 11
144.2961632475444
 21
182.1842131543664
 31
0.0
100
AcDbText
 73
     3
  0
TEXT
  5
50A
330
59F
100
AcDbEntity
  8
DEFAULT
  6
Continuous
 62
   136
100
AcDbText
 10
149.7256195081007
 20
182.5646660215225
 30
0.0
 40
3.5
  1
0,2
 50
44.02827858924821
  7
seiso_ttf
 11
147.2930728908131
 21
185.0811550349543
 31
0.0
100
AcDbText
 73
     3
  0
ENDBLK
  5
50B
330
59F
100
AcDbEntity
  8
DEFAULT
  6
Continuous
 62
   136
100
AcDbBlockEnd
  0
BLOCK
  5
5B5
330
5B4
100
AcDbEntity
  8
0
100
AcDbBlockBegin
  2
*D34
 70
     1
 10
0.0
 20
0.0
 30
0.0
  3
*D34
  1

  0
LINE
  5
5C2
330
5B4
100
AcDbEntity
  8
0
  6
Continuous
 62
     0
370
    -2
100
AcDbLine
 10
135.8156560506563
 20
132.6675584943943
 30
0.0
 11
135.8156560506563
 21
153.879386754259
 31
0.0
  0
LINE
  5
5C3
330
5B4
100
AcDbEntity
  8
0
  6
Continuous
 62
     0
370
    -2
100
AcDbLine
 10
178.8156560506563
 20
132.6675584943943
 30
0.0
 11
178.8156560506563
 21
153.879386754259
 31
0.0
  0
LINE
  5
5C4
330
5B4
100
AcDbEntity
  8
0
  6
Continuous
 62
     0
370
    -2
100
AcDbLine
 10
135.9956560506563
 20
153.699386754259
 30
0.0
 11
156.7456560506563
 21
153.699386754259
 31
0.0
  0
LINE
  5
5C5
330
5B4
100
AcDbEntity
  8
0
  6
Continuous
 62
     0
370
    -2
100
AcDbLine
 10
178.6356560506563
 20
153.699386754259
 30
0.0
 11
157.8856560506563
 21
153.699386754259
 31
0.0
  0
SOLID
  5
5C6
330
5B4
100
AcDbEntity
  8
0
  6
Continuous
 62
     0
100
AcDbTrace
 10
135.9956560506563
 20
153.729386754259
 30
0.0
 11
135.9956560506563
 21
153.669386754259
 31
0.0
 12
135.8156560506563
 22
153.699386754259
 32
0.0
 13
135.8156560506563
 23
153.699386754259
 33
0.0
  0
SOLID
  5
5C7
330
5B4
100
AcDbEntity
  8
0
  6
Continuous
 62
     0
100
AcDbTrace
 10
178.6356560506563
 20
153.729386754259
 30
0.0
 11
178.6356560506563
 21
153.669386754259
 31
0.0
 12
178.8156560506563
 22
153.699386754259
 32
0.0
 13
178.8156560506563
 23
153.699386754259
 33
0.0
  0
MTEXT
  5
5C8
330
5B4
100
AcDbEntity
  8
0
  6
Continuous
 62
     0
100
AcDbMText
 10
157.3156560506563
 20
153.699386754259
 30
0.0
 40
0.18
 41
0.0
 71
     5
 72
     1
  1
\A1;43.0000
 73
     1
 44
1.0
1001
ACAD
1000
MTEXTBEGIN
1070
    73
1070
     1
1070
    44
1040
1.0
1070
    74
1070
     0
1000
MTEXTEND
  0
POINT
  5
5C9
330
5B4
100
AcDbEntity
  8
Defpoints
  6
Continuous
 62
     0
100
AcDbPoint
 10
135.8156560506563
 20
132.6050584943943
 30
0.0
  0
POINT
  5
5CA
330
5B4
100
AcDbEntity
  8
Defpoints
  6
Continuous
 62
     0
100
AcDbPoint
 10
178.8156560506563
 20
132.6050584943943
 30
0.0
  0
POINT
  5
5CB
330
5B4
100
AcDbEntity
  8
Defpoints
  6
Continuous
 62
     0
100
AcDbPoint
 10
178.8156560506563
 20
153.699386754259
 30
0.0
  0
ENDBLK
  5
5B6
330
5B4
100
AcDbEntity
  8
0
100
AcDbBlockEnd
  0
BLOCK
  5
5CF
330
5CE
100
AcDbEntity
  8
0
100
AcDbBlockBegin
  2
*D35
 70
     1
 10
0.0
 20
0.0
 30
0.0
  3
*D35
  1

  0
LINE
  5
5DC
330
5CE
100
AcDbEntity
  8
0
  6
Continuous
 62
     0
370
    -2
100
AcDbLine
 10
170.0781560506563
 20
107.4050584943943
 30
0.0
 11
205.723390512265
 21
107.4050584943943
 31
0.0
  0
LINE
  5
5DD
330
5CE
100
AcDbEntity
  8
0
  6
Continuous
 62
     0
370
    -2
100
AcDbLine
 10
170.0781560506563
 20
95.39696547113843
 30
0.0
 11
205.723390512265
 21
95.39696547113843
 31
0.0
  0
LINE
  5
5DE
330
5CE
100
AcDbEntity
  8
0
  6
Continuous
 62
     0
370
    -2
100
AcDbLine
 10
205.543390512265
 20
107.2250584943942
 30
0.0
 11
205.543390512265
 21
101.5810119827663
 31
0.0
  0
LINE
  5
5DF
330
5CE
100
AcDbEntity
  8
0
  6
Continuous
 62
     0
370
    -2
100
AcDbLine
 10
205.543390512265
 20
95.57696547113843
 30
0.0
 11
205.543390512265
 21
101.2210119827663
 31
0.0
  0
SOLID
  5
5E0
330
5CE
100
AcDbEntity
  8
0
  6
Continuous
 62
     0
100
AcDbTrace
 10
205.513390512265
 20
107.2250584943942
 30
0.0
 11
205.573390512265
 21
107.2250584943942
 31
0.0
 12
205.543390512265
 22
107.4050584943943
 32
0.0
 13
205.543390512265
 23
107.4050584943943
 33
0.0
  0
SOLID
  5
5E1
330
5CE
100
AcDbEntity
  8
0
  6
Continuous
 62
     0
100
AcDbTrace
 10
205.513390512265
 20
95.57696547113843
 30
0.0
 11
205.573390512265
 21
95.57696547113843
 31
0.0
 12
205.543390512265
 22
95.39696547113843
 32
0.0
 13
205.543390512265
 23
95.39696547113843
 33
0.0
  0
MTEXT
  5
5E2
330
5CE
100
AcDbEntity
  8
0
  6
Continuous
 62
     0
100
AcDbMText
 10
205.543390512265
 20
101.4010119827664
 30
0.0
 40
0.18
 41
0.0
 71
     5
 72
     1
  1
\A1;12.0081
 73
     1
 44
1.0
1001
ACAD
1000
MTEXTBEGIN
1070
    73
1070
     1
1070
    44
1040
1.0
1070
    74
1070
     0
1000
MTEXTEND
  0
POINT
  5
5E3
330
5CE
100
AcDbEntity
  8
Defpoints
  6
Continuous
 62
     0
100
AcDbPoint
 10
170.0156560506563
 20
107.4050584943943
 30
0.0
  0
POINT
  5
5E4
330
5CE
100
AcDbEntity
  8
Defpoints
  6
Continuous
 62
     0
100
AcDbPoint
 10
170.0156560506563
 20
95.39696547113843
 30
0.0
  0
POINT
  5
5E5
330
5CE
100
AcDbEntity
  8
Defpoints
  6
Continuous
 62
     0
100
AcDbPoint
 10
205.543390512265
 20
95.39696547113843
 30
0.0
  0
ENDBLK
  5
5D0
330
5CE
100
AcDbEntity
  8
0
100
AcDbBlockEnd
  0
BLOCK
  5
603
330
602
100
AcDbEntity
  8
0
100
AcDbBlockBegin
  2
*D36
 70
     1
 10
0.0
 20
0.0
 30
0.0
  3
*D36
  1

  0
LINE
  5
610
330
602
100
AcDbEntity
  8
0
  6
Continuous
 62
     0
370
    -2
100
AcDbLine
 10
197.2467539732852
 20
115.8530839213164
 30
0.0
 11
210.260786658933
 21
115.8530839213164
 31
0.0
  0
LINE
  5
611
330
602
100
AcDbEntity
  8
0
  6
Continuous
 62
     0
370
    -2
100
AcDbLine
 10
197.2467539732852
 20
109.8490374096884
 30
0.0
 11
210.260786658933
 21
109.8490374096884
 31
0.0
  0
LINE
  5
612
330
602
100
AcDbEntity
  8
0
  6
Continuous
 62
     0
370
    -2
100
AcDbLine
 10
210.080786658933
 20
115.6730839213164
 30
0.0
 11
210.080786658933
 21
113.0310606655024
 31
0.0
  0
LINE
  5
613
330
602
100
AcDbEntity
  8
0
  6
Continuous
 62
     0
370
    -2
100
AcDbLine
 10
210.080786658933
 20
110.0290374096885
 30
0.0
 11
210.080786658933
 21
112.6710606655024
 31
0.0
  0
SOLID
  5
614
330
602
100
AcDbEntity
  8
0
  6
Continuous
 62
     0
100
AcDbTrace
 10
210.050786658933
 20
115.6730839213164
 30
0.0
 11
210.110786658933
 21
115.6730839213164
 31
0.0
 12
210.080786658933
 22
115.8530839213164
 32
0.0
 13
210.080786658933
 23
115.8530839213164
 33
0.0
  0
SOLID
  5
615
330
602
100
AcDbEntity
  8
0
  6
Continuous
 62
     0
100
AcDbTrace
 10
210.050786658933
 20
110.0290374096885
 30
0.0
 11
210.110786658933
 21
110.0290374096885
 31
0.0
 12
210.080786658933
 22
109.8490374096884
 32
0.0
 13
210.080786658933
 23
109.8490374096884
 33
0.0
  0
MTEXT
  5
616
330
602
100
AcDbEntity
  8
0
  6
Continuous
 62
     0
100
AcDbMText
 10
210.080786658933
 20
112.8510606655024
 30
0.0
 40
0.18
 41
0.0
 71
     5
 72
     1
  1
\A1;6.0040
 73
     1
 44
1.0
1001
ACAD
1000
MTEXTBEGIN
1070
    73
1070
     1
1070
    44
1040
1.0
1070
    74
1070
     0
1000
MTEXTEND
  0
POINT
  5
617
330
602
100
AcDbEntity
  8
Defpoints
  6
Continuous
 62
     0
100
AcDbPoint
 10
197.1842539732852
 20
115.8530839213164
 30
0.0
  0
POINT
  5
618
330
602
100
AcDbEntity
  8
Defpoints
  6
Continuous
 62
     0
100
AcDbPoint
 10
197.1842539732852
 20
109.8490374096884
 30
0.0
  0
POINT
  5
619
330
602
100
AcDbEntity
  8
Defpoints
  6
Continuous
 62
     0
100
AcDbPoint
 10
210.080786658933
 20
109.8490374096884
 30
0.0
  0
ENDBLK
  5
604
330
602
100
AcDbEntity
  8
0
100
AcDbBlockEnd
  0
ENDSEC
  0
SECTION
  2
ENTITIES
  0
INSERT
  5
53
330
57A
100
AcDbEntity
  8
0
 62
     0
100
AcDbBlockReference
  2
SE2
 10
-74.40782802532817
 20
-60.30252924719713
 30
0.0
 41
0.5
 42
0.5
 43
0.5
  0
INSERT
  5
57
330
57A
100
AcDbEntity
  8
0
 62
     0
100
AcDbBlockReference
  2
SE1
 10
0.0
 20
0.0
 30
0.0
  0
INSERT
  5
5B
330
57A
100
AcDbEntity
  8
0
 62
     0
100
AcDbBlockReference
  2
SE4
 10
-74.40782802532817
 20
-60.30252924719713
 30
0.0
 41
0.5
 42
0.5
 43
0.5
  0
INSERT
  5
5F
330
57A
100
AcDbEntity
  8
0
 62
     0
100
AcDbBlockReference
  2
SE3
 10
0.0
 20
0.0
 30
0.0
  0
INSERT
  5
63
330
57A
100
AcDbEntity
  8
0
 62
     0
100
AcDbBlockReference
  2
SE6
 10
-74.40782802532817
 20
-60.30252924719713
 30
0.0
 41
0.5
 42
0.5
 43
0.5
  0
INSERT
  5
67
330
57A
100
AcDbEntity
  8
0
 62
     0
100
AcDbBlockReference
  2
SE5
 10
0.0
 20
0.0
 30
0.0
  0
INSERT
  5
6F
330
57A
100
AcDbEntity
  8
0
 62
     0
100
AcDbBlockReference
  2
SE7
 10
0.0
 20
0.0
 30
0.0
  0
ENDSEC
  0
SECTION
  2
OBJECTS
  0
DICTIONARY
  5
51B
330
0
100
AcDbDictionary
281
     1
  3
ACAD_COLOR
350
571
  3
ACAD_GROUP
350
51C
  3
ACAD_LAYOUT
350
570
  3
ACAD_MATERIAL
350
51F
  3
ACAD_MLEADERSTYLE
350
574
  3
ACAD_MLINESTYLE
350
56D
  3
ACAD_PLOTSETTINGS
350
56F
  3
ACAD_PLOTSTYLENAME
350
51D
  3
ACAD_SCALELIST
350
551
  3
ACAD_TABLESTYLE
350
572
  3
ACAD_VISUALSTYLE
350
538
  3
ACDB_RECOMPOSE_DATA
350
62E
  3
AcDbVariableDictionary
350
61F
  3
ASE_INDEX_DICTIONARY
350
61C
  3
DWGPROPS
350
62F
  0
DICTIONARY
  5
571
102
{ACAD_REACTORS
330
51B
102
}
330
51B
100
AcDbDictionary
281
     1
  0
DICTIONARY
  5
51C
102
{ACAD_REACTORS
330
51B
102
}
330
51B
100
AcDbDictionary
281
     1
  0
DICTIONARY
  5
570
102
{ACAD_REACTORS
330
51B
102
}
330
51B
100
AcDbDictionary
281
     1
  3
Layout1
350
579
  3
Model
350
57D
  0
DICTIONARY
  5
51F
102
{ACAD_REACTORS
330
51B
102
}
330
51B
100
AcDbDictionary
281
     1
  3
ByBlock
350
528
  3
ByLayer
350
520
  3
Global
350
530
  0
DICTIONARY
  5
574
102
{ACAD_REACTORS
330
51B
102
}
330
51B
100
AcDbDictionary
281
     1
  3
Standard
350
575
  0
DICTIONARY
  5
56D
102
{ACAD_REACTORS
330
51B
102
}
330
51B
100
AcDbDictionary
281
     1
  3
Standard
350
56E
  0
DICTIONARY
  5
56F
102
{ACAD_REACTORS
330
51B
102
}
330
51B
100
AcDbDictionary
281
     1
  0
ACDBDICTIONARYWDFLT
  5
51D
102
{ACAD_REACTORS
330
51B
102
}
330
51B
100
AcDbDictionary
281
     1
  3
Normal
350
51E
100
AcDbDictionaryWithDefault
340
51E
  0
DICTIONARY
  5
551
102
{ACAD_REACTORS
330
51B
102
}
330
51B
100
AcDbDictionary
281
     1
  3
A0
350
552
  3
A1
350
553
  3
A2
350
554
  3
A3
350
555
  3
A4
350
556
  3
A5
350
557
  3
A6
350
558
  3
A7
350
559
  3
A8
350
55A
  3
A9
350
55B
  3
B0
350
55C
  3
B1
350
55D
  3
B2
350
55E
  3
B3
350
55F
  3
B4
350
560
  3
B5
350
561
  3
B6
350
562
  0
DICTIONARY
  5
572
102
{ACAD_REACTORS
330
51B
102
}
330
51B
100
AcDbDictionary
281
     1
  3
Standard
350
573
  0
DICTIONARY
  5
538
102
{ACAD_REACTORS
330
51B
102
}
330
51B
100
AcDbDictionary
281
     1
  3
2dWireframe
350
53E
  3
Basic
350
53D
  3
Brighten
350
544
  3
ColorChange
350
548
  3
Conceptual
350
541
  3
Dim
350
543
  3
EdgeColorOff
350
550
  3
Facepattern
350
547
  3
Flat
350
539
  3
FlatWithEdges
350
53A
  3
Gouraud
350
53B
  3
GouraudWithEdges
350
53C
  3
Hidden
350
540
  3
JitterOff
350
54E
  3
Linepattern
350
546
  3
OverhangOff
350
54F
  3
Realistic
350
542
  3
Shaded
350
54D
  3
Shaded with edges
350
54C
  3
Shades of Gray
350
549
  3
Sketchy
350
54A
  3
Thicken
350
545
  3
Wireframe
350
53F
  3
X-Ray
350
54B
  0
XRECORD
  5
62E
102
{ACAD_REACTORS
330
51B
102
}
330
51B
100
AcDbXrecord
280
     1
 90
        1
330
573
  0
DICTIONARY
  5
61F
102
{ACAD_REACTORS
330
51B
102
}
330
51B
100
AcDbDictionary
281
     1
  3
CANNOSCALE
350
623
  3
CMLEADERSTYLE
350
621
  3
CTABLESTYLE
350
620
  3
DIMASSOC
350
62A
  3
HIDETEXT
350
629
  3
INDEXCTL
350
628
  3
LAYEREVAL
350
625
  3
LAYERNOTIFY
350
626
  3
LIGHTINGUNITS
350
624
  3
MSLTSCALE
350
622
  3
SORTENTS
350
627
  3
XCLIPFRAME
350
62B
  0
DICTIONARY
  5
61C
102
{ACAD_REACTORS
330
51B
102
}
330
51B
100
AcDbDictionary
281
     1
  3
ASEBlockHierarchyIndexRecord
350
61E
1001
DCO15
1040
1717743515.096
  0
XRECORD
  5
62F
102
{ACAD_REACTORS
330
51B
102
}
330
51B
100
AcDbXrecord
280
     1
  1
DWGPROPS COOKIE
  2

  3

  4

  6

  7

  8
mpistoia
  9

300
=
301
=
302
=
303
=
304
=
305
=
306
=
307
=
308
=
309
=
 40
0.0020809027777778
 41
2444975.083333334
 42
2455684.502535834
  1

 90
        0
  0
LAYOUT
  5
579
102
{ACAD_XDICTIONARY
360
665
102
}
102
{ACAD_REACTORS
330
570
102
}
330
570
100
AcDbPlotSettings
  1

  2
CutePDF Writer
  4

  6

 40
0.0
 41
0.0
 42
0.0
 43
0.0
 44
0.0
 45
0.0
 46
0.0
 47
0.0
 48
0.0
 49
0.0
140
0.0
141
0.0
142
1.0
143
1.0
 70
   688
 72
     0
 73
     0
 74
     5
  7

 75
    16
147
1.0
148
0.0
149
0.0
100
AcDbLayout
  1
Layout1
 70
     0
 71
     1
 10
0.0
 20
0.0
 11
12.0
 21
9.0
 12
0.0
 22
0.0
 32
0.0
 14
1.000000000000000E+20
 24
1.000000000000000E+20
 34
1.000000000000000E+20
 15
-1.000000000000000E+20
 25
-1.000000000000000E+20
 35
-1.000000000000000E+20
146
0.0
 13
0.0
 23
0.0
 33
0.0
 16
1.0
 26
0.0
 36
0.0
 17
0.0
 27
1.0
 37
0.0
 76
     0
330
576
  0
LAYOUT
  5
57D
102
{ACAD_XDICTIONARY
360
667
102
}
102
{ACAD_REACTORS
330
570
102
}
330
570
100
AcDbPlotSettings
  1

  2
CutePDF Writer
  4

  6

 40
0.0
 41
0.0
 42
0.0
 43
0.0
 44
0.0
 45
0.0
 46
0.0
 47
0.0
 48
0.0
 49
0.0
140
0.0
141
0.0
142
1.0
143
1.0
 70
  1712
 72
     0
 73
     0
 74
     0
  7

 75
     0
147
1.0
148
0.0
149
0.0
100
AcDbLayout
  1
Model
 70
     1
 71
     0
 10
0.0
 20
0.0
 11
12.0
 21
9.0
 12
0.0
 22
0.0
 32
0.0
 14
0.0
 24
0.0
 34
0.0
 15
0.0
 25
0.0
 35
0.0
146
0.0
 13
0.0
 23
0.0
 33
0.0
 16
1.0
 26
0.0
 36
0.0
 17
0.0
 27
1.0
 37
0.0
 76
     0
330
57A
331
5A4
  0
MATERIAL
  5
528
102
{ACAD_XDICTIONARY
360
529
102
}
102
{ACAD_REACTORS
330
51F
102
}
330
51F
100
AcDbMaterial
  1
ByBlock
 72
     0
 43
0.0208333333333333
 43
0.0
 43
0.0
 43
0.0
 43
0.0
 43
0.0208333333333333
 43
0.0
 43
0.0
 43
0.0
 43
0.0
 43
1.0
 43
0.0
 43
0.0
 43
0.0
 43
0.0
 43
1.0
 77
     0
 47
0.0208333333333333
 47
0.0
 47
0.0
 47
0.0
 47
0.0
 47
0.0208333333333333
 47
0.0
 47
0.0
 47
0.0
 47
0.0
 47
1.0
 47
0.0
 47
0.0
 47
0.0
 47
0.0
 47
1.0
171
     0
 49
0.0208333333333333
 49
0.0
 49
0.0
 49
0.0
 49
0.0
 49
0.0208333333333333
 49
0.0
 49
0.0
 49
0.0
 49
0.0
 49
1.0
 49
0.0
 49
0.0
 49
0.0
 49
0.0
 49
1.0
175
     0
142
0.0208333333333333
142
0.0
142
0.0
142
0.0
142
0.0
142
0.0208333333333333
142
0.0
142
0.0
142
0.0
142
0.0
142
1.0
142
0.0
142
0.0
142
0.0
142
0.0
142
1.0
179
     0
144
0.0208333333333333
144
0.0
144
0.0
144
0.0
144
0.0
144
0.0208333333333333
144
0.0
144
0.0
144
0.0
144
0.0
144
1.0
144
0.0
144
0.0
144
0.0
144
0.0
144
1.0
147
0.0208333333333333
147
0.0
147
0.0
147
0.0
147
0.0
147
0.0208333333333333
147
0.0
147
0.0
147
0.0
147
0.0
147
1.0
147
0.0
147
0.0
147
0.0
147
0.0
147
1.0
  0
MATERIAL
  5
520
102
{ACAD_XDICTIONARY
360
521
102
}
102
{ACAD_REACTORS
330
51F
102
}
330
51F
100
AcDbMaterial
  1
ByLayer
 72
     0
 43
0.0208333333333333
 43
0.0
 43
0.0
 43
0.0
 43
0.0
 43
0.0208333333333333
 43
0.0
 43
0.0
 43
0.0
 43
0.0
 43
1.0
 43
0.0
 43
0.0
 43
0.0
 43
0.0
 43
1.0
 77
     0
 47
0.0208333333333333
 47
0.0
 47
0.0
 47
0.0
 47
0.0
 47
0.0208333333333333
 47
0.0
 47
0.0
 47
0.0
 47
0.0
 47
1.0
 47
0.0
 47
0.0
 47
0.0
 47
0.0
 47
1.0
171
     0
 49
0.0208333333333333
 49
0.0
 49
0.0
 49
0.0
 49
0.0
 49
0.0208333333333333
 49
0.0
 49
0.0
 49
0.0
 49
0.0
 49
1.0
 49
0.0
 49
0.0
 49
0.0
 49
0.0
 49
1.0
175
     0
142
0.0208333333333333
142
0.0
142
0.0
142
0.0
142
0.0
142
0.0208333333333333
142
0.0
142
0.0
142
0.0
142
0.0
142
1.0
142
0.0
142
0.0
142
0.0
142
0.0
142
1.0
179
     0
144
0.0208333333333333
144
0.0
144
0.0
144
0.0
144
0.0
144
0.0208333333333333
144
0.0
144
0.0
144
0.0
144
0.0
144
1.0
144
0.0
144
0.0
144
0.0
144
0.0
144
1.0
147
0.0208333333333333
147
0.0
147
0.0
147
0.0
147
0.0
147
0.0208333333333333
147
0.0
147
0.0
147
0.0
147
0.0
147
1.0
147
0.0
147
0.0
147
0.0
147
0.0
147
1.0
  0
MATERIAL
  5
530
102
{ACAD_XDICTIONARY
360
531
102
}
102
{ACAD_REACTORS
330
51F
102
}
330
51F
100
AcDbMaterial
  1
Global
 72
     0
 43
0.0208333333333333
 43
0.0
 43
0.0
 43
0.0
 43
0.0
 43
0.0208333333333333
 43
0.0
 43
0.0
 43
0.0
 43
0.0
 43
1.0
 43
0.0
 43
0.0
 43
0.0
 43
0.0
 43
1.0
 77
     0
 47
0.0208333333333333
 47
0.0
 47
0.0
 47
0.0
 47
0.0
 47
0.0208333333333333
 47
0.0
 47
0.0
 47
0.0
 47
0.0
 47
1.0
 47
0.0
 47
0.0
 47
0.0
 47
0.0
 47
1.0
171
     0
 49
0.0208333333333333
 49
0.0
 49
0.0
 49
0.0
 49
0.0
 49
0.0208333333333333
 49
0.0
 49
0.0
 49
0.0
 49
0.0
 49
1.0
 49
0.0
 49
0.0
 49
0.0
 49
0.0
 49
1.0
175
     0
142
0.0208333333333333
142
0.0
142
0.0
142
0.0
142
0.0
142
0.0208333333333333
142
0.0
142
0.0
142
0.0
142
0.0
142
1.0
142
0.0
142
0.0
142
0.0
142
0.0
142
1.0
179
     0
144
0.0208333333333333
144
0.0
144
0.0
144
0.0
144
0.0
144
0.0208333333333333
144
0.0
144
0.0
144
0.0
144
0.0
144
1.0
144
0.0
144
0.0
144
0.0
144
0.0
144
1.0
147
0.0208333333333333
147
0.0
147
0.0
147
0.0
147
0.0
147
0.0208333333333333
147
0.0
147
0.0
147
0.0
147
0.0
147
1.0
147
0.0
147
0.0
147
0.0
147
0.0
147
1.0
  0
MLEADERSTYLE
  5
575
102
{ACAD_REACTORS
330
574
102
}
330
574
100
AcDbMLeaderStyle
170
     2
171
     1
172
     0
 90
        2
 40
0.0
 41
0.0
173
     1
 91
-1056964608
340
569
 92
       -2
290
     1
 42
0.09
291
     1
 43
0.36
  3
Standard
 44
0.18
300

342
564
174
     1
178
     6
175
     1
176
     0
 93
-1056964608
 45
0.18
292
     0
297
     0
 46
0.18
 94
-1056964608
 47
1.0
 49
1.0
140
1.0
293
     1
141
0.0
294
     1
177
     0
142
1.0
295
     0
296
     0
143
0.125
1001
ACAD_MLEADERVER
1070
     2
  0
MLINESTYLE
  5
56E
102
{ACAD_REACTORS
330
56D
102
}
330
56D
100
AcDbMlineStyle
  2
STANDARD
 70
     0
  3

 62
   256
 51
90.0
 52
90.0
 71
     2
 49
0.5
 62
   256
  6
BYLAYER
 49
-0.5
 62
   256
  6
BYLAYER
  0
ACDBPLACEHOLDER
  5
51E
102
{ACAD_REACTORS
330
51D
102
}
330
51D
  0
SCALE
  5
552
102
{ACAD_REACTORS
330
551
102
}
330
551
100
AcDbScale
 70
     0
300
1:1
140
1.0
141
1.0
290
     1
  0
SCALE
  5
553
102
{ACAD_REACTORS
330
551
102
}
330
551
100
AcDbScale
 70
     0
300
1/128" = 1'-0"
140
0.0078125
141
12.0
290
     0
  0
SCALE
  5
554
102
{ACAD_REACTORS
330
551
102
}
330
551
100
AcDbScale
 70
     0
300
1/64" = 1'-0"
140
0.015625
141
12.0
290
     0
  0
SCALE
  5
555
102
{ACAD_REACTORS
330
551
102
}
330
551
100
AcDbScale
 70
     0
300
1/32" = 1'-0"
140
0.03125
141
12.0
290
     0
  0
SCALE
  5
556
102
{ACAD_REACTORS
330
551
102
}
330
551
100
AcDbScale
 70
     0
300
1/16" = 1'-0"
140
0.0625
141
12.0
290
     0
  0
SCALE
  5
557
102
{ACAD_REACTORS
330
551
102
}
330
551
100
AcDbScale
 70
     0
300
3/32" = 1'-0"
140
0.09375
141
12.0
290
     0
  0
SCALE
  5
558
102
{ACAD_REACTORS
330
551
102
}
330
551
100
AcDbScale
 70
     0
300
1/8" = 1'-0"
140
0.125
141
12.0
290
     0
  0
SCALE
  5
559
102
{ACAD_REACTORS
330
551
102
}
330
551
100
AcDbScale
 70
     0
300
3/16" = 1'-0"
140
0.1875
141
12.0
290
     0
  0
SCALE
  5
55A
102
{ACAD_REACTORS
330
551
102
}
330
551
100
AcDbScale
 70
     0
300
1/4" = 1'-0"
140
0.25
141
12.0
290
     0
  0
SCALE
  5
55B
102
{ACAD_REACTORS
330
551
102
}
330
551
100
AcDbScale
 70
     0
300
3/8" = 1'-0"
140
0.375
141
12.0
290
     0
  0
SCALE
  5
55C
102
{ACAD_REACTORS
330
551
102
}
330
551
100
AcDbScale
 70
     0
300
1/2" = 1'-0"
140
0.5
141
12.0
290
     0
  0
SCALE
  5
55D
102
{ACAD_REACTORS
330
551
102
}
330
551
100
AcDbScale
 70
     0
300
3/4" = 1'-0"
140
0.75
141
12.0
290
     0
  0
SCALE
  5
55E
102
{ACAD_REACTORS
330
551
102
}
330
551
100
AcDbScale
 70
     0
300
1" = 1'-0"
140
1.0
141
12.0
290
     0
  0
SCALE
  5
55F
102
{ACAD_REACTORS
330
551
102
}
330
551
100
AcDbScale
 70
     0
300
1-1/2" = 1'-0"
140
1.5
141
12.0
290
     0
  0
SCALE
  5
560
102
{ACAD_REACTORS
330
551
102
}
330
551
100
AcDbScale
 70
     0
300
3" = 1'-0"
140
3.0
141
12.0
290
     0
  0
SCALE
  5
561
102
{ACAD_REACTORS
330
551
102
}
330
551
100
AcDbScale
 70
     0
300
6" = 1'-0"
140
6.0
141
12.0
290
     0
  0
SCALE
  5
562
102
{ACAD_REACTORS
330
551
102
}
330
551
100
AcDbScale
 70
     0
300
1'-0" = 1'-0"
140
12.0
141
12.0
290
     0
  0
TABLESTYLE
  5
573
102
{ACAD_XDICTIONARY
360
62C
102
}
102
{ACAD_REACTORS
330
572
102
}
330
572
100
AcDbTableStyle
  3
Standard
 70
     0
 71
     0
 40
0.06
 41
0.06
280
     0
281
     0
  7
Standard
140
0.18
170
     2
 62
     0
 63
     7
283
     0
274
    -2
284
     1
 64
     0
275
    -2
285
     1
 65
     0
276
    -2
286
     1
 66
     0
277
    -2
287
     1
 67
     0
278
    -2
288
     1
 68
     0
279
    -2
289
     1
 69
     0
  7
Standard
140
0.25
170
     5
 62
     0
 63
     7
283
     0
274
    -2
284
     1
 64
     0
275
    -2
285
     1
 65
     0
276
    -2
286
     1
 66
     0
277
    -2
287
     1
 67
     0
278
    -2
288
     1
 68
     0
279
    -2
289
     1
 69
     0
  7
Standard
140
0.18
170
     5
 62
     0
 63
     7
283
     0
274
    -2
284
     1
 64
     0
275
    -2
285
     1
 65
     0
276
    -2
286
     1
 66
     0
277
    -2
287
     1
 67
     0
278
    -2
288
     1
 68
     0
279
    -2
289
     1
 69
     0
  0
VISUALSTYLE
  5
53E
102
{ACAD_XDICTIONARY
360
63D
102
}
102
{ACAD_REACTORS
330
538
102
}
330
538
100
AcDbVisualStyle
  2
2dWireframe
 70
     4
 71
     0
 72
     2
 73
     0
 90
        0
 40
-0.6
 41
-30.0
 62
     5
 63
     7
 74
     1
 91
        4
 64
     7
 65
   257
 75
     1
175
     1
 42
1.0
 92
        0
 66
   257
 43
1.0
 76
     1
 77
     6
 78
     2
 67
     7
 79
     5
170
     0
171
     0
290
     0
174
     0
 93
        1
 44
0.0
173
     0
291
     0
 45
0.0
1001
ACAD
1000
AcDbSavedByObjectVersion
1070
     0
  0
VISUALSTYLE
  5
53D
102
{ACAD_XDICTIONARY
360
63B
102
}
102
{ACAD_REACTORS
330
538
102
}
330
538
100
AcDbVisualStyle
  2
Basic
 70
     7
 71
     1
 72
     0
 73
     1
 90
        0
 40
-0.6
 41
-30.0
 62
     5
 63
     7
 74
     0
 91
        4
 64
     7
 65
   257
 75
     1
175
     1
 42
1.0
 92
        8
 66
     7
 43
1.0
 76
     1
 77
     6
 78
     2
 67
     7
 79
     5
170
     0
171
     0
290
     0
174
     0
 93
        1
 44
0.0
173
     0
291
     1
 45
0.0
1001
ACAD
1000
AcDbSavedByObjectVersion
1070
     0
  0
VISUALSTYLE
  5
544
102
{ACAD_XDICTIONARY
360
649
102
}
102
{ACAD_REACTORS
330
538
102
}
330
538
100
AcDbVisualStyle
  2
Brighten
 70
    12
 71
     2
 72
     2
 73
     0
 90
        0
 40
-0.6
 41
-30.0
 62
     5
 63
     7
 74
     1
 91
        4
 64
     7
 65
   257
 75
     1
175
     1
 42
1.0
 92
        8
 66
     7
 43
1.0
 76
     1
 77
     6
 78
     2
 67
     7
 79
     5
170
     0
171
     0
290
     0
174
     0
 93
        1
 44
50.0
173
     0
291
     1
 45
0.0
1001
ACAD
1000
AcDbSavedByObjectVersion
1070
     0
  0
VISUALSTYLE
  5
548
102
{ACAD_XDICTIONARY
360
651
102
}
102
{ACAD_REACTORS
330
538
102
}
330
538
100
AcDbVisualStyle
  2
ColorChange
 70
    16
 71
     2
 72
     2
 73
     3
 90
        0
 40
-0.6
 41
-30.0
 62
     5
 63
     8
 74
     1
 91
        4
 64
     7
 65
   257
 75
     1
175
     1
 42
1.0
 92
        8
 66
     8
 43
1.0
 76
     1
 77
     6
 78
     2
 67
     7
 79
     5
170
     0
171
     0
290
     0
174
     0
 93
        1
 44
0.0
173
     0
291
     1
 45
0.0
1001
ACAD
1000
AcDbSavedByObjectVersion
1070
     0
  0
VISUALSTYLE
  5
541
102
{ACAD_XDICTIONARY
360
643
102
}
102
{ACAD_REACTORS
330
538
102
}
330
538
100
AcDbVisualStyle
  2
Conceptual
 70
     9
 71
     3
 72
     2
 73
     0
 90
        0
 40
-0.6
 41
-30.0
 62
     5
 63
     7
 74
     2
 91
        2
 64
     7
 65
   257
 75
     1
175
     1
 42
179.0
 92
        8
 66
     7
 43
1.0
 76
     1
 77
     6
 78
     2
 67
     7
 79
     3
170
     0
171
     0
290
     0
174
     0
 93
        1
 44
0.0
173
     0
291
     0
 45
0.0
1001
ACAD
1000
AcDbSavedByObjectVersion
1070
     0
  0
VISUALSTYLE
  5
543
102
{ACAD_XDICTIONARY
360
647
102
}
102
{ACAD_REACTORS
330
538
102
}
330
538
100
AcDbVisualStyle
  2
Dim
 70
    11
 71
     2
 72
     2
 73
     0
 90
        0
 40
-0.6
 41
-30.0
 62
     5
 63
     7
 74
     1
 91
        4
 64
     7
 65
   257
 75
     1
175
     1
 42
1.0
 92
        8
 66
     7
 43
1.0
 76
     1
 77
     6
 78
     2
 67
     7
 79
     5
170
     0
171
     0
290
     0
174
     0
 93
        1
 44
-50.0
173
     0
291
     1
 45
0.0
1001
ACAD
1000
AcDbSavedByObjectVersion
1070
     0
  0
VISUALSTYLE
  5
550
102
{ACAD_XDICTIONARY
360
661
102
}
102
{ACAD_REACTORS
330
538
102
}
330
538
100
AcDbVisualStyle
  2
EdgeColorOff
 70
    22
 71
     2
 72
     2
 73
     0
 90
        0
 40
-0.6
 41
-30.0
 62
     5
 63
     7
 74
     1
 91
        4
 64
     7
 65
   257
 75
     1
175
     1
 42
1.0
 92
        8
 66
     7
 43
1.0
 76
     1
 77
     6
 78
     2
 67
     7
 79
     5
170
     0
171
     0
290
     0
174
     0
 93
        1
 44
0.0
173
     0
291
     1
 45
0.0
1001
ACAD
1000
AcDbSavedByObjectVersion
1070
     0
  0
VISUALSTYLE
  5
547
102
{ACAD_XDICTIONARY
360
64F
102
}
102
{ACAD_REACTORS
330
538
102
}
330
538
100
AcDbVisualStyle
  2
Facepattern
 70
    15
 71
     2
 72
     2
 73
     0
 90
        0
 40
-0.6
 41
-30.0
 62
     5
 63
     7
 74
     1
 91
        4
 64
     7
 65
   257
 75
     1
175
     1
 42
1.0
 92
        8
 66
     7
 43
1.0
 76
     1
 77
     6
 78
     2
 67
     7
 79
     5
170
     0
171
     0
290
     0
174
     0
 93
        1
 44
0.0
173
     0
291
     1
 45
0.0
1001
ACAD
1000
AcDbSavedByObjectVersion
1070
     0
  0
VISUALSTYLE
  5
539
102
{ACAD_XDICTIONARY
360
633
102
}
102
{ACAD_REACTORS
330
538
102
}
330
538
100
AcDbVisualStyle
  2
Flat
 70
     0
 71
     2
 72
     1
 73
     1
 90
        2
 40
-0.6
 41
30.0
 62
     5
 63
     7
 74
     0
 91
        0
 64
     7
 65
   257
 75
     1
175
     1
 42
1.0
 92
        8
 66
     7
 43
1.0
 76
     1
 77
     6
 78
     2
 67
     7
 79
     5
170
     0
171
     0
290
     0
174
     0
 93
       13
 44
0.0
173
     0
291
     1
 45
0.0
1001
ACAD
1000
AcDbSavedByObjectVersion
1070
     0
  0
VISUALSTYLE
  5
53A
102
{ACAD_XDICTIONARY
360
635
102
}
102
{ACAD_REACTORS
330
538
102
}
330
538
100
AcDbVisualStyle
  2
FlatWithEdges
 70
     1
 71
     2
 72
     1
 73
     1
 90
        2
 40
-0.6
 41
30.0
 62
     5
 63
     7
 74
     1
 91
        0
 64
     7
 65
   257
 75
     1
175
     1
 42
1.0
 92
        0
 66
   257
 43
1.0
 76
     1
 77
     6
 78
     2
 67
     7
 79
     5
170
     0
171
     0
290
     0
174
     0
 93
       13
 44
0.0
173
     0
291
     1
 45
0.0
1001
ACAD
1000
AcDbSavedByObjectVersion
1070
     0
  0
VISUALSTYLE
  5
53B
102
{ACAD_XDICTIONARY
360
637
102
}
102
{ACAD_REACTORS
330
538
102
}
330
538
100
AcDbVisualStyle
  2
Gouraud
 70
     2
 71
     2
 72
     2
 73
     1
 90
        2
 40
-0.6
 41
30.0
 62
     5
 63
     7
 74
     0
 91
        0
 64
     7
 65
   257
 75
     1
175
     1
 42
1.0
 92
        0
 66
     7
 43
1.0
 76
     1
 77
     6
 78
     2
 67
     7
 79
     5
170
     0
171
     0
290
     0
174
     0
 93
       13
 44
0.0
173
     0
291
     1
 45
0.0
1001
ACAD
1000
AcDbSavedByObjectVersion
1070
     0
  0
VISUALSTYLE
  5
53C
102
{ACAD_XDICTIONARY
360
639
102
}
102
{ACAD_REACTORS
330
538
102
}
330
538
100
AcDbVisualStyle
  2
GouraudWithEdges
 70
     3
 71
     2
 72
     2
 73
     1
 90
        2
 40
-0.6
 41
30.0
 62
     5
 63
     7
 74
     1
 91
        0
 64
     7
 65
   257
 75
     1
175
     1
 42
1.0
 92
        0
 66
   257
 43
1.0
 76
     1
 77
     6
 78
     2
 67
     7
 79
     5
170
     0
171
     0
290
     0
174
     0
 93
       13
 44
0.0
173
     0
291
     1
 45
0.0
1001
ACAD
1000
AcDbSavedByObjectVersion
1070
     0
  0
VISUALSTYLE
  5
540
102
{ACAD_XDICTIONARY
360
641
102
}
102
{ACAD_REACTORS
330
538
102
}
330
538
100
AcDbVisualStyle
  2
Hidden
 70
     6
 71
     1
 72
     2
 73
     2
 90
        0
 40
-0.6
 41
-30.0
 62
     5
 63
     7
 74
     2
 91
        2
 64
     7
 65
   257
 75
     2
175
     1
 42
40.0
 92
        0
 66
   257
 43
1.0
 76
     1
 77
     6
 78
     2
 67
     7
 79
     3
170
     0
171
     0
290
     0
174
     0
 93
        1
 44
0.0
173
     0
291
     0
 45
0.0
1001
ACAD
1000
AcDbSavedByObjectVersion
1070
     0
  0
VISUALSTYLE
  5
54E
102
{ACAD_XDICTIONARY
360
65D
102
}
102
{ACAD_REACTORS
330
538
102
}
330
538
100
AcDbVisualStyle
  2
JitterOff
 70
    20
 71
     2
 72
     2
 73
     0
 90
        0
 40
-0.6
 41
-30.0
 62
     5
 63
     7
 74
     1
 91
        4
 64
     7
 65
   257
 75
     1
175
     1
 42
1.0
 92
       10
 66
     7
 43
1.0
 76
     1
 77
     6
 78
     2
 67
     7
 79
     5
170
     0
171
     0
290
     0
174
     0
 93
        1
 44
0.0
173
     0
291
     1
 45
0.0
1001
ACAD
1000
AcDbSavedByObjectVersion
1070
     0
  0
VISUALSTYLE
  5
546
102
{ACAD_XDICTIONARY
360
64D
102
}
102
{ACAD_REACTORS
330
538
102
}
330
538
100
AcDbVisualStyle
  2
Linepattern
 70
    14
 71
     2
 72
     2
 73
     0
 90
        0
 40
-0.6
 41
-30.0
 62
     5
 63
     7
 74
     1
 91
        4
 64
     7
 65
   257
 75
     7
175
     7
 42
1.0
 92
        8
 66
     7
 43
1.0
 76
     1
 77
     6
 78
     2
 67
     7
 79
     5
170
     0
171
     0
290
     0
174
     0
 93
        1
 44
0.0
173
     0
291
     1
 45
0.0
1001
ACAD
1000
AcDbSavedByObjectVersion
1070
     0
  0
VISUALSTYLE
  5
54F
102
{ACAD_XDICTIONARY
360
65F
102
}
102
{ACAD_REACTORS
330
538
102
}
330
538
100
AcDbVisualStyle
  2
OverhangOff
 70
    21
 71
     2
 72
     2
 73
     0
 90
        0
 40
-0.6
 41
-30.0
 62
     5
 63
     7
 74
     1
 91
        4
 64
     7
 65
   257
 75
     1
175
     1
 42
1.0
 92
        9
 66
     7
 43
1.0
 76
     1
 77
     6
 78
     2
 67
     7
 79
     5
170
     0
171
     0
290
     0
174
     0
 93
        1
 44
0.0
173
     0
291
     1
 45
0.0
1001
ACAD
1000
AcDbSavedByObjectVersion
1070
     0
  0
VISUALSTYLE
  5
542
102
{ACAD_XDICTIONARY
360
645
102
}
102
{ACAD_REACTORS
330
538
102
}
330
538
100
AcDbVisualStyle
  2
Realistic
 70
     8
 71
     2
 72
     3
 73
     0
 90
        2
 40
-0.6
 41
30.0
 62
     5
 63
     7
 74
     0
 91
        0
 64
     7
 65
   257
 75
     1
175
     1
 42
1.0
 92
        8
 66
   257
 43
1.0
 76
     1
 77
     6
 78
     2
 67
     7
 79
     3
170
     0
171
     0
290
     0
174
     0
 93
       13
 44
0.0
173
     0
291
     0
 45
0.0
1001
ACAD
1000
AcDbSavedByObjectVersion
1070
     0
  0
VISUALSTYLE
  5
54D
102
{ACAD_XDICTIONARY
360
65B
102
}
102
{ACAD_REACTORS
330
538
102
}
330
538
100
AcDbVisualStyle
  2
Shaded
 70
    27
 71
     2
 72
     2
 73
     1
 90
        2
 40
-0.6
 41
30.0
 62
     5
 63
     7
 74
     0
 91
        4
 64
     7
 65
   257
 75
     1
175
     1
 42
1.0
 92
        8
 66
   257
 43
1.0
 76
     1
 77
     6
 78
     2
 67
     8
 79
     3
170
     0
171
     0
290
     0
174
     0
 93
        5
 44
0.0
173
     0
291
     0
 45
0.0
1001
ACAD
1000
AcDbSavedByObjectVersion
1070
     0
  0
VISUALSTYLE
  5
54C
102
{ACAD_XDICTIONARY
360
659
102
}
102
{ACAD_REACTORS
330
538
102
}
330
538
100
AcDbVisualStyle
  2
Shaded with edges
 70
    26
 71
     2
 72
     2
 73
     1
 90
        2
 40
-0.6
 41
30.0
 62
     5
 63
     7
 74
     1
 91
       10
 64
     7
 65
   257
 75
     2
175
     1
 42
1.0
 92
        8
 66
   257
 43
1.0
 76
     1
 77
     6
 78
     2
 67
     7
 79
     3
170
     0
171
     0
290
     0
174
     0
 93
        5
 44
0.0
173
     0
291
     0
 45
0.0
1001
ACAD
1000
AcDbSavedByObjectVersion
1070
     0
  0
VISUALSTYLE
  5
549
102
{ACAD_XDICTIONARY
360
653
102
}
102
{ACAD_REACTORS
330
538
102
}
330
538
100
AcDbVisualStyle
  2
Shades of Gray
 70
    23
 71
     2
 72
     2
 73
     3
 90
        0
 40
-0.6
 41
-30.0
 62
     5
 63
     7
 74
     2
 91
        2
 64
     7
 65
     7
 75
     1
175
     1
 42
40.0
 92
        8
 66
     7
 43
1.0
 76
     1
 77
     6
 78
     2
 67
     7
 79
     3
170
     0
171
     0
290
     0
174
     0
 93
        1
 44
0.0
173
     0
291
     0
 45
0.0
1001
ACAD
1000
AcDbSavedByObjectVersion
1070
     0
  0
VISUALSTYLE
  5
54A
102
{ACAD_XDICTIONARY
360
655
102
}
102
{ACAD_REACTORS
330
538
102
}
330
538
100
AcDbVisualStyle
  2
Sketchy
 70
    24
 71
     1
 72
     2
 73
     2
 90
        0
 40
-0.6
 41
-30.0
 62
     5
 63
     7
 74
     2
 91
        2
 64
     7
 65
     7
 75
     1
175
     1
 42
40.0
 92
       11
 66
     7
 43
1.0
 76
     1
 77
     6
 78
     2
 67
     7
 79
     6
170
     0
171
     0
290
     0
174
     0
 93
        1
 44
0.0
173
     0
291
     0
 45
0.0
1001
ACAD
1000
AcDbSavedByObjectVersion
1070
     0
  0
VISUALSTYLE
  5
545
102
{ACAD_XDICTIONARY
360
64B
102
}
102
{ACAD_REACTORS
330
538
102
}
330
538
100
AcDbVisualStyle
  2
Thicken
 70
    13
 71
     2
 72
     2
 73
     0
 90
        0
 40
-0.6
 41
-30.0
 62
     5
 63
     7
 74
     1
 91
        4
 64
     7
 65
   257
 75
     1
175
     1
 42
1.0
 92
       12
 66
     7
 43
1.0
 76
     1
 77
     6
 78
     2
 67
     7
 79
     5
170
     0
171
     0
290
     0
174
     0
 93
        1
 44
0.0
173
     0
291
     1
 45
0.0
1001
ACAD
1000
AcDbSavedByObjectVersion
1070
     0
  0
VISUALSTYLE
  5
53F
102
{ACAD_XDICTIONARY
360
63F
102
}
102
{ACAD_REACTORS
330
538
102
}
330
538
100
AcDbVisualStyle
  2
Wireframe
 70
     5
 71
     0
 72
     2
 73
     0
 90
        0
 40
-0.6
 41
-30.0
 62
     5
 63
     7
 74
     1
 91
        4
 64
     7
 65
   257
 75
     1
175
     1
 42
1.0
 92
        0
 66
   257
 43
1.0
 76
     1
 77
     6
 78
     2
 67
     7
 79
     3
170
     0
171
     0
290
     0
174
     0
 93
        1
 44
0.0
173
     0
291
     0
 45
0.0
1001
ACAD
1000
AcDbSavedByObjectVersion
1070
     0
  0
VISUALSTYLE
  5
54B
102
{ACAD_XDICTIONARY
360
657
102
}
102
{ACAD_REACTORS
330
538
102
}
330
538
100
AcDbVisualStyle
  2
X-Ray
 70
    25
 71
     2
 72
     2
 73
     1
 90
        1
 40
0.5
 41
-30.0
 62
     5
 63
     7
 74
     1
 91
        0
 64
     7
 65
   257
 75
     1
175
     1
 42
1.0
 92
        8
 66
     7
 43
1.0
 76
     1
 77
     6
 78
     2
 67
     7
 79
     3
170
     0
171
     0
290
     0
174
     0
 93
       13
 44
0.0
173
     0
291
     0
 45
0.0
1001
ACAD
1000
AcDbSavedByObjectVersion
1070
     0
  0
DICTIONARYVAR
  5
623
102
{ACAD_REACTORS
330
61F
102
}
330
61F
100
DictionaryVariables
280
     0
  1
1:1
  0
DICTIONARYVAR
  5
621
102
{ACAD_REACTORS
330
61F
102
}
330
61F
100
DictionaryVariables
280
     0
  1
STANDARD
  0
DICTIONARYVAR
  5
620
102
{ACAD_REACTORS
330
61F
102
}
330
61F
100
DictionaryVariables
280
     0
  1
STANDARD
  0
DICTIONARYVAR
  5
62A
102
{ACAD_REACTORS
330
61F
102
}
330
61F
100
DictionaryVariables
280
     0
  1
2
  0
DICTIONARYVAR
  5
629
102
{ACAD_REACTORS
330
61F
102
}
330
61F
100
DictionaryVariables
280
     0
  1
1
  0
DICTIONARYVAR
  5
628
102
{ACAD_REACTORS
330
61F
102
}
330
61F
100
DictionaryVariables
280
     0
  1
0
  0
DICTIONARYVAR
  5
625
102
{ACAD_REACTORS
330
61F
102
}
330
61F
100
DictionaryVariables
280
     0
  1
0
  0
DICTIONARYVAR
  5
626
102
{ACAD_REACTORS
330
61F
102
}
330
61F
100
DictionaryVariables
280
     0
  1
0
  0
DICTIONARYVAR
  5
624
102
{ACAD_REACTORS
330
61F
102
}
330
61F
100
DictionaryVariables
280
     0
  1
2
  0
DICTIONARYVAR
  5
622
102
{ACAD_REACTORS
330
61F
102
}
330
61F
100
DictionaryVariables
280
     0
  1
1
  0
DICTIONARYVAR
  5
627
102
{ACAD_REACTORS
330
61F
102
}
330
61F
100
DictionaryVariables
280
     0
  1
127
  0
DICTIONARYVAR
  5
62B
102
{ACAD_REACTORS
330
61F
102
}
330
61F
100
DictionaryVariables
280
     0
  1
2
  0
XRECORD
  5
61E
102
{ACAD_REACTORS
330
61C
102
}
330
61C
100
AcDbXrecord
280
     1
330
53
330
53
330
57
330
5B
330
5B
330
5F
330
63
330
63
330
67
330
6F
330
71
330
73
330
75
330
77
330
79
330
7B
330
7D
330
7F
330
83
330
85
330
87
330
89
330
8D
330
8F
330
91
330
93
330
95
330
97
330
99
330
9B
330
9D
  0
DICTIONARY
  5
665
330
579
100
AcDbDictionary
280
     1
281
     1
  3
ACAD_XREC_ROUNDTRIP
360
666
  0
DICTIONARY
  5
667
330
57D
100
AcDbDictionary
280
     1
281
     1
  3
ACAD_XREC_ROUNDTRIP
360
668
  0
DICTIONARY
  5
529
330
528
100
AcDbDictionary
280
     1
281
     1
  3
ACAD_XREC_ROUNDTRIP
360
631
  3
BUMPTILE
360
52B
  3
DIFFUSETILE
360
52A
  3
OPACITYTILE
360
52E
  3
REFLECTIONTILE
360
52D
  3
REFRACTIONTILE
360
52F
  3
SPECULARTILE
360
52C
  0
DICTIONARY
  5
521
330
520
100
AcDbDictionary
280
     1
281
     1
  3
ACAD_XREC_ROUNDTRIP
360
630
  3
BUMPTILE
360
523
  3
DIFFUSETILE
360
522
  3
OPACITYTILE
360
526
  3
REFLECTIONTILE
360
525
  3
REFRACTIONTILE
360
527
  3
SPECULARTILE
360
524
  0
DICTIONARY
  5
531
330
530
100
AcDbDictionary
280
     1
281
     1
  3
ACAD_XREC_ROUNDTRIP
360
632
  3
BUMPTILE
360
533
  3
DIFFUSETILE
360
532
  3
OPACITYTILE
360
536
  3
REFLECTIONTILE
360
535
  3
REFRACTIONTILE
360
537
  3
SPECULARTILE
360
534
  0
DICTIONARY
  5
62C
330
573
100
AcDbDictionary
280
     1
281
     1
  3
ACAD_ROUNDTRIP_2008_TABLESTYLE_CELLSTYLEMAP
360
62D
  3
ACAD_XREC_ROUNDTRIP
360
663
  0
DICTIONARY
  5
63D
330
53E
100
AcDbDictionary
280
     1
281
     1
  3
ACAD_XREC_ROUNDTRIP
360
63E
  0
DICTIONARY
  5
63B
330
53D
100
AcDbDictionary
280
     1
281
     1
  3
ACAD_XREC_ROUNDTRIP
360
63C
  0
DICTIONARY
  5
649
330
544
100
AcDbDictionary
280
     1
281
     1
  3
ACAD_XREC_ROUNDTRIP
360
64A
  0
DICTIONARY
  5
651
330
548
100
AcDbDictionary
280
     1
281
     1
  3
ACAD_XREC_ROUNDTRIP
360
652
  0
DICTIONARY
  5
643
330
541
100
AcDbDictionary
280
     1
281
     1
  3
ACAD_XREC_ROUNDTRIP
360
644
  0
DICTIONARY
  5
647
330
543
100
AcDbDictionary
280
     1
281
     1
  3
ACAD_XREC_ROUNDTRIP
360
648
  0
DICTIONARY
  5
661
330
550
100
AcDbDictionary
280
     1
281
     1
  3
ACAD_XREC_ROUNDTRIP
360
662
  0
DICTIONARY
  5
64F
330
547
100
AcDbDictionary
280
     1
281
     1
  3
ACAD_XREC_ROUNDTRIP
360
650
  0
DICTIONARY
  5
633
330
539
100
AcDbDictionary
280
     1
281
     1
  3
ACAD_XREC_ROUNDTRIP
360
634
  0
DICTIONARY
  5
635
330
53A
100
AcDbDictionary
280
     1
281
     1
  3
ACAD_XREC_ROUNDTRIP
360
636
  0
DICTIONARY
  5
637
330
53B
100
AcDbDictionary
280
     1
281
     1
  3
ACAD_XREC_ROUNDTRIP
360
638
  0
DICTIONARY
  5
639
330
53C
100
AcDbDictionary
280
     1
281
     1
  3
ACAD_XREC_ROUNDTRIP
360
63A
  0
DICTIONARY
  5
641
330
540
100
AcDbDictionary
280
     1
281
     1
  3
ACAD_XREC_ROUNDTRIP
360
642
  0
DICTIONARY
  5
65D
330
54E
100
AcDbDictionary
280
     1
281
     1
  3
ACAD_XREC_ROUNDTRIP
360
65E
  0
DICTIONARY
  5
64D
330
546
100
AcDbDictionary
280
     1
281
     1
  3
ACAD_XREC_ROUNDTRIP
360
64E
  0
DICTIONARY
  5
65F
330
54F
100
AcDbDictionary
280
     1
281
     1
  3
ACAD_XREC_ROUNDTRIP
360
660
  0
DICTIONARY
  5
645
330
542
100
AcDbDictionary
280
     1
281
     1
  3
ACAD_XREC_ROUNDTRIP
360
646
  0
DICTIONARY
  5
65B
330
54D
100
AcDbDictionary
280
     1
281
     1
  3
ACAD_XREC_ROUNDTRIP
360
65C
  0
DICTIONARY
  5
659
330
54C
100
AcDbDictionary
280
     1
281
     1
  3
ACAD_XREC_ROUNDTRIP
360
65A
  0
DICTIONARY
  5
653
330
549
100
AcDbDictionary
280
     1
281
     1
  3
ACAD_XREC_ROUNDTRIP
360
654
  0
DICTIONARY
  5
655
330
54A
100
AcDbDictionary
280
     1
281
     1
  3
ACAD_XREC_ROUNDTRIP
360
656
  0
DICTIONARY
  5
64B
330
545
100
AcDbDictionary
280
     1
281
     1
  3
ACAD_XREC_ROUNDTRIP
360
64C
  0
DICTIONARY
  5
63F
330
53F
100
AcDbDictionary
280
     1
281
     1
  3
ACAD_XREC_ROUNDTRIP
360
640
  0
DICTIONARY
  5
657
330
54B
100
AcDbDictionary
280
     1
281
     1
  3
ACAD_XREC_ROUNDTRIP
360
658
  0
XRECORD
  5
666
102
{ACAD_REACTORS
330
665
102
}
330
665
100
AcDbXrecord
280
     1
102
SHADEPLOT
 70
     0
102
SHADEPLOTRESLEVEL
 70
     2
102
SHADEPLOTCUSTOMDPI
 70
   300
  0
XRECORD
  5
668
102
{ACAD_REACTORS
330
667
102
}
330
667
100
AcDbXrecord
280
     1
102
SHADEPLOT
 70
     0
102
SHADEPLOTRESLEVEL
 70
     2
102
SHADEPLOTCUSTOMDPI
 70
   300
  0
XRECORD
  5
631
102
{ACAD_REACTORS
330
529
102
}
330
529
100
AcDbXrecord
280
     1
102
MATERIAL
148
0.0
149
0.0
149
0.0
 93
        0
 94
      127
282
     0
 72
     0
 77
     0
171
     0
175
     0
179
     0
273
     0
  0
XRECORD
  5
52B
102
{ACAD_REACTORS
330
529
102
}
330
529
100
AcDbXrecord
280
     1
270
     1
271
     1
  0
XRECORD
  5
52A
102
{ACAD_REACTORS
330
529
102
}
330
529
100
AcDbXrecord
280
     1
270
     1
271
     1
  0
XRECORD
  5
52E
102
{ACAD_REACTORS
330
529
102
}
330
529
100
AcDbXrecord
280
     1
270
     1
271
     1
  0
XRECORD
  5
52D
102
{ACAD_REACTORS
330
529
102
}
330
529
100
AcDbXrecord
280
     1
270
     1
271
     1
  0
XRECORD
  5
52F
102
{ACAD_REACTORS
330
529
102
}
330
529
100
AcDbXrecord
280
     1
270
     1
271
     1
  0
XRECORD
  5
52C
102
{ACAD_REACTORS
330
529
102
}
330
529
100
AcDbXrecord
280
     1
270
     1
271
     1
  0
XRECORD
  5
630
102
{ACAD_REACTORS
330
521
102
}
330
521
100
AcDbXrecord
280
     1
102
MATERIAL
148
0.0
149
0.0
149
0.0
 93
        0
 94
      127
282
     0
 72
     0
 77
     0
171
     0
175
     0
179
     0
273
     0
  0
XRECORD
  5
523
102
{ACAD_REACTORS
330
521
102
}
330
521
100
AcDbXrecord
280
     1
270
     1
271
     1
  0
XRECORD
  5
522
102
{ACAD_REACTORS
330
521
102
}
330
521
100
AcDbXrecord
280
     1
270
     1
271
     1
  0
XRECORD
  5
526
102
{ACAD_REACTORS
330
521
102
}
330
521
100
AcDbXrecord
280
     1
270
     1
271
     1
  0
XRECORD
  5
525
102
{ACAD_REACTORS
330
521
102
}
330
521
100
AcDbXrecord
280
     1
270
     1
271
     1
  0
XRECORD
  5
527
102
{ACAD_REACTORS
330
521
102
}
330
521
100
AcDbXrecord
280
     1
270
     1
271
     1
  0
XRECORD
  5
524
102
{ACAD_REACTORS
330
521
102
}
330
521
100
AcDbXrecord
280
     1
270
     1
271
     1
  0
XRECORD
  5
632
102
{ACAD_REACTORS
330
531
102
}
330
531
100
AcDbXrecord
280
     1
102
MATERIAL
148
0.0
149
0.0
149
0.0
 93
        0
 94
      127
282
     0
 72
     0
 77
     0
171
     0
175
     0
179
     0
273
     0
  0
XRECORD
  5
533
102
{ACAD_REACTORS
330
531
102
}
330
531
100
AcDbXrecord
280
     1
270
     1
271
     1
  0
XRECORD
  5
532
102
{ACAD_REACTORS
330
531
102
}
330
531
100
AcDbXrecord
280
     1
270
     1
271
     1
  0
XRECORD
  5
536
102
{ACAD_REACTORS
330
531
102
}
330
531
100
AcDbXrecord
280
     1
270
     1
271
     1
  0
XRECORD
  5
535
102
{ACAD_REACTORS
330
531
102
}
330
531
100
AcDbXrecord
280
     1
270
     1
271
     1
  0
XRECORD
  5
537
102
{ACAD_REACTORS
330
531
102
}
330
531
100
AcDbXrecord
280
     1
270
     1
271
     1
  0
XRECORD
  5
534
102
{ACAD_REACTORS
330
531
102
}
330
531
100
AcDbXrecord
280
     1
270
     1
271
     1
  0
CELLSTYLEMAP
  5
62D
102
{ACAD_REACTORS
330
62C
102
}
330
62C
100
AcDbCellStyleMap
 90
        3
300
CELLSTYLE
  1
TABLEFORMAT_BEGIN
 90
        5
170
     1
 91
        0
 92
    32768
 62
   257
 93
        1
300
CONTENTFORMAT
  1
CONTENTFORMAT_BEGIN
 90
        0
 91
        0
 92
      512
 93
        0
300

 40
0.0
140
1.0
 94
        5
 62
     0
340
564
144
0.25
309
CONTENTFORMAT_END
171
     0
 94
        0
309
TABLEFORMAT_END
  1
CELLSTYLE_BEGIN
 90
        1
 91
        1
300
_TITLE
309
CELLSTYLE_END
300
CELLSTYLE
  1
TABLEFORMAT_BEGIN
 90
        5
170
     1
 91
        0
 92
        0
 62
   257
 93
        1
300
CONTENTFORMAT
  1
CONTENTFORMAT_BEGIN
 90
        0
 91
        0
 92
      512
 93
        0
300

 40
0.0
140
1.0
 94
        5
 62
     0
340
564
144
0.18
309
CONTENTFORMAT_END
171
     0
 94
        0
309
TABLEFORMAT_END
  1
CELLSTYLE_BEGIN
 90
        2
 91
        1
300
_HEADER
309
CELLSTYLE_END
300
CELLSTYLE
  1
TABLEFORMAT_BEGIN
 90
        5
170
     1
 91
        0
 92
        0
 62
   257
 93
        1
300
CONTENTFORMAT
  1
CONTENTFORMAT_BEGIN
 90
        0
 91
        0
 92
      512
 93
        0
300

 40
0.0
140
1.0
 94
        2
 62
     0
340
564
144
0.18
309
CONTENTFORMAT_END
171
     0
 94
        0
309
TABLEFORMAT_END
  1
CELLSTYLE_BEGIN
 90
        3
 91
        2
300
_DATA
309
CELLSTYLE_END
  0
XRECORD
  5
663
102
{ACAD_REACTORS
330
62C
102
}
330
62C
100
AcDbXrecord
280
     1
102
ACAD_ROUNDTRIP_PRE2007_TABLESTYLE
 90
      512
 91
        0
  1

 92
      512
 93
        0
  2

 94
      512
 95
        0
  3

  0
XRECORD
  5
63E
102
{ACAD_REACTORS
330
63D
102
}
330
63D
100
AcDbXrecord
280
     1
102
RTVSPropertyOp0
 70
     1
102
RTVSPropertyOp1
 70
     1
102
RTVSPropertyOp2
 70
     1
102
RTVSPropertyOp3
 70
     1
102
RTVSPropertyOp4
 70
     1
102
RTVSPropertyOp5
 70
     1
102
RTVSPropertyOp6
 70
     1
102
RTVSPropertyOp7
 70
     1
102
RTVSPropertyOp8
 70
     1
102
RTVSPropertyOp9
 70
     1
102
RTVSPropertyOp10
 70
     1
102
RTVSPropertyOp11
 70
     1
102
RTVSPropertyOp12
 70
     1
102
RTVSPropertyOp13
 70
     1
102
RTVSPropertyOp14
 70
     1
102
RTVSPropertyOp15
 70
     1
102
RTVSPropertyOp16
 70
     1
102
RTVSPropertyOp17
 70
     1
102
RTVSPropertyOp18
 70
     1
102
RTVSPropertyOp19
 70
     1
102
RTVSPropertyOp20
 70
     1
102
RTVSPropertyOp21
 70
     1
102
RTVSPropertyOp22
 70
     1
102
RTVSPropertyOp23
 70
     1
102
RTVSPropertyOp24
 70
     1
102
RTVSPropertyOp25
 70
     1
102
RTVSPropertyOp26
 70
     1
102
RTVSPropertyOp27
 70
     1
102
RTVSPropertyOp28
 70
     1
102
RTVSPropertyOp29
 70
     1
102
RTVSPropertyOp30
 70
     1
102
RTVSPropertyOp31
 70
     1
102
RTVSPropertyOp32
 70
     1
  0
XRECORD
  5
63C
102
{ACAD_REACTORS
330
63B
102
}
330
63B
100
AcDbXrecord
280
     1
102
RTVSPropertyOp0
 70
     1
102
RTVSPropertyOp1
 70
     1
102
RTVSPropertyOp2
 70
     1
102
RTVSPropertyOp3
 70
     1
102
RTVSPropertyOp4
 70
     1
102
RTVSPropertyOp5
 70
     1
102
RTVSPropertyOp6
 70
     1
102
RTVSPropertyOp7
 70
     1
102
RTVSPropertyOp8
 70
     1
102
RTVSPropertyOp9
 70
     1
102
RTVSPropertyOp10
 70
     1
102
RTVSPropertyOp11
 70
     1
102
RTVSPropertyOp12
 70
     1
102
RTVSPropertyOp13
 70
     1
102
RTVSPropertyOp14
 70
     1
102
RTVSPropertyOp15
 70
     1
102
RTVSPropertyOp16
 70
     1
102
RTVSPropertyOp17
 70
     1
102
RTVSPropertyOp18
 70
     1
102
RTVSPropertyOp19
 70
     1
102
RTVSPropertyOp20
 70
     1
102
RTVSPropertyOp21
 70
     1
102
RTVSPropertyOp22
 70
     1
102
RTVSPropertyOp23
 70
     1
102
RTVSPropertyOp24
 70
     1
102
RTVSPropertyOp25
 70
     1
102
RTVSPropertyOp26
 70
     1
102
RTVSPropertyOp27
 70
     1
102
RTVSPropertyOp28
 70
     1
102
RTVSPropertyOp29
 70
     1
102
RTVSPropertyOp30
 70
     1
102
RTVSPropertyOp31
 70
     1
102
RTVSPropertyOp32
 70
     1
  0
XRECORD
  5
64A
102
{ACAD_REACTORS
330
649
102
}
330
649
100
AcDbXrecord
280
     1
102
RTVSPropertyOp0
 70
     1
102
RTVSPropertyOp1
 70
     1
102
RTVSPropertyOp2
 70
     1
102
RTVSPropertyOp3
 70
     1
102
RTVSPropertyOp4
 70
     1
102
RTVSPropertyOp5
 70
     1
102
RTVSPropertyOp6
 70
     1
102
RTVSPropertyOp7
 70
     1
102
RTVSPropertyOp8
 70
     1
102
RTVSPropertyOp9
 70
     1
102
RTVSPropertyOp10
 70
     1
102
RTVSPropertyOp11
 70
     1
102
RTVSPropertyOp12
 70
     1
102
RTVSPropertyOp13
 70
     1
102
RTVSPropertyOp14
 70
     1
102
RTVSPropertyOp15
 70
     1
102
RTVSPropertyOp16
 70
     1
102
RTVSPropertyOp17
 70
     1
102
RTVSPropertyOp18
 70
     1
102
RTVSPropertyOp19
 70
     1
102
RTVSPropertyOp20
 70
     1
102
RTVSPropertyOp21
 70
     1
102
RTVSPropertyOp22
 70
     1
102
RTVSPropertyOp23
 70
     1
102
RTVSPropertyOp24
 70
     1
102
RTVSPropertyOp25
 70
     1
102
RTVSPropertyOp26
 70
     1
102
RTVSPropertyOp27
 70
     1
102
RTVSPropertyOp28
 70
     1
102
RTVSPropertyOp29
 70
     1
102
RTVSPropertyOp30
 70
     1
102
RTVSPropertyOp31
 70
     1
102
RTVSPropertyOp32
 70
     1
  0
XRECORD
  5
652
102
{ACAD_REACTORS
330
651
102
}
330
651
100
AcDbXrecord
280
     1
102
RTVSPropertyOp0
 70
     1
102
RTVSPropertyOp1
 70
     1
102
RTVSPropertyOp2
 70
     1
102
RTVSPropertyOp3
 70
     1
102
RTVSPropertyOp4
 70
     1
102
RTVSPropertyOp5
 70
     1
102
RTVSPropertyOp6
 70
     1
102
RTVSPropertyOp7
 70
     1
102
RTVSPropertyOp8
 70
     1
102
RTVSPropertyOp9
 70
     1
102
RTVSPropertyOp10
 70
     1
102
RTVSPropertyOp11
 70
     1
102
RTVSPropertyOp12
 70
     1
102
RTVSPropertyOp13
 70
     1
102
RTVSPropertyOp14
 70
     1
102
RTVSPropertyOp15
 70
     1
102
RTVSPropertyOp16
 70
     1
102
RTVSPropertyOp17
 70
     1
102
RTVSPropertyOp18
 70
     1
102
RTVSPropertyOp19
 70
     1
102
RTVSPropertyOp20
 70
     1
102
RTVSPropertyOp21
 70
     1
102
RTVSPropertyOp22
 70
     1
102
RTVSPropertyOp23
 70
     1
102
RTVSPropertyOp24
 70
     1
102
RTVSPropertyOp25
 70
     1
102
RTVSPropertyOp26
 70
     1
102
RTVSPropertyOp27
 70
     1
102
RTVSPropertyOp28
 70
     1
102
RTVSPropertyOp29
 70
     1
102
RTVSPropertyOp30
 70
     1
102
RTVSPropertyOp31
 70
     1
102
RTVSPropertyOp32
 70
     1
  0
XRECORD
  5
644
102
{ACAD_REACTORS
330
643
102
}
330
643
100
AcDbXrecord
280
     1
102
RTVSPropertyOp0
 70
     1
102
RTVSPropertyOp1
 70
     1
102
RTVSPropertyOp2
 70
     1
102
RTVSPropertyOp3
 70
     1
102
RTVSPropertyOp4
 70
     1
102
RTVSPropertyOp5
 70
     1
102
RTVSPropertyOp6
 70
     1
102
RTVSPropertyOp7
 70
     1
102
RTVSPropertyOp8
 70
     1
102
RTVSPropertyOp9
 70
     1
102
RTVSPropertyOp10
 70
     1
102
RTVSPropertyOp11
 70
     1
102
RTVSPropertyOp12
 70
     1
102
RTVSPropertyOp13
 70
     1
102
RTVSPropertyOp14
 70
     1
102
RTVSPropertyOp15
 70
     1
102
RTVSPropertyOp16
 70
     1
102
RTVSPropertyOp17
 70
     1
102
RTVSPropertyOp18
 70
     1
102
RTVSPropertyOp19
 70
     1
102
RTVSPropertyOp20
 70
     1
102
RTVSPropertyOp21
 70
     1
102
RTVSPropertyOp22
 70
     1
102
RTVSPropertyOp23
 70
     1
102
RTVSPropertyOp24
 70
     1
102
RTVSPropertyOp25
 70
     1
102
RTVSPropertyOp26
 70
     1
102
RTVSPropertyOp27
 70
     1
102
RTVSPropertyOp28
 70
     1
102
RTVSPropertyOp29
 70
     1
102
RTVSPropertyOp30
 70
     1
102
RTVSPropertyOp31
 70
     1
102
RTVSPropertyOp32
 70
     1
  0
XRECORD
  5
648
102
{ACAD_REACTORS
330
647
102
}
330
647
100
AcDbXrecord
280
     1
102
RTVSPropertyOp0
 70
     1
102
RTVSPropertyOp1
 70
     1
102
RTVSPropertyOp2
 70
     1
102
RTVSPropertyOp3
 70
     1
102
RTVSPropertyOp4
 70
     1
102
RTVSPropertyOp5
 70
     1
102
RTVSPropertyOp6
 70
     1
102
RTVSPropertyOp7
 70
     1
102
RTVSPropertyOp8
 70
     1
102
RTVSPropertyOp9
 70
     1
102
RTVSPropertyOp10
 70
     1
102
RTVSPropertyOp11
 70
     1
102
RTVSPropertyOp12
 70
     1
102
RTVSPropertyOp13
 70
     1
102
RTVSPropertyOp14
 70
     1
102
RTVSPropertyOp15
 70
     1
102
RTVSPropertyOp16
 70
     1
102
RTVSPropertyOp17
 70
     1
102
RTVSPropertyOp18
 70
     1
102
RTVSPropertyOp19
 70
     1
102
RTVSPropertyOp20
 70
     1
102
RTVSPropertyOp21
 70
     1
102
RTVSPropertyOp22
 70
     1
102
RTVSPropertyOp23
 70
     1
102
RTVSPropertyOp24
 70
     1
102
RTVSPropertyOp25
 70
     1
102
RTVSPropertyOp26
 70
     1
102
RTVSPropertyOp27
 70
     1
102
RTVSPropertyOp28
 70
     1
102
RTVSPropertyOp29
 70
     1
102
RTVSPropertyOp30
 70
     1
102
RTVSPropertyOp31
 70
     1
102
RTVSPropertyOp32
 70
     1
  0
XRECORD
  5
662
102
{ACAD_REACTORS
330
661
102
}
330
661
100
AcDbXrecord
280
     1
102
RTVSPropertyOp0
 70
     0
102
RTVSPropertyOp1
 70
     0
102
RTVSPropertyOp2
 70
     0
102
RTVSPropertyOp3
 70
     0
102
RTVSPropertyOp4
 70
     0
102
RTVSPropertyOp5
 70
     0
102
RTVSPropertyOp6
 70
     0
102
RTVSPropertyOp7
 70
     0
102
RTVSPropertyOp8
 70
     0
102
RTVSPropertyOp9
 70
     0
102
RTVSPropertyOp10
 70
     0
102
RTVSPropertyOp11
 70
     0
102
RTVSPropertyOp12
 70
     0
102
RTVSPropertyOp13
 70
     0
102
RTVSPropertyOp14
 70
     2
102
RTVSPropertyOp15
 70
     0
102
RTVSPropertyOp16
 70
     0
102
RTVSPropertyOp17
 70
     0
102
RTVSPropertyOp18
 70
     0
102
RTVSPropertyOp19
 70
     0
102
RTVSPropertyOp20
 70
     0
102
RTVSPropertyOp21
 70
     0
102
RTVSPropertyOp22
 70
     0
102
RTVSPropertyOp23
 70
     0
102
RTVSPropertyOp24
 70
     0
102
RTVSPropertyOp25
 70
     0
102
RTVSPropertyOp26
 70
     0
102
RTVSPropertyOp27
 70
     0
102
RTVSPropertyOp28
 70
     0
102
RTVSPropertyOp29
 70
     0
102
RTVSPropertyOp30
 70
     0
102
RTVSPropertyOp31
 70
     0
102
RTVSPropertyOp32
 70
     0
  0
XRECORD
  5
650
102
{ACAD_REACTORS
330
64F
102
}
330
64F
100
AcDbXrecord
280
     1
102
RTVSPropertyOp0
 70
     1
102
RTVSPropertyOp1
 70
     1
102
RTVSPropertyOp2
 70
     1
102
RTVSPropertyOp3
 70
     1
102
RTVSPropertyOp4
 70
     1
102
RTVSPropertyOp5
 70
     1
102
RTVSPropertyOp6
 70
     1
102
RTVSPropertyOp7
 70
     1
102
RTVSPropertyOp8
 70
     1
102
RTVSPropertyOp9
 70
     1
102
RTVSPropertyOp10
 70
     1
102
RTVSPropertyOp11
 70
     1
102
RTVSPropertyOp12
 70
     1
102
RTVSPropertyOp13
 70
     1
102
RTVSPropertyOp14
 70
     1
102
RTVSPropertyOp15
 70
     1
102
RTVSPropertyOp16
 70
     1
102
RTVSPropertyOp17
 70
     1
102
RTVSPropertyOp18
 70
     1
102
RTVSPropertyOp19
 70
     1
102
RTVSPropertyOp20
 70
     1
102
RTVSPropertyOp21
 70
     1
102
RTVSPropertyOp22
 70
     1
102
RTVSPropertyOp23
 70
     1
102
RTVSPropertyOp24
 70
     1
102
RTVSPropertyOp25
 70
     1
102
RTVSPropertyOp26
 70
     1
102
RTVSPropertyOp27
 70
     1
102
RTVSPropertyOp28
 70
     1
102
RTVSPropertyOp29
 70
     1
102
RTVSPropertyOp30
 70
     1
102
RTVSPropertyOp31
 70
     1
102
RTVSPropertyOp32
 70
     1
  0
XRECORD
  5
634
102
{ACAD_REACTORS
330
633
102
}
330
633
100
AcDbXrecord
280
     1
102
RTVSPropertyOp0
 70
     1
102
RTVSPropertyOp1
 70
     1
102
RTVSPropertyOp2
 70
     1
102
RTVSPropertyOp3
 70
     1
102
RTVSPropertyOp4
 70
     1
102
RTVSPropertyOp5
 70
     1
102
RTVSPropertyOp6
 70
     1
102
RTVSPropertyOp7
 70
     1
102
RTVSPropertyOp8
 70
     1
102
RTVSPropertyOp9
 70
     1
102
RTVSPropertyOp10
 70
     1
102
RTVSPropertyOp11
 70
     1
102
RTVSPropertyOp12
 70
     1
102
RTVSPropertyOp13
 70
     1
102
RTVSPropertyOp14
 70
     1
102
RTVSPropertyOp15
 70
     1
102
RTVSPropertyOp16
 70
     1
102
RTVSPropertyOp17
 70
     1
102
RTVSPropertyOp18
 70
     1
102
RTVSPropertyOp19
 70
     1
102
RTVSPropertyOp20
 70
     1
102
RTVSPropertyOp21
 70
     1
102
RTVSPropertyOp22
 70
     1
102
RTVSPropertyOp23
 70
     1
102
RTVSPropertyOp24
 70
     1
102
RTVSPropertyOp25
 70
     1
102
RTVSPropertyOp26
 70
     1
102
RTVSPropertyOp27
 70
     1
102
RTVSPropertyOp28
 70
     1
102
RTVSPropertyOp29
 70
     1
102
RTVSPropertyOp30
 70
     1
102
RTVSPropertyOp31
 70
     1
102
RTVSPropertyOp32
 70
     1
  0
XRECORD
  5
636
102
{ACAD_REACTORS
330
635
102
}
330
635
100
AcDbXrecord
280
     1
102
RTVSPropertyOp0
 70
     1
102
RTVSPropertyOp1
 70
     1
102
RTVSPropertyOp2
 70
     1
102
RTVSPropertyOp3
 70
     1
102
RTVSPropertyOp4
 70
     1
102
RTVSPropertyOp5
 70
     1
102
RTVSPropertyOp6
 70
     1
102
RTVSPropertyOp7
 70
     1
102
RTVSPropertyOp8
 70
     1
102
RTVSPropertyOp9
 70
     1
102
RTVSPropertyOp10
 70
     1
102
RTVSPropertyOp11
 70
     1
102
RTVSPropertyOp12
 70
     1
102
RTVSPropertyOp13
 70
     1
102
RTVSPropertyOp14
 70
     1
102
RTVSPropertyOp15
 70
     1
102
RTVSPropertyOp16
 70
     1
102
RTVSPropertyOp17
 70
     1
102
RTVSPropertyOp18
 70
     1
102
RTVSPropertyOp19
 70
     1
102
RTVSPropertyOp20
 70
     1
102
RTVSPropertyOp21
 70
     1
102
RTVSPropertyOp22
 70
     1
102
RTVSPropertyOp23
 70
     1
102
RTVSPropertyOp24
 70
     1
102
RTVSPropertyOp25
 70
     1
102
RTVSPropertyOp26
 70
     1
102
RTVSPropertyOp27
 70
     1
102
RTVSPropertyOp28
 70
     1
102
RTVSPropertyOp29
 70
     1
102
RTVSPropertyOp30
 70
     1
102
RTVSPropertyOp31
 70
     1
102
RTVSPropertyOp32
 70
     1
  0
XRECORD
  5
638
102
{ACAD_REACTORS
330
637
102
}
330
637
100
AcDbXrecord
280
     1
102
RTVSPropertyOp0
 70
     1
102
RTVSPropertyOp1
 70
     1
102
RTVSPropertyOp2
 70
     1
102
RTVSPropertyOp3
 70
     1
102
RTVSPropertyOp4
 70
     1
102
RTVSPropertyOp5
 70
     1
102
RTVSPropertyOp6
 70
     1
102
RTVSPropertyOp7
 70
     1
102
RTVSPropertyOp8
 70
     1
102
RTVSPropertyOp9
 70
     1
102
RTVSPropertyOp10
 70
     1
102
RTVSPropertyOp11
 70
     1
102
RTVSPropertyOp12
 70
     1
102
RTVSPropertyOp13
 70
     1
102
RTVSPropertyOp14
 70
     1
102
RTVSPropertyOp15
 70
     1
102
RTVSPropertyOp16
 70
     1
102
RTVSPropertyOp17
 70
     1
102
RTVSPropertyOp18
 70
     1
102
RTVSPropertyOp19
 70
     1
102
RTVSPropertyOp20
 70
     1
102
RTVSPropertyOp21
 70
     1
102
RTVSPropertyOp22
 70
     1
102
RTVSPropertyOp23
 70
     1
102
RTVSPropertyOp24
 70
     1
102
RTVSPropertyOp25
 70
     1
102
RTVSPropertyOp26
 70
     1
102
RTVSPropertyOp27
 70
     1
102
RTVSPropertyOp28
 70
     1
102
RTVSPropertyOp29
 70
     1
102
RTVSPropertyOp30
 70
     1
102
RTVSPropertyOp31
 70
     1
102
RTVSPropertyOp32
 70
     1
  0
XRECORD
  5
63A
102
{ACAD_REACTORS
330
639
102
}
330
639
100
AcDbXrecord
280
     1
102
RTVSPropertyOp0
 70
     1
102
RTVSPropertyOp1
 70
     1
102
RTVSPropertyOp2
 70
     1
102
RTVSPropertyOp3
 70
     1
102
RTVSPropertyOp4
 70
     1
102
RTVSPropertyOp5
 70
     1
102
RTVSPropertyOp6
 70
     1
102
RTVSPropertyOp7
 70
     1
102
RTVSPropertyOp8
 70
     1
102
RTVSPropertyOp9
 70
     1
102
RTVSPropertyOp10
 70
     1
102
RTVSPropertyOp11
 70
     1
102
RTVSPropertyOp12
 70
     1
102
RTVSPropertyOp13
 70
     1
102
RTVSPropertyOp14
 70
     1
102
RTVSPropertyOp15
 70
     1
102
RTVSPropertyOp16
 70
     1
102
RTVSPropertyOp17
 70
     1
102
RTVSPropertyOp18
 70
     1
102
RTVSPropertyOp19
 70
     1
102
RTVSPropertyOp20
 70
     1
102
RTVSPropertyOp21
 70
     1
102
RTVSPropertyOp22
 70
     1
102
RTVSPropertyOp23
 70
     1
102
RTVSPropertyOp24
 70
     1
102
RTVSPropertyOp25
 70
     1
102
RTVSPropertyOp26
 70
     1
102
RTVSPropertyOp27
 70
     1
102
RTVSPropertyOp28
 70
     1
102
RTVSPropertyOp29
 70
     1
102
RTVSPropertyOp30
 70
     1
102
RTVSPropertyOp31
 70
     1
102
RTVSPropertyOp32
 70
     1
  0
XRECORD
  5
642
102
{ACAD_REACTORS
330
641
102
}
330
641
100
AcDbXrecord
280
     1
102
RTVSPropertyOp0
 70
     1
102
RTVSPropertyOp1
 70
     1
102
RTVSPropertyOp2
 70
     1
102
RTVSPropertyOp3
 70
     1
102
RTVSPropertyOp4
 70
     1
102
RTVSPropertyOp5
 70
     1
102
RTVSPropertyOp6
 70
     1
102
RTVSPropertyOp7
 70
     1
102
RTVSPropertyOp8
 70
     1
102
RTVSPropertyOp9
 70
     1
102
RTVSPropertyOp10
 70
     1
102
RTVSPropertyOp11
 70
     1
102
RTVSPropertyOp12
 70
     1
102
RTVSPropertyOp13
 70
     1
102
RTVSPropertyOp14
 70
     1
102
RTVSPropertyOp15
 70
     1
102
RTVSPropertyOp16
 70
     1
102
RTVSPropertyOp17
 70
     1
102
RTVSPropertyOp18
 70
     1
102
RTVSPropertyOp19
 70
     1
102
RTVSPropertyOp20
 70
     1
102
RTVSPropertyOp21
 70
     1
102
RTVSPropertyOp22
 70
     1
102
RTVSPropertyOp23
 70
     1
102
RTVSPropertyOp24
 70
     1
102
RTVSPropertyOp25
 70
     1
102
RTVSPropertyOp26
 70
     1
102
RTVSPropertyOp27
 70
     1
102
RTVSPropertyOp28
 70
     1
102
RTVSPropertyOp29
 70
     1
102
RTVSPropertyOp30
 70
     1
102
RTVSPropertyOp31
 70
     1
102
RTVSPropertyOp32
 70
     1
  0
XRECORD
  5
65E
102
{ACAD_REACTORS
330
65D
102
}
330
65D
100
AcDbXrecord
280
     1
102
RTVSPropertyOp0
 70
     0
102
RTVSPropertyOp1
 70
     0
102
RTVSPropertyOp2
 70
     0
102
RTVSPropertyOp3
 70
     0
102
RTVSPropertyOp4
 70
     0
102
RTVSPropertyOp5
 70
     0
102
RTVSPropertyOp6
 70
     0
102
RTVSPropertyOp7
 70
     0
102
RTVSPropertyOp8
 70
     0
102
RTVSPropertyOp9
 70
     0
102
RTVSPropertyOp10
 70
     0
102
RTVSPropertyOp11
 70
     0
102
RTVSPropertyOp12
 70
     0
102
RTVSPropertyOp13
 70
     0
102
RTVSPropertyOp14
 70
     2
102
RTVSPropertyOp15
 70
     0
102
RTVSPropertyOp16
 70
     0
102
RTVSPropertyOp17
 70
     0
102
RTVSPropertyOp18
 70
     0
102
RTVSPropertyOp19
 70
     0
102
RTVSPropertyOp20
 70
     0
102
RTVSPropertyOp21
 70
     0
102
RTVSPropertyOp22
 70
     0
102
RTVSPropertyOp23
 70
     0
102
RTVSPropertyOp24
 70
     0
102
RTVSPropertyOp25
 70
     0
102
RTVSPropertyOp26
 70
     0
102
RTVSPropertyOp27
 70
     0
102
RTVSPropertyOp28
 70
     0
102
RTVSPropertyOp29
 70
     0
102
RTVSPropertyOp30
 70
     0
102
RTVSPropertyOp31
 70
     0
102
RTVSPropertyOp32
 70
     0
  0
XRECORD
  5
64E
102
{ACAD_REACTORS
330
64D
102
}
330
64D
100
AcDbXrecord
280
     1
102
RTVSPropertyOp0
 70
     1
102
RTVSPropertyOp1
 70
     1
102
RTVSPropertyOp2
 70
     1
102
RTVSPropertyOp3
 70
     1
102
RTVSPropertyOp4
 70
     1
102
RTVSPropertyOp5
 70
     1
102
RTVSPropertyOp6
 70
     1
102
RTVSPropertyOp7
 70
     1
102
RTVSPropertyOp8
 70
     1
102
RTVSPropertyOp9
 70
     1
102
RTVSPropertyOp10
 70
     1
102
RTVSPropertyOp11
 70
     1
102
RTVSPropertyOp12
 70
     1
102
RTVSPropertyOp13
 70
     1
102
RTVSPropertyOp14
 70
     1
102
RTVSPropertyOp15
 70
     1
102
RTVSPropertyOp16
 70
     1
102
RTVSPropertyOp17
 70
     1
102
RTVSPropertyOp18
 70
     1
102
RTVSPropertyOp19
 70
     1
102
RTVSPropertyOp20
 70
     1
102
RTVSPropertyOp21
 70
     1
102
RTVSPropertyOp22
 70
     1
102
RTVSPropertyOp23
 70
     1
102
RTVSPropertyOp24
 70
     1
102
RTVSPropertyOp25
 70
     1
102
RTVSPropertyOp26
 70
     1
102
RTVSPropertyOp27
 70
     1
102
RTVSPropertyOp28
 70
     1
102
RTVSPropertyOp29
 70
     1
102
RTVSPropertyOp30
 70
     1
102
RTVSPropertyOp31
 70
     1
102
RTVSPropertyOp32
 70
     1
  0
XRECORD
  5
660
102
{ACAD_REACTORS
330
65F
102
}
330
65F
100
AcDbXrecord
280
     1
102
RTVSPropertyOp0
 70
     0
102
RTVSPropertyOp1
 70
     0
102
RTVSPropertyOp2
 70
     0
102
RTVSPropertyOp3
 70
     0
102
RTVSPropertyOp4
 70
     0
102
RTVSPropertyOp5
 70
     0
102
RTVSPropertyOp6
 70
     0
102
RTVSPropertyOp7
 70
     0
102
RTVSPropertyOp8
 70
     0
102
RTVSPropertyOp9
 70
     0
102
RTVSPropertyOp10
 70
     0
102
RTVSPropertyOp11
 70
     0
102
RTVSPropertyOp12
 70
     0
102
RTVSPropertyOp13
 70
     0
102
RTVSPropertyOp14
 70
     2
102
RTVSPropertyOp15
 70
     0
102
RTVSPropertyOp16
 70
     0
102
RTVSPropertyOp17
 70
     0
102
RTVSPropertyOp18
 70
     0
102
RTVSPropertyOp19
 70
     0
102
RTVSPropertyOp20
 70
     0
102
RTVSPropertyOp21
 70
     0
102
RTVSPropertyOp22
 70
     0
102
RTVSPropertyOp23
 70
     0
102
RTVSPropertyOp24
 70
     0
102
RTVSPropertyOp25
 70
     0
102
RTVSPropertyOp26
 70
     0
102
RTVSPropertyOp27
 70
     0
102
RTVSPropertyOp28
 70
     0
102
RTVSPropertyOp29
 70
     0
102
RTVSPropertyOp30
 70
     0
102
RTVSPropertyOp31
 70
     0
102
RTVSPropertyOp32
 70
     0
  0
XRECORD
  5
646
102
{ACAD_REACTORS
330
645
102
}
330
645
100
AcDbXrecord
280
     1
102
RTVSPropertyOp0
 70
     1
102
RTVSPropertyOp1
 70
     1
102
RTVSPropertyOp2
 70
     1
102
RTVSPropertyOp3
 70
     1
102
RTVSPropertyOp4
 70
     1
102
RTVSPropertyOp5
 70
     1
102
RTVSPropertyOp6
 70
     1
102
RTVSPropertyOp7
 70
     1
102
RTVSPropertyOp8
 70
     1
102
RTVSPropertyOp9
 70
     1
102
RTVSPropertyOp10
 70
     1
102
RTVSPropertyOp11
 70
     1
102
RTVSPropertyOp12
 70
     1
102
RTVSPropertyOp13
 70
     1
102
RTVSPropertyOp14
 70
     1
102
RTVSPropertyOp15
 70
     1
102
RTVSPropertyOp16
 70
     1
102
RTVSPropertyOp17
 70
     1
102
RTVSPropertyOp18
 70
     1
102
RTVSPropertyOp19
 70
     1
102
RTVSPropertyOp20
 70
     1
102
RTVSPropertyOp21
 70
     1
102
RTVSPropertyOp22
 70
     1
102
RTVSPropertyOp23
 70
     1
102
RTVSPropertyOp24
 70
     1
102
RTVSPropertyOp25
 70
     1
102
RTVSPropertyOp26
 70
     1
102
RTVSPropertyOp27
 70
     1
102
RTVSPropertyOp28
 70
     1
102
RTVSPropertyOp29
 70
     1
102
RTVSPropertyOp30
 70
     1
102
RTVSPropertyOp31
 70
     1
102
RTVSPropertyOp32
 70
     1
  0
XRECORD
  5
65C
102
{ACAD_REACTORS
330
65B
102
}
330
65B
100
AcDbXrecord
280
     1
102
RTVSPropertyOp0
 70
     1
102
RTVSPropertyOp1
 70
     1
102
RTVSPropertyOp2
 70
     1
102
RTVSPropertyOp3
 70
     1
102
RTVSPropertyOp4
 70
     1
102
RTVSPropertyOp5
 70
     1
102
RTVSPropertyOp6
 70
     1
102
RTVSPropertyOp7
 70
     1
102
RTVSPropertyOp8
 70
     1
102
RTVSPropertyOp9
 70
     1
102
RTVSPropertyOp10
 70
     1
102
RTVSPropertyOp11
 70
     1
102
RTVSPropertyOp12
 70
     1
102
RTVSPropertyOp13
 70
     1
102
RTVSPropertyOp14
 70
     1
102
RTVSPropertyOp15
 70
     1
102
RTVSPropertyOp16
 70
     1
102
RTVSPropertyOp17
 70
     1
102
RTVSPropertyOp18
 70
     1
102
RTVSPropertyOp19
 70
     1
102
RTVSPropertyOp20
 70
     1
102
RTVSPropertyOp21
 70
     1
102
RTVSPropertyOp22
 70
     1
102
RTVSPropertyOp23
 70
     1
102
RTVSPropertyOp24
 70
     1
102
RTVSPropertyOp25
 70
     1
102
RTVSPropertyOp26
 70
     1
102
RTVSPropertyOp27
 70
     1
102
RTVSPropertyOp28
 70
     1
102
RTVSPropertyOp29
 70
     1
102
RTVSPropertyOp30
 70
     1
102
RTVSPropertyOp31
 70
     1
102
RTVSPropertyOp32
 70
     1
  0
XRECORD
  5
65A
102
{ACAD_REACTORS
330
659
102
}
330
659
100
AcDbXrecord
280
     1
102
RTVSPropertyOp0
 70
     1
102
RTVSPropertyOp1
 70
     1
102
RTVSPropertyOp2
 70
     1
102
RTVSPropertyOp3
 70
     1
102
RTVSPropertyOp4
 70
     1
102
RTVSPropertyOp5
 70
     1
102
RTVSPropertyOp6
 70
     1
102
RTVSPropertyOp7
 70
     1
102
RTVSPropertyOp8
 70
     1
102
RTVSPropertyOp9
 70
     1
102
RTVSPropertyOp10
 70
     1
102
RTVSPropertyOp11
 70
     1
102
RTVSPropertyOp12
 70
     1
102
RTVSPropertyOp13
 70
     1
102
RTVSPropertyOp14
 70
     1
102
RTVSPropertyOp15
 70
     1
102
RTVSPropertyOp16
 70
     1
102
RTVSPropertyOp17
 70
     1
102
RTVSPropertyOp18
 70
     1
102
RTVSPropertyOp19
 70
     1
102
RTVSPropertyOp20
 70
     1
102
RTVSPropertyOp21
 70
     1
102
RTVSPropertyOp22
 70
     1
102
RTVSPropertyOp23
 70
     1
102
RTVSPropertyOp24
 70
     1
102
RTVSPropertyOp25
 70
     1
102
RTVSPropertyOp26
 70
     1
102
RTVSPropertyOp27
 70
     1
102
RTVSPropertyOp28
 70
     1
102
RTVSPropertyOp29
 70
     1
102
RTVSPropertyOp30
 70
     1
102
RTVSPropertyOp31
 70
     1
102
RTVSPropertyOp32
 70
     1
  0
XRECORD
  5
654
102
{ACAD_REACTORS
330
653
102
}
330
653
100
AcDbXrecord
280
     1
102
RTVSPropertyOp0
 70
     1
102
RTVSPropertyOp1
 70
     1
102
RTVSPropertyOp2
 70
     1
102
RTVSPropertyOp3
 70
     1
102
RTVSPropertyOp4
 70
     1
102
RTVSPropertyOp5
 70
     1
102
RTVSPropertyOp6
 70
     1
102
RTVSPropertyOp7
 70
     1
102
RTVSPropertyOp8
 70
     1
102
RTVSPropertyOp9
 70
     1
102
RTVSPropertyOp10
 70
     1
102
RTVSPropertyOp11
 70
     1
102
RTVSPropertyOp12
 70
     1
102
RTVSPropertyOp13
 70
     1
102
RTVSPropertyOp14
 70
     1
102
RTVSPropertyOp15
 70
     1
102
RTVSPropertyOp16
 70
     1
102
RTVSPropertyOp17
 70
     1
102
RTVSPropertyOp18
 70
     1
102
RTVSPropertyOp19
 70
     1
102
RTVSPropertyOp20
 70
     1
102
RTVSPropertyOp21
 70
     1
102
RTVSPropertyOp22
 70
     1
102
RTVSPropertyOp23
 70
     1
102
RTVSPropertyOp24
 70
     1
102
RTVSPropertyOp25
 70
     1
102
RTVSPropertyOp26
 70
     1
102
RTVSPropertyOp27
 70
     1
102
RTVSPropertyOp28
 70
     1
102
RTVSPropertyOp29
 70
     1
102
RTVSPropertyOp30
 70
     1
102
RTVSPropertyOp31
 70
     1
102
RTVSPropertyOp32
 70
     1
  0
XRECORD
  5
656
102
{ACAD_REACTORS
330
655
102
}
330
655
100
AcDbXrecord
280
     1
102
RTVSPropertyOp0
 70
     1
102
RTVSPropertyOp1
 70
     1
102
RTVSPropertyOp2
 70
     1
102
RTVSPropertyOp3
 70
     1
102
RTVSPropertyOp4
 70
     1
102
RTVSPropertyOp5
 70
     1
102
RTVSPropertyOp6
 70
     1
102
RTVSPropertyOp7
 70
     1
102
RTVSPropertyOp8
 70
     1
102
RTVSPropertyOp9
 70
     1
102
RTVSPropertyOp10
 70
     1
102
RTVSPropertyOp11
 70
     1
102
RTVSPropertyOp12
 70
     1
102
RTVSPropertyOp13
 70
     1
102
RTVSPropertyOp14
 70
     1
102
RTVSPropertyOp15
 70
     1
102
RTVSPropertyOp16
 70
     1
102
RTVSPropertyOp17
 70
     1
102
RTVSPropertyOp18
 70
     1
102
RTVSPropertyOp19
 70
     1
102
RTVSPropertyOp20
 70
     1
102
RTVSPropertyOp21
 70
     1
102
RTVSPropertyOp22
 70
     1
102
RTVSPropertyOp23
 70
     1
102
RTVSPropertyOp24
 70
     1
102
RTVSPropertyOp25
 70
     1
102
RTVSPropertyOp26
 70
     1
102
RTVSPropertyOp27
 70
     1
102
RTVSPropertyOp28
 70
     1
102
RTVSPropertyOp29
 70
     1
102
RTVSPropertyOp30
 70
     1
102
RTVSPropertyOp31
 70
     1
102
RTVSPropertyOp32
 70
     1
  0
XRECORD
  5
64C
102
{ACAD_REACTORS
330
64B
102
}
330
64B
100
AcDbXrecord
280
     1
102
RTVSPropertyOp0
 70
     1
102
RTVSPropertyOp1
 70
     1
102
RTVSPropertyOp2
 70
     1
102
RTVSPropertyOp3
 70
     1
102
RTVSPropertyOp4
 70
     1
102
RTVSPropertyOp5
 70
     1
102
RTVSPropertyOp6
 70
     1
102
RTVSPropertyOp7
 70
     1
102
RTVSPropertyOp8
 70
     1
102
RTVSPropertyOp9
 70
     1
102
RTVSPropertyOp10
 70
     1
102
RTVSPropertyOp11
 70
     1
102
RTVSPropertyOp12
 70
     1
102
RTVSPropertyOp13
 70
     1
102
RTVSPropertyOp14
 70
     1
102
RTVSPropertyOp15
 70
     1
102
RTVSPropertyOp16
 70
     1
102
RTVSPropertyOp17
 70
     1
102
RTVSPropertyOp18
 70
     1
102
RTVSPropertyOp19
 70
     1
102
RTVSPropertyOp20
 70
     1
102
RTVSPropertyOp21
 70
     1
102
RTVSPropertyOp22
 70
     1
102
RTVSPropertyOp23
 70
     1
102
RTVSPropertyOp24
 70
     1
102
RTVSPropertyOp25
 70
     1
102
RTVSPropertyOp26
 70
     1
102
RTVSPropertyOp27
 70
     1
102
RTVSPropertyOp28
 70
     1
102
RTVSPropertyOp29
 70
     1
102
RTVSPropertyOp30
 70
     1
102
RTVSPropertyOp31
 70
     1
102
RTVSPropertyOp32
 70
     1
  0
XRECORD
  5
640
102
{ACAD_REACTORS
330
63F
102
}
330
63F
100
AcDbXrecord
280
     1
102
RTVSPropertyOp0
 70
     1
102
RTVSPropertyOp1
 70
     1
102
RTVSPropertyOp2
 70
     1
102
RTVSPropertyOp3
 70
     1
102
RTVSPropertyOp4
 70
     1
102
RTVSPropertyOp5
 70
     1
102
RTVSPropertyOp6
 70
     1
102
RTVSPropertyOp7
 70
     1
102
RTVSPropertyOp8
 70
     1
102
RTVSPropertyOp9
 70
     1
102
RTVSPropertyOp10
 70
     1
102
RTVSPropertyOp11
 70
     1
102
RTVSPropertyOp12
 70
     1
102
RTVSPropertyOp13
 70
     1
102
RTVSPropertyOp14
 70
     1
102
RTVSPropertyOp15
 70
     1
102
RTVSPropertyOp16
 70
     1
102
RTVSPropertyOp17
 70
     1
102
RTVSPropertyOp18
 70
     1
102
RTVSPropertyOp19
 70
     1
102
RTVSPropertyOp20
 70
     1
102
RTVSPropertyOp21
 70
     1
102
RTVSPropertyOp22
 70
     1
102
RTVSPropertyOp23
 70
     1
102
RTVSPropertyOp24
 70
     1
102
RTVSPropertyOp25
 70
     1
102
RTVSPropertyOp26
 70
     1
102
RTVSPropertyOp27
 70
     1
102
RTVSPropertyOp28
 70
     1
102
RTVSPropertyOp29
 70
     1
102
RTVSPropertyOp30
 70
     1
102
RTVSPropertyOp31
 70
     1
102
RTVSPropertyOp32
 70
     1
  0
XRECORD
  5
658
102
{ACAD_REACTORS
330
657
102
}
330
657
100
AcDbXrecord
280
     1
102
RTVSPropertyOp0
 70
     1
102
RTVSPropertyOp1
 70
     1
102
RTVSPropertyOp2
 70
     1
102
RTVSPropertyOp3
 70
     1
102
RTVSPropertyOp4
 70
     1
102
RTVSPropertyOp5
 70
     1
102
RTVSPropertyOp6
 70
     1
102
RTVSPropertyOp7
 70
     1
102
RTVSPropertyOp8
 70
     1
102
RTVSPropertyOp9
 70
     1
102
RTVSPropertyOp10
 70
     1
102
RTVSPropertyOp11
 70
     1
102
RTVSPropertyOp12
 70
     1
102
RTVSPropertyOp13
 70
     1
102
RTVSPropertyOp14
 70
     1
102
RTVSPropertyOp15
 70
     1
102
RTVSPropertyOp16
 70
     1
102
RTVSPropertyOp17
 70
     1
102
RTVSPropertyOp18
 70
     1
102
RTVSPropertyOp19
 70
     1
102
RTVSPropertyOp20
 70
     1
102
RTVSPropertyOp21
 70
     1
102
RTVSPropertyOp22
 70
     1
102
RTVSPropertyOp23
 70
     1
102
RTVSPropertyOp24
 70
     1
102
RTVSPropertyOp25
 70
     1
102
RTVSPropertyOp26
 70
     1
102
RTVSPropertyOp27
 70
     1
102
RTVSPropertyOp28
 70
     1
102
RTVSPropertyOp29
 70
     1
102
RTVSPropertyOp30
 70
     1
102
RTVSPropertyOp31
 70
     1
102
RTVSPropertyOp32
 70
     1
  0
ENDSEC
  0
EOF
