  0
SECTION
  2
HEADER
  9
$ACADVER
  1
AC1015
  9
$ACADMAINTVER
 70
    20
  9
$DWGCODEPAGE
  3
ANSI_1252
  9
$INSBASE
 10
0.0
 20
0.0
 30
0.0
  9
$EXTMIN
 10
-21.8796724742608
 20
-20.03391000915419
 30
0.0
  9
$EXTMAX
 10
303.5693345920571
 20
287.6348267953136
 30
0.0
  9
$LIMMIN
 10
0.0
 20
0.0
  9
$LIMMAX
 10
210.0
 20
297.0
  9
$ORTHOMODE
 70
     0
  9
$REGENMODE
 70
     1
  9
$FILLMODE
 70
     1
  9
$QTEXTMODE
 70
     0
  9
$MIRRTEXT
 70
     1
  9
$LTSCALE
 40
25.4
  9
$ATTMODE
 70
     1
  9
$TEXTSIZE
 40
0.2
  9
$TRACEWID
 40
0.05
  9
$TEXTSTYLE
  7
Standard
  9
$CLAYER
  8
P-0000
  9
$CELTYPE
  6
CONTINUOUS
  9
$CECOLOR
 62
   256
  9
$CELTSCALE
 40
1.0
  9
$DISPSILH
 70
     0
  9
$DIMSCALE
 40
1.0
  9
$DIMASZ
 40
0.18
  9
$DIMEXO
 40
0.0625
  9
$DIMDLI
 40
0.38
  9
$DIMRND
 40
0.0
  9
$DIMDLE
 40
0.0
  9
$DIMEXE
 40
0.18
  9
$DIMTP
 40
0.0
  9
$DIMTM
 40
0.0
  9
$DIMTXT
 40
0.18
  9
$DIMCEN
 40
0.09
  9
$DIMTSZ
 40
0.0
  9
$DIMTOL
 70
     0
  9
$DIMLIM
 70
     0
  9
$DIMTIH
 70
     1
  9
$DIMTOH
 70
     1
  9
$DIMSE1
 70
     0
  9
$DIMSE2
 70
     0
  9
$DIMTAD
 70
     0
  9
$DIMZIN
 70
     0
  9
$DIMBLK
  1

  9
$DIMASO
 70
     1
  9
$DIMSHO
 70
     1
  9
$DIMPOST
  1

  9
$DIMAPOST
  1

  9
$DIMALT
 70
     0
  9
$DIMALTD
 70
     2
  9
$DIMALTF
 40
25.4
  9
$DIMLFAC
 40
1.0
  9
$DIMTOFL
 70
     0
  9
$DIMTVP
 40
0.0
  9
$DIMTIX
 70
     0
  9
$DIMSOXD
 70
     0
  9
$DIMSAH
 70
     0
  9
$DIMBLK1
  1

  9
$DIMBLK2
  1

  9
$DIMSTYLE
  2
Standard
  9
$DIMCLRD
 70
     0
  9
$DIMCLRE
 70
     0
  9
$DIMCLRT
 70
     0
  9
$DIMTFAC
 40
1.0
  9
$DIMGAP
 40
0.09
  9
$DIMJUST
 70
     0
  9
$DIMSD1
 70
     0
  9
$DIMSD2
 70
     0
  9
$DIMTOLJ
 70
     1
  9
$DIMTZIN
 70
     0
  9
$DIMALTZ
 70
     0
  9
$DIMALTTZ
 70
     0
  9
$DIMUPT
 70
     0
  9
$DIMDEC
 70
     4
  9
$DIMTDEC
 70
     4
  9
$DIMALTU
 70
     2
  9
$DIMALTTD
 70
     2
  9
$DIMTXSTY
  7
Standard
  9
$DIMAUNIT
 70
     0
  9
$DIMADEC
 70
     0
  9
$DIMALTRND
 40
0.0
  9
$DIMAZIN
 70
     0
  9
$DIMDSEP
 70
     0
  9
$DIMATFIT
 70
     3
  9
$DIMFRAC
 70
     0
  9
$DIMLDRBLK
  1

  9
$DIMLUNIT
 70
     2
  9
$DIMLWD
 70
     0
  9
$DIMLWE
 70
     0
  9
$DIMTMOVE
 70
     0
  9
$LUNITS
 70
     2
  9
$LUPREC
 70
     4
  9
$SKETCHINC
 40
0.1
  9
$FILLETRAD
 40
0.0
  9
$AUNITS
 70
     0
  9
$AUPREC
 70
     0
  9
$MENU
  1
acad
  9
$ELEVATION
 40
0.0
  9
$PELEVATION
 40
0.0
  9
$THICKNESS
 40
0.0
  9
$LIMCHECK
 70
     0
  9
$CHAMFERA
 40
0.0
  9
$CHAMFERB
 40
0.0
  9
$CHAMFERC
 40
0.0
  9
$CHAMFERD
 40
0.0
  9
$SKPOLY
 70
     0
  9
$TDCREATE
 40
2455561.591566875
  9
$TDUCREATE
 40
2455561.549900208
  9
$TDUPDATE
 40
2455637.660852222
  9
$TDUUPDATE
 40
2455637.619185556
  9
$TDINDWG
 40
0.0011400116
  9
$TDUSRTIMER
 40
0.0011400116
  9
$USRTIMER
 70
     1
  9
$ANGBASE
 50
0.0
  9
$ANGDIR
 70
     0
  9
$PDMODE
 70
     0
  9
$PDSIZE
 40
0.0
  9
$PLINEWID
 40
0.0
  9
$SPLFRAME
 70
     0
  9
$SPLINETYPE
 70
     6
  9
$SPLINESEGS
 70
     8
  9
$HANDSEED
  5
397
  9
$SURFTAB1
 70
     6
  9
$SURFTAB2
 70
     6
  9
$SURFTYPE
 70
     6
  9
$SURFU
 70
     6
  9
$SURFV
 70
     6
  9
$UCSBASE
  2

  9
$UCSNAME
  2

  9
$UCSORG
 10
0.0
 20
0.0
 30
0.0
  9
$UCSXDIR
 10
1.0
 20
0.0
 30
0.0
  9
$UCSYDIR
 10
0.0
 20
1.0
 30
0.0
  9
$UCSORTHOREF
  2

  9
$UCSORTHOVIEW
 70
     0
  9
$UCSORGTOP
 10
0.0
 20
0.0
 30
0.0
  9
$UCSORGBOTTOM
 10
0.0
 20
0.0
 30
0.0
  9
$UCSORGLEFT
 10
0.0
 20
0.0
 30
0.0
  9
$UCSORGRIGHT
 10
0.0
 20
0.0
 30
0.0
  9
$UCSORGFRONT
 10
0.0
 20
0.0
 30
0.0
  9
$UCSORGBACK
 10
0.0
 20
0.0
 30
0.0
  9
$PUCSBASE
  2

  9
$PUCSNAME
  2

  9
$PUCSORG
 10
0.0
 20
0.0
 30
0.0
  9
$PUCSXDIR
 10
1.0
 20
0.0
 30
0.0
  9
$PUCSYDIR
 10
0.0
 20
1.0
 30
0.0
  9
$PUCSORTHOREF
  2

  9
$PUCSORTHOVIEW
 70
     0
  9
$PUCSORGTOP
 10
0.0
 20
0.0
 30
0.0
  9
$PUCSORGBOTTOM
 10
0.0
 20
0.0
 30
0.0
  9
$PUCSORGLEFT
 10
0.0
 20
0.0
 30
0.0
  9
$PUCSORGRIGHT
 10
0.0
 20
0.0
 30
0.0
  9
$PUCSORGFRONT
 10
0.0
 20
0.0
 30
0.0
  9
$PUCSORGBACK
 10
0.0
 20
0.0
 30
0.0
  9
$USERI1
 70
     0
  9
$USERI2
 70
     0
  9
$USERI3
 70
     0
  9
$USERI4
 70
     0
  9
$USERI5
 70
     0
  9
$USERR1
 40
0.0
  9
$USERR2
 40
0.0
  9
$USERR3
 40
0.0
  9
$USERR4
 40
0.0
  9
$USERR5
 40
0.0
  9
$WORLDVIEW
 70
     1
  9
$SHADEDGE
 70
     3
  9
$SHADEDIF
 70
    70
  9
$TILEMODE
 70
     1
  9
$MAXACTVP
 70
    16
  9
$PINSBASE
 10
0.0
 20
0.0
 30
0.0
  9
$PLIMCHECK
 70
     0
  9
$PEXTMIN
 10
1.000000000000000E+20
 20
1.000000000000000E+20
 30
1.000000000000000E+20
  9
$PEXTMAX
 10
-1.000000000000000E+20
 20
-1.000000000000000E+20
 30
-1.000000000000000E+20
  9
$PLIMMIN
 10
0.0
 20
0.0
  9
$PLIMMAX
 10
12.0
 20
9.0
  9
$UNITMODE
 70
     0
  9
$VISRETAIN
 70
     0
  9
$PLINEGEN
 70
     1
  9
$PSLTSCALE
 70
     0
  9
$TREEDEPTH
 70
  3020
  9
$CMLSTYLE
  2
Standard
  9
$CMLJUST
 70
     0
  9
$CMLSCALE
 40
1.0
  9
$PROXYGRAPHICS
 70
     0
  9
$MEASUREMENT
 70
     0
  9
$CELWEIGHT
370
     0
  9
$ENDCAPS
280
     0
  9
$JOINSTYLE
280
     0
  9
$LWDISPLAY
290
     0
  9
$INSUNITS
 70
     0
  9
$HYPERLINKBASE
  1

  9
$STYLESHEET
  1

  9
$XEDIT
290
     1
  9
$CEPSNTYPE
380
     0
  9
$PSTYLEMODE
290
     1
  9
$FINGERPRINTGUID
  2

  9
$VERSIONGUID
  2
{A6D7C2E2-8F84-4791-9D13-BFC1258D3211}
  9
$EXTNAMES
290
     1
  9
$PSVPSCALE
 40
0.0
  9
$OLESTARTUP
290
     0
  0
ENDSEC
  0
SECTION
  2
CLASSES
  0
CLASS
  1
LWPOLYLINE
  2
AcDbPolyline
  3
ObjectDBX Classes
 90
        0
280
     0
281
     1
  0
CLASS
  1
IMAGE
  2
AcDbRasterImage
  3
ISM
 90
    34943
280
     0
281
     1
  0
CLASS
  1
OLE2FRAME
  2
AcDbOle2Frame
  3
ObjectDBX Classes
 90
    32768
280
     0
281
     1
  0
CLASS
  1
HATCH
  2
AcDbHatch
  3
ObjectDBX Classes
 90
        0
280
     0
281
     1
  0
CLASS
  1
DICTIONARYVAR
  2
AcDbDictionaryVar
  3
ObjectDBX Classes
 90
        0
280
     0
281
     0
  0
CLASS
  1
RASTERVARIABLES
  2
AcDbRasterVariables
  3
ISM
 90
    32768
280
     0
281
     0
  0
CLASS
  1
IMAGEDEF
  2
AcDbRasterImageDef
  3
ISM
 90
    32768
280
     0
281
     0
  0
CLASS
  1
IMAGEDEF_REACTOR
  2
AcDbRasterImageDefReactor
  3
ISM
 90
    32769
280
     0
281
     0
  0
CLASS
  1
IDBUFFER
  2
AcDbIdBuffer
  3
ObjectDBX Classes
 90
    32768
280
     0
281
     0
  0
CLASS
  1
SPATIAL_FILTER
  2
AcDbSpatialFilter
  3
ObjectDBX Classes
 90
    32768
280
     0
281
     0
  0
CLASS
  1
XRECORD
  2
AcDbXrecord
  3
ObjectDBX Classes
 90
        0
280
     0
281
     0
  0
CLASS
  1
SORTENTSTABLE
  2
AcDbSortentsTable
  3
ObjectDBX Classes
 90
    32768
280
     0
281
     0
  0
CLASS
  1
LAYER_INDEX
  2
AcDbLayerIndex
  3
ObjectDBX Classes
 90
    32768
280
     0
281
     0
  0
CLASS
  1
SPATIAL_INDEX
  2
AcDbSpatialIndex
  3
ObjectDBX Classes
 90
    32768
280
     0
281
     0
  0
CLASS
  1
OBJECT_PTR
  2
CAseDLPNTableRecord
  3
ASE-LPNTableRecord
 90
    32769
280
     0
281
     0
  0
CLASS
  1
LAYOUT
  2
AcDbLayout
  3
ObjectDBX Classes
 90
        0
280
     0
281
     0
  0
CLASS
  1
PLOTSETTINGS
  2
AcDbPlotSettings
  3
ObjectDBX Classes
 90
        0
280
     0
281
     0
  0
CLASS
  1
ACDBDICTIONARYWDFLT
  2
AcDbDictionaryWithDefault
  3
ObjectDBX Classes
 90
        0
280
     0
281
     0
  0
CLASS
  1
ACDBPLACEHOLDER
  2
AcDbPlaceHolder
  3
ObjectDBX Classes
 90
        0
280
     0
281
     0
  0
CLASS
  1
VBA_PROJECT
  2
AcDbVbaProject
  3
acad
 90
    32768
280
     0
281
     0
  0
CLASS
  1
WIPEOUT
  2
AcDbWipeout
  3
"WipeOut|Product Desc: Object Enabler for WipeOut entity                        |Company: Autodesk, Inc.                        |WEB Address: www.autodesk.com"
 90
    34943
280
     0
281
     1
  0
CLASS
  1
WIPEOUTVARIABLES
  2
AcDbWipeoutVariables
  3
"WipeOut|Product Desc:     WipeOut Dbx Application|Company:          Autodesk, Inc.|WEB Address:      www.autodesk.com"
 90
        0
280
     0
281
     0
  0
CLASS
  1
RTEXT
  2
RText
  3
RText|AutoCAD Express Tool|expresstools@autodesk.com
 90
    35839
280
     0
281
     1
  0
CLASS
  1
ARCALIGNEDTEXT
  2
AcDbArcAlignedText
  3
ATEXT|AutoCAD Express Tool|expresstools@autodesk.com
 90
    32768
280
     0
281
     1
  0
CLASS
  1
MATERIAL
  2
AcDbMaterial
  3
ObjectDBX Classes
 90
     1153
280
     0
281
     0
  0
CLASS
  1
VISUALSTYLE
  2
AcDbVisualStyle
  3
ObjectDBX Classes
 90
     4095
280
     0
281
     0
  0
CLASS
  1
SCALE
  2
AcDbScale
  3
ObjectDBX Classes
 90
     1153
280
     0
281
     0
  0
CLASS
  1
TABLESTYLE
  2
AcDbTableStyle
  3
ObjectDBX Classes
 90
     4095
280
     0
281
     0
  0
CLASS
  1
MLEADERSTYLE
  2
AcDbMLeaderStyle
  3
ACDB_MLEADERSTYLE_CLASS
 90
     4095
280
     0
281
     0
  0
CLASS
  1
ACDBQSCATEGORY
  2
AcQsCategory
  3
categories
 90
     1024
280
     0
281
     0
  0
CLASS
  1
CELLSTYLEMAP
  2
AcDbCellStyleMap
  3
ObjectDBX Classes
 90
     1152
280
     0
281
     0
  0
ENDSEC
  0
SECTION
  2
TABLES
  0
TABLE
  2
VPORT
  5
7
102
{ACAD_XDICTIONARY
360
29B
102
}
330
0
100
AcDbSymbolTable
 70
     1
  0
VPORT
  5
15
330
7
100
AcDbSymbolTableRecord
100
AcDbViewportTableRecord
  2
*ACTIVE
 70
     0
 10
0.0
 20
0.0
 11
1.0
 21
1.0
 12
215.7405341416158
 22
155.0126995991064
 13
0.0
 23
0.0
 14
1.0
 24
1.0
 15
0.0
 25
0.0
 16
0.0
 26
0.0
 36
1.0
 17
0.0
 27
0.0
 37
0.0
 40
310.0253991982128
 41
2.251225490196078
 42
50.0
 43
0.0
 44
0.0
 50
0.0
 51
0.0
 71
     0
 72
   100
 73
     1
 74
     1
 75
     0
 76
     0
 77
     0
 78
     0
281
     0
 65
     0
110
0.0
120
0.0
130
0.0
111
1.0
121
0.0
131
0.0
112
0.0
122
1.0
132
0.0
 79
     0
146
0.0
  0
ENDTAB
  0
TABLE
  2
LTYPE
  5
4
330
0
100
AcDbSymbolTable
 70
     9
  0
LTYPE
  5
11
330
4
100
AcDbSymbolTableRecord
100
AcDbLinetypeTableRecord
  2
ByBlock
 70
     0
  3

 72
    65
 73
     0
 40
0.0
  0
LTYPE
  5
12
330
4
100
AcDbSymbolTableRecord
100
AcDbLinetypeTableRecord
  2
ByLayer
 70
     0
  3

 72
    65
 73
     0
 40
0.0
  0
LTYPE
  5
13
330
4
100
AcDbSymbolTableRecord
100
AcDbLinetypeTableRecord
  2
CONTINUOUS
 70
     0
  3
Solid line
 72
    65
 73
     0
 40
0.0
  0
LTYPE
  5
28
330
4
100
AcDbSymbolTableRecord
100
AcDbLinetypeTableRecord
  2
HIDDEN2
 70
     0
  3
_ _ _ _ _ _ _ _ _ _ _ _ _ _ _ _ _ _ _ _ _ _ _ _
 72
    65
 73
     2
 40
0.1875
 49
0.125
 74
     0
 49
-0.0625
 74
     0
  0
LTYPE
  5
29
330
4
100
AcDbSymbolTableRecord
100
AcDbLinetypeTableRecord
  2
CENTER2
 70
     0
  3
___ _ ___ _ ___ _ ___ _ ___ _ ___ _ ___ _ ___ _
 72
    65
 73
     4
 40
1.125
 49
0.75
 74
     0
 49
-0.125
 74
     0
 49
0.125
 74
     0
 49
-0.125
 74
     0
  0
LTYPE
  5
2A
330
4
100
AcDbSymbolTableRecord
100
AcDbLinetypeTableRecord
  2
PHANTOM2
 70
     0
  3
___ _ _ ___ _ _ ___ _ _ ___ _ _ ___ _ _ ___ _ _
 72
    65
 73
     6
 40
1.25
 49
0.625
 74
     0
 49
-0.125
 74
     0
 49
0.125
 74
     0
 49
-0.125
 74
     0
 49
0.125
 74
     0
 49
-0.125
 74
     0
  0
LTYPE
  5
2B
330
4
100
AcDbSymbolTableRecord
100
AcDbLinetypeTableRecord
  2
DOT2
 70
     0
  3
...............................................
 72
    65
 73
     2
 40
0.125
 49
0.0
 74
     0
 49
-0.125
 74
     0
  0
LTYPE
  5
24D
330
4
100
AcDbSymbolTableRecord
100
AcDbLinetypeTableRecord
  2
ASSI
 70
     0
  3
-.-.-.-.-.-.-.-.-.-.-.-.-.-.-.-.-.-.-.-.-.-.-.-
 72
    65
 73
     4
 40
16.0
 49
10.0
 74
     0
 49
-2.0
 74
     0
 49
2.0
 74
     0
 49
-2.0
 74
     0
  0
LTYPE
  5
24E
330
4
100
AcDbSymbolTableRecord
100
AcDbLinetypeTableRecord
  2
INGOMBRI
 70
     0
  3
--..--..--..--..--..--..--..--..--..--..--..--
 72
    65
 73
     6
 40
20.0
 49
10.0
 74
     0
 49
-2.0
 74
     0
 49
2.0
 74
     0
 49
-2.0
 74
     0
 49
2.0
 74
     0
 49
-2.0
 74
     0
  0
LTYPE
  5
24F
330
4
100
AcDbSymbolTableRecord
100
AcDbLinetypeTableRecord
  2
TRATTEGGIO
 70
     0
  3
- - - - - - - - - - - - - - - - - - - - - -
 72
    65
 73
     2
 40
5.5
 49
4.0
 74
     0
 49
-1.5
 74
     0
  0
LTYPE
  5
250
330
4
100
AcDbSymbolTableRecord
100
AcDbLinetypeTableRecord
  2
PUNTO
 70
     0
  3
Punto . . . . . . . . . . . . . . . . . . . . .
 72
    65
 73
     2
 40
6.349999999999999
 49
0.0
 74
     0
 49
-6.349999999999999
 74
     0
  0
ENDTAB
  0
TABLE
  2
LAYER
  5
2
330
0
100
AcDbSymbolTable
 70
    18
  0
LAYER
  5
14
102
{ACAD_XDICTIONARY
360
26C
102
}
330
2
100
AcDbSymbolTableRecord
100
AcDbLayerTableRecord
  2
0
 70
     0
 62
     7
  6
CONTINUOUS
370
    -3
390
1D
  0
LAYER
  5
2D
102
{ACAD_XDICTIONARY
360
26E
102
}
330
2
100
AcDbSymbolTableRecord
100
AcDbLayerTableRecord
  2
1
 70
     0
 62
     7
  6
CONTINUOUS
370
    -3
390
1D
  0
LAYER
  5
2F
102
{ACAD_XDICTIONARY
360
270
102
}
330
2
100
AcDbSymbolTableRecord
100
AcDbLayerTableRecord
  2
11
 70
     0
 62
     7
  6
CONTINUOUS
370
    -3
390
1D
  0
LAYER
  5
31
102
{ACAD_XDICTIONARY
360
272
102
}
330
2
100
AcDbSymbolTableRecord
100
AcDbLayerTableRecord
  2
7
 70
     0
 62
     7
  6
CONTINUOUS
370
    -3
390
1D
  0
LAYER
  5
33
102
{ACAD_XDICTIONARY
360
274
102
}
330
2
100
AcDbSymbolTableRecord
100
AcDbLayerTableRecord
  2
AM_0
 70
     0
 62
     7
  6
CONTINUOUS
370
    -3
390
1D
  0
LAYER
  5
35
102
{ACAD_XDICTIONARY
360
276
102
}
330
2
100
AcDbSymbolTableRecord
100
AcDbLayerTableRecord
  2
AM_1
 70
     0
 62
     7
  6
CONTINUOUS
370
    -3
390
1D
  0
LAYER
  5
37
102
{ACAD_XDICTIONARY
360
278
102
}
330
2
100
AcDbSymbolTableRecord
100
AcDbLayerTableRecord
  2
AM_5
 70
     0
 62
     7
  6
CONTINUOUS
370
    -3
390
1D
  0
LAYER
  5
39
102
{ACAD_XDICTIONARY
360
27A
102
}
330
2
100
AcDbSymbolTableRecord
100
AcDbLayerTableRecord
  2
AM_6
 70
     0
 62
     7
  6
CONTINUOUS
370
    -3
390
1D
  0
LAYER
  5
3B
102
{ACAD_XDICTIONARY
360
27C
102
}
330
2
100
AcDbSymbolTableRecord
100
AcDbLayerTableRecord
  2
AM_7
 70
     0
 62
     7
  6
CONTINUOUS
370
    -3
390
1D
  0
LAYER
  5
3D
102
{ACAD_XDICTIONARY
360
27E
102
}
330
2
100
AcDbSymbolTableRecord
100
AcDbLayerTableRecord
  2
AM_8
 70
     0
 62
     7
  6
CONTINUOUS
370
    -3
390
1D
  0
LAYER
  5
3F
102
{ACAD_XDICTIONARY
360
280
102
}
330
2
100
AcDbSymbolTableRecord
100
AcDbLayerTableRecord
  2
AM_BOR
 70
     0
 62
     7
  6
CONTINUOUS
370
    -3
390
1D
  0
LAYER
  5
41
102
{ACAD_XDICTIONARY
360
282
102
}
330
2
100
AcDbSymbolTableRecord
100
AcDbLayerTableRecord
  2
DEFAULT
 70
     0
 62
     7
  6
CONTINUOUS
370
    -3
390
1D
  0
LAYER
  5
43
330
2
100
AcDbSymbolTableRecord
100
AcDbLayerTableRecord
  2
DEFPOINTS
 70
     0
 62
     7
  6
CONTINUOUS
290
     0
370
    -3
390
1D
  0
LAYER
  5
45
102
{ACAD_XDICTIONARY
360
284
102
}
330
2
100
AcDbSymbolTableRecord
100
AcDbLayerTableRecord
  2
PREDEFINITO
 70
     0
 62
     7
  6
CONTINUOUS
370
    -3
390
1D
  0
LAYER
  5
47
102
{ACAD_XDICTIONARY
360
286
102
}
330
2
100
AcDbSymbolTableRecord
100
AcDbLayerTableRecord
  2
PROFILATI-IN-ALLUMINIO
 70
     0
 62
     7
  6
CONTINUOUS
370
    -3
390
1D
  0
LAYER
  5
49
102
{ACAD_XDICTIONARY
360
288
102
}
330
2
100
AcDbSymbolTableRecord
100
AcDbLayerTableRecord
  2
TESTI
 70
     0
 62
     7
  6
CONTINUOUS
370
    -3
390
1D
  0
LAYER
  5
4B
102
{ACAD_XDICTIONARY
360
28A
102
}
330
2
100
AcDbSymbolTableRecord
100
AcDbLayerTableRecord
  2
VARI
 70
     0
 62
     7
  6
CONTINUOUS
370
    -3
390
1D
  0
LAYER
  5
245
102
{ACAD_XDICTIONARY
360
28C
102
}
330
2
100
AcDbSymbolTableRecord
100
AcDbLayerTableRecord
  2
P-0000
 70
     0
 62
     7
  6
CONTINUOUS
370
    -3
390
1D
1001
AcAecLayerStandard
1000

1000
TOP
  0
ENDTAB
  0
TABLE
  2
STYLE
  5
3
330
0
100
AcDbSymbolTable
 70
     8
  0
STYLE
  5
17
330
3
100
AcDbSymbolTableRecord
100
AcDbTextStyleTableRecord
  2
Standard
 70
     0
 40
0.0
 41
1.0
 50
0.0
 71
     0
 42
0.2
  3
txt
  4

  0
STYLE
  5
5E
330
3
100
AcDbSymbolTableRecord
100
AcDbTextStyleTableRecord
  2
seansi_ttf
 70
     0
 40
0.0
 41
1.0
 50
0.0
 71
     0
 42
0.2
  3
STENCIL.TTF
  4

1001
ACAD
1000
Stencil
1071
        2
  0
STYLE
  5
60
330
3
100
AcDbSymbolTableRecord
100
AcDbTextStyleTableRecord
  2
arial_ttf
 70
     0
 40
0.0
 41
1.0
 50
0.0
 71
     0
 42
0.2
  3
arial.ttf
  4

1001
ACAD
1000
Arial
1071
        2
  0
STYLE
  5
EA
330
3
100
AcDbSymbolTableRecord
100
AcDbTextStyleTableRecord
  2
seiso_ttfB
 70
     0
 40
0.0
 41
1.0
 50
0.0
 71
     0
 42
0.2
  3

  4

1001
ACAD
1000
Solid Edge ISO
1071
 33554434
  0
STYLE
  5
251
330
3
100
AcDbSymbolTableRecord
100
AcDbTextStyleTableRecord
  2
ROMANS
 70
     0
 40
0.0
 41
0.8
 50
0.0
 71
     0
 42
3.0
  3
ROMANS.shx
  4

  0
STYLE
  5
252
330
3
100
AcDbSymbolTableRecord
100
AcDbTextStyleTableRecord
  2

 70
     1
 40
0.0
 41
1.0
 50
0.0
 71
     0
 42
0.2
  3
ltypeshp.shx
  4

  0
STYLE
  5
253
330
3
100
AcDbSymbolTableRecord
100
AcDbTextStyleTableRecord
  2
Stile_Quota
 70
     0
 40
0.0
 41
1.0
 50
0.0
 71
     0
 42
3.0
  3
BOD_I.TTF
  4

1001
ACAD
1000
Bodoni MT
1071
 16777234
  0
STYLE
  5
254
330
3
100
AcDbSymbolTableRecord
100
AcDbTextStyleTableRecord
  2
Stile_Quota_FISSO
 70
     0
 40
20.0
 41
1.0
 50
0.0
 71
     0
 42
3.0
  3
BOD_I.TTF
  4

1001
ACAD
1000
Bodoni MT
1071
 16777234
  0
ENDTAB
  0
TABLE
  2
VIEW
  5
5
330
0
100
AcDbSymbolTable
 70
     0
  0
ENDTAB
  0
TABLE
  2
UCS
  5
6
330
0
100
AcDbSymbolTable
 70
     0
  0
ENDTAB
  0
TABLE
  2
APPID
  5
8
330
0
100
AcDbSymbolTable
 70
    11
  0
APPID
  5
16
330
8
100
AcDbSymbolTableRecord
100
AcDbRegAppTableRecord
  2
ACAD
 70
     0
  0
APPID
  5
246
330
8
100
AcDbSymbolTableRecord
100
AcDbRegAppTableRecord
  2
AcAecLayerStandard
 70
     0
  0
APPID
  5
24C
330
8
100
AcDbSymbolTableRecord
100
AcDbRegAppTableRecord
  2
TOP
 70
     0
  0
APPID
  5
258
330
8
100
AcDbSymbolTableRecord
100
AcDbRegAppTableRecord
  2
ACAD_MLEADERVER
 70
     0
  0
APPID
  5
259
330
8
100
AcDbSymbolTableRecord
100
AcDbRegAppTableRecord
  2
ACAD_DSTYLE_DIMJAG
 70
     0
  0
APPID
  5
25A
330
8
100
AcDbSymbolTableRecord
100
AcDbRegAppTableRecord
  2
ACAD_DSTYLE_DIMTALN
 70
     0
  0
APPID
  5
25B
330
8
100
AcDbSymbolTableRecord
100
AcDbRegAppTableRecord
  2
AcadAnnoPO
 70
     0
  0
APPID
  5
25C
330
8
100
AcDbSymbolTableRecord
100
AcDbRegAppTableRecord
  2
ACAD_EXEMPT_FROM_CAD_STANDARDS
 70
     0
  0
APPID
  5
25D
330
8
100
AcDbSymbolTableRecord
100
AcDbRegAppTableRecord
  2
ACAD_PSEXT
 70
     0
  0
APPID
  5
25E
330
8
100
AcDbSymbolTableRecord
100
AcDbRegAppTableRecord
  2
ACAD_DSTYLE_DIMBREAK
 70
     0
  0
APPID
  5
293
330
8
100
AcDbSymbolTableRecord
100
AcDbRegAppTableRecord
  2
DCO15
 70
     0
  0
ENDTAB
  0
TABLE
  2
DIMSTYLE
  5
9
330
0
100
AcDbSymbolTable
 70
     4
100
AcDbDimStyleTable
 71
     0
  0
DIMSTYLE
105
18
330
9
100
AcDbSymbolTableRecord
100
AcDbDimStyleTableRecord
  2
Standard
 70
     0
289
     0
340
17
  0
DIMSTYLE
105
255
330
9
100
AcDbSymbolTableRecord
100
AcDbDimStyleTableRecord
  2
ACADTOP
 70
     0
 41
2.0
 42
1.0
 43
10.0
 44
1.5
 73
     0
 74
     0
 77
     1
 78
     8
 79
     2
140
2.0
141
2.0
146
0.6
147
1.0
172
     1
176
     2
177
     2
178
     1
179
     1
271
     2
272
     2
284
     8
289
     0
340
253
1001
ACAD_DSTYLE_DIMJAG
1070
   388
1040
1.5
1001
ACAD_DSTYLE_DIMTALN
1070
   392
1070
     0
  0
DIMSTYLE
105
256
330
9
100
AcDbSymbolTableRecord
100
AcDbDimStyleTableRecord
  2
DIERRE_LUNG-ALT
 70
     0
 41
3.0
 42
1.0
 43
10.0
 44
1.5
 73
     0
 74
     0
 75
     1
 76
     1
 78
     8
 79
     2
140
20.0
141
2.0
146
0.6
147
1.0
172
     1
176
     3
177
     3
178
    30
179
     1
271
     1
272
     1
281
     1
282
     1
284
     8
340
254
1001
ACAD_DSTYLE_DIMBREAK
1070
   391
1040
3.75
1001
ACAD_DSTYLE_DIMJAG
1070
   388
1040
1.5
1001
ACAD_DSTYLE_DIMTALN
1070
   392
1070
     0
  0
DIMSTYLE
105
257
330
9
100
AcDbSymbolTableRecord
100
AcDbDimStyleTableRecord
  2
DIERRE_LARG
 70
     0
 41
3.0
 42
1.0
 43
10.0
 44
1.5
 73
     0
 74
     0
 75
     1
 76
     1
 78
     8
 79
     2
140
20.0
141
2.0
146
0.6
147
1.0
172
     1
176
     4
177
     4
178
     4
179
     1
271
     1
272
     1
281
     1
282
     1
284
     8
340
254
1001
ACAD_DSTYLE_DIMBREAK
1070
   391
1040
3.75
1001
ACAD_DSTYLE_DIMJAG
1070
   388
1040
1.5
1001
ACAD_DSTYLE_DIMTALN
1070
   392
1070
     0
  0
ENDTAB
  0
TABLE
  2
BLOCK_RECORD
  5
1
330
0
100
AcDbSymbolTable
 70
    13
  0
BLOCK_RECORD
  5
A
330
1
100
AcDbSymbolTableRecord
100
AcDbBlockTableRecord
  2
*MODEL_SPACE
340
20
  0
BLOCK_RECORD
  5
B
330
1
100
AcDbSymbolTableRecord
100
AcDbBlockTableRecord
  2
*PAPER_SPACE
340
21
  0
BLOCK_RECORD
  5
EC
330
1
100
AcDbSymbolTableRecord
100
AcDbBlockTableRecord
  2
SE0
340
0
  0
BLOCK_RECORD
  5
EE
330
1
100
AcDbSymbolTableRecord
100
AcDbBlockTableRecord
  2
SE1
340
0
  0
BLOCK_RECORD
  5
F0
330
1
100
AcDbSymbolTableRecord
100
AcDbBlockTableRecord
  2
SE2
340
0
  0
BLOCK_RECORD
  5
F2
330
1
100
AcDbSymbolTableRecord
100
AcDbBlockTableRecord
  2
SE3
340
0
  0
BLOCK_RECORD
  5
F4
330
1
100
AcDbSymbolTableRecord
100
AcDbBlockTableRecord
  2
SE4
340
0
  0
BLOCK_RECORD
  5
F6
330
1
100
AcDbSymbolTableRecord
100
AcDbBlockTableRecord
  2
SE5
340
0
  0
BLOCK_RECORD
  5
F8
330
1
100
AcDbSymbolTableRecord
100
AcDbBlockTableRecord
  2
SE6
340
0
  0
BLOCK_RECORD
  5
FA
330
1
100
AcDbSymbolTableRecord
100
AcDbBlockTableRecord
  2
SE7
340
0
  0
BLOCK_RECORD
  5
FC
330
1
100
AcDbSymbolTableRecord
100
AcDbBlockTableRecord
  2
SE8
340
0
  0
BLOCK_RECORD
  5
FE
330
1
100
AcDbSymbolTableRecord
100
AcDbBlockTableRecord
  2
SE9
340
0
  0
BLOCK_RECORD
  5
100
330
1
100
AcDbSymbolTableRecord
100
AcDbBlockTableRecord
  2
SE10
340
0
  0
BLOCK_RECORD
  5
102
330
1
100
AcDbSymbolTableRecord
100
AcDbBlockTableRecord
  2
SE11
340
0
  0
BLOCK_RECORD
  5
104
330
1
100
AcDbSymbolTableRecord
100
AcDbBlockTableRecord
  2
SE12
340
0
  0
ENDTAB
  0
ENDSEC
  0
SECTION
  2
BLOCKS
  0
BLOCK
  5
D
330
A
100
AcDbEntity
  8
0
100
AcDbBlockBegin
  2
*MODEL_SPACE
 70
     0
 10
0.0
 20
0.0
 30
0.0
  3
*MODEL_SPACE
  1

  0
ENDBLK
  5
E
330
A
100
AcDbEntity
  8
0
100
AcDbBlockEnd
  0
BLOCK
  5
F
330
B
100
AcDbEntity
 67
     1
  8
0
100
AcDbBlockBegin
  2
*PAPER_SPACE
 70
     0
 10
0.0
 20
0.0
 30
0.0
  3
*PAPER_SPACE
  1

  0
ENDBLK
  5
10
330
B
100
AcDbEntity
 67
     1
  8
0
100
AcDbBlockEnd
  0
BLOCK
  5
109
330
EC
100
AcDbEntity
  8
0
 62
     1
 48
0.0
370
     0
100
AcDbBlockBegin
  2
SE0
 70
     0
 10
0.0
 20
0.0
 30
0.0
  3
SE0
  1

  0
LINE
  5
10A
330
EC
100
AcDbEntity
  8
AM_5
  6
Continuous
 62
     7
370
     0
100
AcDbLine
 10
150.5004491254487
 20
38.07558946241131
 30
0.0
 11
150.5004491254487
 21
21.46738875943269
 31
0.0
  0
LINE
  5
10B
330
EC
100
AcDbEntity
  8
AM_5
  6
Continuous
 62
     7
370
     0
100
AcDbLine
 10
130.5004616054469
 20
23.30738835095268
 30
0.0
 11
130.5004616054469
 21
23.46738831543269
 31
0.0
  0
LINE
  5
10C
330
EC
100
AcDbEntity
  8
AM_5
  6
Continuous
 62
     7
370
     0
100
AcDbLine
 10
147.0004499024487
 20
22.46738853743269
 30
0.0
 11
134.0004608284469
 21
22.46738853743269
 31
0.0
  0
LINE
  5
10D
330
EC
100
AcDbEntity
  8
AM_0
  6
Continuous
 62
     7
370
     0
100
AcDbLine
 10
147.0004499024487
 20
21.59238873168268
 30
0.0
 11
150.5004491254487
 21
22.46738853743269
 31
0.0
  0
LINE
  5
10E
330
EC
100
AcDbEntity
  8
AM_0
  6
Continuous
 62
     7
370
     0
100
AcDbLine
 10
150.5004491254487
 20
22.46738853743269
 30
0.0
 11
147.0004499024487
 21
23.34238834318269
 31
0.0
  0
LINE
  5
10F
330
EC
100
AcDbEntity
  8
AM_0
  6
Continuous
 62
     7
370
     0
100
AcDbLine
 10
147.0004499024487
 20
21.59238873168268
 30
0.0
 11
147.0004499024487
 21
23.34238834318268
 31
0.0
  0
LINE
  5
110
330
EC
100
AcDbEntity
  8
AM_0
  6
Continuous
 62
     7
370
     0
100
AcDbLine
 10
134.0004608284469
 20
23.34238834318268
 30
0.0
 11
130.5004616054469
 21
22.46738853743269
 31
0.0
  0
LINE
  5
111
330
EC
100
AcDbEntity
  8
AM_0
  6
Continuous
 62
     7
370
     0
100
AcDbLine
 10
130.5004616054469
 20
22.46738853743269
 30
0.0
 11
134.0004608284469
 21
21.59238873168268
 31
0.0
  0
LINE
  5
112
330
EC
100
AcDbEntity
  8
AM_0
  6
Continuous
 62
     7
370
     0
100
AcDbLine
 10
134.0004608284469
 20
23.34238834318268
 30
0.0
 11
134.0004608284469
 21
21.59238873168269
 31
0.0
  0
TEXT
  5
113
330
EC
100
AcDbEntity
  8
AM_5
  6
Continuous
 62
     7
370
     0
100
AcDbText
 10
138.5439343375155
 20
23.2981684515403
 30
0.0
 40
2.499999445
  1
20
  7
arial_ttf
 11
138.5439343375155
 21
25.7981678965403
 31
0.0
100
AcDbText
 73
     3
  0
POINT
  5
114
330
EC
100
AcDbEntity
  8
DEFPOINTS
  6
Continuous
 62
     7
370
     0
100
AcDbPoint
 10
150.5004491254487
 20
39.57558912941131
 30
0.0
  0
POINT
  5
115
330
EC
100
AcDbEntity
  8
DEFPOINTS
  6
Continuous
 62
     7
370
     0
100
AcDbPoint
 10
130.5004616054469
 20
21.80738868395268
 30
0.0
  0
POINT
  5
116
330
EC
100
AcDbEntity
  8
DEFPOINTS
  6
Continuous
 62
     7
370
     0
100
AcDbPoint
 10
130.5004616054469
 20
22.46738853743269
 30
0.0
  0
ENDBLK
  5
228
330
EC
100
AcDbEntity
  8
0
370
     0
100
AcDbBlockEnd
  0
BLOCK
  5
118
330
EE
100
AcDbEntity
  8
0
 62
     1
 48
0.0
370
     0
100
AcDbBlockBegin
  2
SE1
 70
     0
 10
0.0
 20
0.0
 30
0.0
  3
SE1
  1

  0
LINE
  5
119
330
EE
100
AcDbEntity
  8
AM_5
  6
Continuous
 62
     7
370
     0
100
AcDbLine
 10
130.5004616054469
 20
22.46940238698561
 30
0.0
 11
130.5004616054469
 21
21.46738875943269
 31
0.0
  0
LINE
  5
11A
330
EE
100
AcDbEntity
  8
AM_5
  6
Continuous
 62
     7
370
     0
100
AcDbLine
 10
90.50047048544696
 20
23.30738835095268
 30
0.0
 11
90.50047048544696
 21
23.46738831543269
 31
0.0
  0
LINE
  5
11B
330
EE
100
AcDbEntity
  8
AM_5
  6
Continuous
 62
     7
370
     0
100
AcDbLine
 10
127.0004623824469
 20
22.46738853743269
 30
0.0
 11
94.00046970844694
 21
22.46738853743269
 31
0.0
  0
LINE
  5
11C
330
EE
100
AcDbEntity
  8
AM_0
  6
Continuous
 62
     7
370
     0
100
AcDbLine
 10
127.0004623824469
 20
21.59238873168268
 30
0.0
 11
130.5004616054469
 21
22.46738853743269
 31
0.0
  0
LINE
  5
11D
330
EE
100
AcDbEntity
  8
AM_0
  6
Continuous
 62
     7
370
     0
100
AcDbLine
 10
130.5004616054469
 20
22.46738853743269
 30
0.0
 11
127.0004623824469
 21
23.34238834318269
 31
0.0
  0
LINE
  5
11E
330
EE
100
AcDbEntity
  8
AM_0
  6
Continuous
 62
     7
370
     0
100
AcDbLine
 10
127.0004623824469
 20
21.59238873168268
 30
0.0
 11
127.0004623824469
 21
23.34238834318268
 31
0.0
  0
LINE
  5
11F
330
EE
100
AcDbEntity
  8
AM_0
  6
Continuous
 62
     7
370
     0
100
AcDbLine
 10
94.00046970844694
 20
23.34238834318268
 30
0.0
 11
90.50047048544694
 21
22.46738853743269
 31
0.0
  0
LINE
  5
120
330
EE
100
AcDbEntity
  8
AM_0
  6
Continuous
 62
     7
370
     0
100
AcDbLine
 10
90.50047048544696
 20
22.46738853743269
 30
0.0
 11
94.00046970844696
 21
21.59238873168268
 31
0.0
  0
LINE
  5
121
330
EE
100
AcDbEntity
  8
AM_0
  6
Continuous
 62
     7
370
     0
100
AcDbLine
 10
94.00046970844694
 20
23.34238834318268
 30
0.0
 11
94.00046970844694
 21
21.59238873168269
 31
0.0
  0
TEXT
  5
122
330
EE
100
AcDbEntity
  8
AM_5
  6
Continuous
 62
     7
370
     0
100
AcDbText
 10
108.5439450175146
 20
23.2981684515403
 30
0.0
 40
2.499999445
  1
40
  7
arial_ttf
 11
108.5439450175146
 21
25.7981678965403
 31
0.0
100
AcDbText
 73
     3
  0
POINT
  5
123
330
EE
100
AcDbEntity
  8
DEFPOINTS
  6
Continuous
 62
     7
370
     0
100
AcDbPoint
 10
130.5004616054469
 20
23.96940205398561
 30
0.0
  0
POINT
  5
124
330
EE
100
AcDbEntity
  8
DEFPOINTS
  6
Continuous
 62
     7
370
     0
100
AcDbPoint
 10
90.50047048544696
 20
21.80738868395268
 30
0.0
  0
POINT
  5
125
330
EE
100
AcDbEntity
  8
DEFPOINTS
  6
Continuous
 62
     7
370
     0
100
AcDbPoint
 10
90.50047048544696
 20
22.46738853743269
 30
0.0
  0
ENDBLK
  5
229
330
EE
100
AcDbEntity
  8
0
370
     0
100
AcDbBlockEnd
  0
BLOCK
  5
127
330
F0
100
AcDbEntity
  8
0
 62
     1
 48
0.0
370
     0
100
AcDbBlockBegin
  2
SE2
 70
     0
 10
0.0
 20
0.0
 30
0.0
  3
SE2
  1

  0
LINE
  5
128
330
F0
100
AcDbEntity
  8
AM_5
  6
Continuous
 62
     7
370
     0
100
AcDbLine
 10
70.50047397544716
 20
30.64294843245799
 30
0.0
 11
70.50047397544716
 21
21.46738875943269
 31
0.0
  0
LINE
  5
129
330
F0
100
AcDbEntity
  8
AM_5
  6
Continuous
 62
     7
370
     0
100
AcDbLine
 10
90.50047048544696
 20
26.45915481126038
 30
0.0
 11
90.50047048544696
 21
21.46738875943269
 31
0.0
  0
LINE
  5
12A
330
F0
100
AcDbEntity
  8
AM_5
  6
Continuous
 62
     7
370
     0
100
AcDbLine
 10
74.00047319844715
 20
22.46738853743269
 30
0.0
 11
87.00047126244696
 21
22.46738853743269
 31
0.0
  0
LINE
  5
12B
330
F0
100
AcDbEntity
  8
AM_0
  6
Continuous
 62
     7
370
     0
100
AcDbLine
 10
74.00047319844715
 20
23.34238834318268
 30
0.0
 11
70.50047397544715
 21
22.46738853743269
 31
0.0
  0
LINE
  5
12C
330
F0
100
AcDbEntity
  8
AM_0
  6
Continuous
 62
     7
370
     0
100
AcDbLine
 10
70.50047397544716
 20
22.46738853743269
 30
0.0
 11
74.00047319844716
 21
21.59238873168268
 31
0.0
  0
LINE
  5
12D
330
F0
100
AcDbEntity
  8
AM_0
  6
Continuous
 62
     7
370
     0
100
AcDbLine
 10
74.00047319844715
 20
23.34238834318268
 30
0.0
 11
74.00047319844715
 21
21.59238873168269
 31
0.0
  0
LINE
  5
12E
330
F0
100
AcDbEntity
  8
AM_0
  6
Continuous
 62
     7
370
     0
100
AcDbLine
 10
87.00047126244696
 20
21.59238873168268
 30
0.0
 11
90.50047048544696
 21
22.46738853743269
 31
0.0
  0
LINE
  5
12F
330
F0
100
AcDbEntity
  8
AM_0
  6
Continuous
 62
     7
370
     0
100
AcDbLine
 10
90.50047048544696
 20
22.46738853743269
 30
0.0
 11
87.00047126244696
 21
23.34238834318269
 31
0.0
  0
LINE
  5
130
330
F0
100
AcDbEntity
  8
AM_0
  6
Continuous
 62
     7
370
     0
100
AcDbLine
 10
87.00047126244696
 20
21.59238873168268
 30
0.0
 11
87.00047126244696
 21
23.34238834318268
 31
0.0
  0
TEXT
  5
131
330
F0
100
AcDbEntity
  8
AM_5
  6
Continuous
 62
     7
370
     0
100
AcDbText
 10
78.54395120751476
 20
23.2981684515403
 30
0.0
 40
2.499999445
  1
20
  7
arial_ttf
 11
78.54395120751476
 21
25.7981678965403
 31
0.0
100
AcDbText
 73
     3
  0
POINT
  5
132
330
F0
100
AcDbEntity
  8
DEFPOINTS
  6
Continuous
 62
     7
370
     0
100
AcDbPoint
 10
70.50047397544716
 20
32.14294809945799
 30
0.0
  0
POINT
  5
133
330
F0
100
AcDbEntity
  8
DEFPOINTS
  6
Continuous
 62
     7
370
     0
100
AcDbPoint
 10
90.50047048544696
 20
27.95915447826038
 30
0.0
  0
POINT
  5
134
330
F0
100
AcDbEntity
  8
DEFPOINTS
  6
Continuous
 62
     7
370
     0
100
AcDbPoint
 10
90.50047048544696
 20
22.46738853743269
 30
0.0
  0
ENDBLK
  5
22A
330
F0
100
AcDbEntity
  8
0
370
     0
100
AcDbBlockEnd
  0
BLOCK
  5
136
330
F2
100
AcDbEntity
  8
0
 62
     1
 48
0.0
370
     0
100
AcDbBlockBegin
  2
SE3
 70
     0
 10
0.0
 20
0.0
 30
0.0
  3
SE3
  1

  0
LINE
  5
137
330
F2
100
AcDbEntity
  8
AM_5
  6
Continuous
 62
     7
370
     0
100
AcDbLine
 10
146.9335968072901
 20
148.7837618051916
 30
0.0
 11
146.9335968072901
 21
139.2625668388973
 31
0.0
  0
LINE
  5
138
330
F2
100
AcDbEntity
  8
AM_5
  6
Continuous
 62
     7
370
     0
100
AcDbLine
 10
150.5004562154472
 20
150.7051328386471
 30
0.0
 11
150.5004562154472
 21
139.2625668388973
 31
0.0
  0
LINE
  5
139
330
F2
100
AcDbEntity
  8
AM_5
  6
Continuous
 62
     7
370
     0
100
AcDbLine
 10
154.0004554384471
 20
140.2625666168973
 30
0.0
 11
157.5004546614471
 21
140.2625666168973
 31
0.0
  0
LINE
  5
13A
330
F2
100
AcDbEntity
  8
AM_5
  6
Continuous
 62
     7
370
     0
100
AcDbLine
 10
143.4335975842901
 20
140.2625666168973
 30
0.0
 11
131.5749228142971
 21
140.2625666168973
 31
0.0
  0
LINE
  5
13B
330
F2
100
AcDbEntity
  8
AM_5
  6
Continuous
 62
     7
370
     0
100
AcDbLine
 10
150.5004562154472
 20
140.2625666168973
 30
0.0
 11
146.9335968072901
 21
140.2625666168973
 31
0.0
  0
LINE
  5
13C
330
F2
100
AcDbEntity
  8
AM_0
  6
Continuous
 62
     7
370
     0
100
AcDbLine
 10
154.0004554384471
 20
141.1375664226473
 30
0.0
 11
150.5004562154471
 21
140.2625666168973
 31
0.0
  0
LINE
  5
13D
330
F2
100
AcDbEntity
  8
AM_0
  6
Continuous
 62
     7
370
     0
100
AcDbLine
 10
150.5004562154472
 20
140.2625666168973
 30
0.0
 11
154.0004554384472
 21
139.3875668111473
 31
0.0
  0
LINE
  5
13E
330
F2
100
AcDbEntity
  8
AM_0
  6
Continuous
 62
     7
370
     0
100
AcDbLine
 10
154.0004554384471
 20
141.1375664226473
 30
0.0
 11
154.0004554384471
 21
139.3875668111473
 31
0.0
  0
LINE
  5
13F
330
F2
100
AcDbEntity
  8
AM_0
  6
Continuous
 62
     7
370
     0
100
AcDbLine
 10
143.4335975842901
 20
139.3875668111473
 30
0.0
 11
146.9335968072901
 21
140.2625666168973
 31
0.0
  0
LINE
  5
140
330
F2
100
AcDbEntity
  8
AM_0
  6
Continuous
 62
     7
370
     0
100
AcDbLine
 10
146.9335968072901
 20
140.2625666168973
 30
0.0
 11
143.4335975842901
 21
141.1375664226473
 31
0.0
  0
LINE
  5
141
330
F2
100
AcDbEntity
  8
AM_0
  6
Continuous
 62
     7
370
     0
100
AcDbLine
 10
143.4335975842901
 20
139.3875668111473
 30
0.0
 11
143.4335975842901
 21
141.1375664226473
 31
0.0
  0
TEXT
  5
142
330
F2
100
AcDbEntity
  8
AM_5
  6
Continuous
 62
     7
370
     0
100
AcDbText
 10
132.147087603268
 20
141.0941991911158
 30
0.0
 40
2.499999445
  1
3.57
  7
arial_ttf
 11
132.147087603268
 21
143.5941986361158
 31
0.0
100
AcDbText
 73
     3
  0
POINT
  5
143
330
F2
100
AcDbEntity
  8
DEFPOINTS
  6
Continuous
 62
     7
370
     0
100
AcDbPoint
 10
146.9335968072901
 20
150.2837614721916
 30
0.0
  0
POINT
  5
144
330
F2
100
AcDbEntity
  8
DEFPOINTS
  6
Continuous
 62
     7
370
     0
100
AcDbPoint
 10
150.5004562154472
 20
152.2051325056471
 30
0.0
  0
POINT
  5
145
330
F2
100
AcDbEntity
  8
DEFPOINTS
  6
Continuous
 62
     7
370
     0
100
AcDbPoint
 10
150.5004562154472
 20
140.2625666168973
 30
0.0
  0
ENDBLK
  5
22B
330
F2
100
AcDbEntity
  8
0
370
     0
100
AcDbBlockEnd
  0
BLOCK
  5
147
330
F4
100
AcDbEntity
  8
0
 62
     1
 48
0.0
370
     0
100
AcDbBlockBegin
  2
SE4
 70
     0
 10
0.0
 20
0.0
 30
0.0
  3
SE4
  1

  0
LINE
  5
148
330
F4
100
AcDbEntity
  8
AM_5
  6
Continuous
 62
     7
370
     0
100
AcDbLine
 10
148.9997089986131
 20
155.2051318396471
 30
0.0
 11
163.1184615442494
 21
155.2051318396471
 31
0.0
  0
LINE
  5
149
330
F4
100
AcDbEntity
  8
AM_5
  6
Continuous
 62
     7
370
     0
100
AcDbLine
 10
148.4335964742901
 20
150.2837614721916
 30
0.0
 11
163.1184615442493
 21
150.2837614721916
 31
0.0
  0
LINE
  5
14A
330
F4
100
AcDbEntity
  8
AM_5
  6
Continuous
 62
     7
370
     0
100
AcDbLine
 10
162.1184617662493
 20
146.7837622491916
 30
0.0
 11
162.1184617662493
 21
143.2837630261916
 31
0.0
  0
LINE
  5
14B
330
F4
100
AcDbEntity
  8
AM_5
  6
Continuous
 62
     7
370
     0
100
AcDbLine
 10
162.1184617662493
 20
158.7051310626471
 30
0.0
 11
162.1184617662494
 21
168.6563441331498
 31
0.0
  0
LINE
  5
14C
330
F4
100
AcDbEntity
  8
AM_5
  6
Continuous
 62
     7
370
     0
100
AcDbLine
 10
162.1184617662493
 20
150.2837614721916
 30
0.0
 11
162.1184617662493
 21
155.2051318396471
 31
0.0
  0
LINE
  5
14D
330
F4
100
AcDbEntity
  8
AM_0
  6
Continuous
 62
     7
370
     0
100
AcDbLine
 10
162.9934615719994
 20
146.7837622491916
 30
0.0
 11
162.1184617662493
 21
150.2837614721916
 31
0.0
  0
LINE
  5
14E
330
F4
100
AcDbEntity
  8
AM_0
  6
Continuous
 62
     7
370
     0
100
AcDbLine
 10
162.1184617662493
 20
150.2837614721916
 30
0.0
 11
161.2434619604993
 21
146.7837622491915
 31
0.0
  0
LINE
  5
14F
330
F4
100
AcDbEntity
  8
AM_0
  6
Continuous
 62
     7
370
     0
100
AcDbLine
 10
162.9934615719994
 20
146.7837622491916
 30
0.0
 11
161.2434619604993
 21
146.7837622491916
 31
0.0
  0
LINE
  5
150
330
F4
100
AcDbEntity
  8
AM_0
  6
Continuous
 62
     7
370
     0
100
AcDbLine
 10
161.2434619604993
 20
158.7051310626471
 30
0.0
 11
162.1184617662493
 21
155.2051318396471
 31
0.0
  0
LINE
  5
151
330
F4
100
AcDbEntity
  8
AM_0
  6
Continuous
 62
     7
370
     0
100
AcDbLine
 10
162.1184617662493
 20
155.2051318396471
 30
0.0
 11
162.9934615719994
 21
158.7051310626471
 31
0.0
  0
LINE
  5
152
330
F4
100
AcDbEntity
  8
AM_0
  6
Continuous
 62
     7
370
     0
100
AcDbLine
 10
161.2434619604993
 20
158.7051310626471
 30
0.0
 11
162.9934615719994
 21
158.7051310626471
 31
0.0
  0
TEXT
  5
153
330
F4
100
AcDbEntity
  8
AM_5
  6
Continuous
 62
     7
370
     0
100
AcDbText
 10
161.2876818521417
 20
163.132078102802
 30
0.0
 40
2.499999445
  1
4.9
 50
90.0
  7
arial_ttf
 11
158.7876824071417
 21
163.132078102802
 31
0.0
100
AcDbText
 73
     3
  0
POINT
  5
154
330
F4
100
AcDbEntity
  8
DEFPOINTS
  6
Continuous
 62
     7
370
     0
100
AcDbPoint
 10
147.4997093316131
 20
155.2051318396471
 30
0.0
  0
POINT
  5
155
330
F4
100
AcDbEntity
  8
DEFPOINTS
  6
Continuous
 62
     7
370
     0
100
AcDbPoint
 10
146.9335968072901
 20
150.2837614721916
 30
0.0
  0
POINT
  5
156
330
F4
100
AcDbEntity
  8
DEFPOINTS
  6
Continuous
 62
     7
370
     0
100
AcDbPoint
 10
162.1184617662493
 20
150.2837614721916
 30
0.0
  0
ENDBLK
  5
22C
330
F4
100
AcDbEntity
  8
0
370
     0
100
AcDbBlockEnd
  0
BLOCK
  5
158
330
F6
100
AcDbEntity
  8
0
 62
     1
 48
0.0
370
     0
100
AcDbBlockBegin
  2
SE5
 70
     0
 10
0.0
 20
0.0
 30
0.0
  3
SE5
  1

  0
LINE
  5
159
330
F6
100
AcDbEntity
  8
AM_5
  6
Continuous
 62
     7
370
     0
100
AcDbLine
 10
152.000452062448
 20
88.14679137660199
 30
0.0
 11
161.1880057228106
 21
88.14679137660199
 31
0.0
  0
LINE
  5
15A
330
F6
100
AcDbEntity
  8
AM_5
  6
Continuous
 62
     7
370
     0
100
AcDbLine
 10
159.3480061312906
 20
96.14292532145988
 30
0.0
 11
159.1880061668106
 21
96.14292532145988
 31
0.0
  0
LINE
  5
15B
330
F6
100
AcDbEntity
  8
AM_5
  6
Continuous
 62
     7
370
     0
100
AcDbLine
 10
160.1880059448107
 20
99.64292454445988
 30
0.0
 11
160.1880059448107
 21
103.1429237674599
 31
0.0
  0
LINE
  5
15C
330
F6
100
AcDbEntity
  8
AM_5
  6
Continuous
 62
     7
370
     0
100
AcDbLine
 10
160.1880059448106
 20
84.64679215360202
 30
0.0
 11
160.1880059448106
 21
77.99945392944785
 31
0.0
  0
LINE
  5
15D
330
F6
100
AcDbEntity
  8
AM_5
  6
Continuous
 62
     7
370
     0
100
AcDbLine
 10
160.1880059448106
 20
96.14292532145988
 30
0.0
 11
160.1880059448106
 21
88.14679137660199
 31
0.0
  0
LINE
  5
15E
330
F6
100
AcDbEntity
  8
AM_0
  6
Continuous
 62
     7
370
     0
100
AcDbLine
 10
159.3130061390606
 20
99.64292454445988
 30
0.0
 11
160.1880059448106
 21
96.14292532145988
 31
0.0
  0
LINE
  5
15F
330
F6
100
AcDbEntity
  8
AM_0
  6
Continuous
 62
     7
370
     0
100
AcDbLine
 10
160.1880059448106
 20
96.14292532145988
 30
0.0
 11
161.0630057505606
 21
99.64292454445988
 31
0.0
  0
LINE
  5
160
330
F6
100
AcDbEntity
  8
AM_0
  6
Continuous
 62
     7
370
     0
100
AcDbLine
 10
159.3130061390606
 20
99.64292454445988
 30
0.0
 11
161.0630057505606
 21
99.64292454445988
 31
0.0
  0
LINE
  5
161
330
F6
100
AcDbEntity
  8
AM_0
  6
Continuous
 62
     7
370
     0
100
AcDbLine
 10
161.0630057505606
 20
84.64679215360199
 30
0.0
 11
160.1880059448106
 21
88.14679137660201
 31
0.0
  0
LINE
  5
162
330
F6
100
AcDbEntity
  8
AM_0
  6
Continuous
 62
     7
370
     0
100
AcDbLine
 10
160.1880059448106
 20
88.14679137660199
 30
0.0
 11
159.3130061390606
 21
84.64679215360197
 31
0.0
  0
LINE
  5
163
330
F6
100
AcDbEntity
  8
AM_0
  6
Continuous
 62
     7
370
     0
100
AcDbLine
 10
161.0630057505606
 20
84.64679215360199
 30
0.0
 11
159.3130061390606
 21
84.64679215360199
 31
0.0
  0
TEXT
  5
164
330
F6
100
AcDbEntity
  8
AM_5
  6
Continuous
 62
     7
370
     0
100
AcDbText
 10
159.3572260307029
 20
78.59486297448398
 30
0.0
 40
2.499999445
  1
8
 50
90.0
  7
arial_ttf
 11
156.857226585703
 21
78.59486297448398
 31
0.0
100
AcDbText
 73
     3
  0
POINT
  5
165
330
F6
100
AcDbEntity
  8
DEFPOINTS
  6
Continuous
 62
     7
370
     0
100
AcDbPoint
 10
150.500452395448
 20
88.14679137660199
 30
0.0
  0
POINT
  5
166
330
F6
100
AcDbEntity
  8
DEFPOINTS
  6
Continuous
 62
     7
370
     0
100
AcDbPoint
 10
160.8480057982906
 20
96.14292532145988
 30
0.0
  0
POINT
  5
167
330
F6
100
AcDbEntity
  8
DEFPOINTS
  6
Continuous
 62
     7
370
     0
100
AcDbPoint
 10
160.1880059448106
 20
96.14292532145988
 30
0.0
  0
ENDBLK
  5
22D
330
F6
100
AcDbEntity
  8
0
370
     0
100
AcDbBlockEnd
  0
BLOCK
  5
169
330
F8
100
AcDbEntity
  8
0
 62
     1
 48
0.0
370
     0
100
AcDbBlockBegin
  2
SE6
 70
     0
 10
0.0
 20
0.0
 30
0.0
  3
SE6
  1

  0
LINE
  5
16A
330
F8
100
AcDbEntity
  8
AM_5
  6
Continuous
 62
     7
370
     0
100
AcDbLine
 10
152.0036983717273
 20
96.14292532145988
 30
0.0
 11
161.1880057228106
 21
96.14292532145988
 31
0.0
  0
LINE
  5
16B
330
F8
100
AcDbEntity
  8
AM_5
  6
Continuous
 62
     7
370
     0
100
AcDbLine
 10
152.0004558824471
 20
112.1429293894582
 30
0.0
 11
161.1880057228106
 21
112.1429293894582
 31
0.0
  0
LINE
  5
16C
330
F8
100
AcDbEntity
  8
AM_5
  6
Continuous
 62
     7
370
     0
100
AcDbLine
 10
160.1880059448107
 20
99.64292454445988
 30
0.0
 11
160.1880059448107
 21
108.6429301664582
 31
0.0
  0
LINE
  5
16D
330
F8
100
AcDbEntity
  8
AM_0
  6
Continuous
 62
     7
370
     0
100
AcDbLine
 10
159.3130061390606
 20
99.64292454445988
 30
0.0
 11
160.1880059448106
 21
96.14292532145988
 31
0.0
  0
LINE
  5
16E
330
F8
100
AcDbEntity
  8
AM_0
  6
Continuous
 62
     7
370
     0
100
AcDbLine
 10
160.1880059448106
 20
96.14292532145988
 30
0.0
 11
161.0630057505606
 21
99.64292454445988
 31
0.0
  0
LINE
  5
16F
330
F8
100
AcDbEntity
  8
AM_0
  6
Continuous
 62
     7
370
     0
100
AcDbLine
 10
159.3130061390606
 20
99.64292454445988
 30
0.0
 11
161.0630057505606
 21
99.64292454445988
 31
0.0
  0
LINE
  5
170
330
F8
100
AcDbEntity
  8
AM_0
  6
Continuous
 62
     7
370
     0
100
AcDbLine
 10
161.0630057505607
 20
108.6429301664582
 30
0.0
 11
160.1880059448107
 21
112.1429293894582
 31
0.0
  0
LINE
  5
171
330
F8
100
AcDbEntity
  8
AM_0
  6
Continuous
 62
     7
370
     0
100
AcDbLine
 10
160.1880059448107
 20
112.1429293894582
 30
0.0
 11
159.3130061390607
 21
108.6429301664582
 31
0.0
  0
LINE
  5
172
330
F8
100
AcDbEntity
  8
AM_0
  6
Continuous
 62
     7
370
     0
100
AcDbLine
 10
161.0630057505607
 20
108.6429301664582
 30
0.0
 11
159.3130061390607
 21
108.6429301664582
 31
0.0
  0
TEXT
  5
173
330
F8
100
AcDbEntity
  8
AM_5
  6
Continuous
 62
     7
370
     0
100
AcDbText
 10
159.3572260307029
 20
102.1864063275268
 30
0.0
 40
2.499999445
  1
15
 50
90.0
  7
arial_ttf
 11
156.857226585703
 21
102.1864063275268
 31
0.0
100
AcDbText
 73
     3
  0
POINT
  5
174
330
F8
100
AcDbEntity
  8
DEFPOINTS
  6
Continuous
 62
     7
370
     0
100
AcDbPoint
 10
150.5036987047273
 20
96.14292532145988
 30
0.0
  0
POINT
  5
175
330
F8
100
AcDbEntity
  8
DEFPOINTS
  6
Continuous
 62
     7
370
     0
100
AcDbPoint
 10
150.5004562154472
 20
112.1429293894582
 30
0.0
  0
POINT
  5
176
330
F8
100
AcDbEntity
  8
DEFPOINTS
  6
Continuous
 62
     7
370
     0
100
AcDbPoint
 10
160.1880059448107
 20
112.1429293894582
 30
0.0
  0
ENDBLK
  5
22E
330
F8
100
AcDbEntity
  8
0
370
     0
100
AcDbBlockEnd
  0
BLOCK
  5
178
330
FA
100
AcDbEntity
  8
0
 62
     1
 48
0.0
370
     0
100
AcDbBlockBegin
  2
SE7
 70
     0
 10
0.0
 20
0.0
 30
0.0
  3
SE7
  1

  0
LINE
  5
179
330
FA
100
AcDbEntity
  8
AM_5
  6
Continuous
 62
     7
370
     0
100
AcDbLine
 10
152.0004368024514
 20
56.14294564145733
 30
0.0
 11
161.1880057228106
 21
56.14294564145733
 31
0.0
  0
LINE
  5
17A
330
FA
100
AcDbEntity
  8
AM_5
  6
Continuous
 62
     7
370
     0
100
AcDbLine
 10
158.2473527156357
 20
48.14294741745733
 30
0.0
 11
161.1880057228106
 21
48.14294741745733
 31
0.0
  0
LINE
  5
17B
330
FA
100
AcDbEntity
  8
AM_5
  6
Continuous
 62
     7
370
     0
100
AcDbLine
 10
160.1880059448106
 20
44.64294819445734
 30
0.0
 11
160.1880059448106
 21
41.14294897145734
 31
0.0
  0
LINE
  5
17C
330
FA
100
AcDbEntity
  8
AM_5
  6
Continuous
 62
     7
370
     0
100
AcDbLine
 10
160.1880059448106
 20
59.64294486445733
 30
0.0
 11
160.1880059448106
 21
66.2902830886115
 31
0.0
  0
LINE
  5
17D
330
FA
100
AcDbEntity
  8
AM_5
  6
Continuous
 62
     7
370
     0
100
AcDbLine
 10
160.1880059448106
 20
48.14294741745733
 30
0.0
 11
160.1880059448106
 21
56.14294564145733
 31
0.0
  0
LINE
  5
17E
330
FA
100
AcDbEntity
  8
AM_0
  6
Continuous
 62
     7
370
     0
100
AcDbLine
 10
161.0630057505606
 20
44.64294819445734
 30
0.0
 11
160.1880059448106
 21
48.14294741745733
 31
0.0
  0
LINE
  5
17F
330
FA
100
AcDbEntity
  8
AM_0
  6
Continuous
 62
     7
370
     0
100
AcDbLine
 10
160.1880059448106
 20
48.14294741745733
 30
0.0
 11
159.3130061390606
 21
44.64294819445734
 31
0.0
  0
LINE
  5
180
330
FA
100
AcDbEntity
  8
AM_0
  6
Continuous
 62
     7
370
     0
100
AcDbLine
 10
161.0630057505606
 20
44.64294819445734
 30
0.0
 11
159.3130061390606
 21
44.64294819445734
 31
0.0
  0
LINE
  5
181
330
FA
100
AcDbEntity
  8
AM_0
  6
Continuous
 62
     7
370
     0
100
AcDbLine
 10
159.3130061390606
 20
59.64294486445733
 30
0.0
 11
160.1880059448106
 21
56.14294564145733
 31
0.0
  0
LINE
  5
182
330
FA
100
AcDbEntity
  8
AM_0
  6
Continuous
 62
     7
370
     0
100
AcDbLine
 10
160.1880059448106
 20
56.14294564145733
 30
0.0
 11
161.0630057505606
 21
59.64294486445733
 31
0.0
  0
LINE
  5
183
330
FA
100
AcDbEntity
  8
AM_0
  6
Continuous
 62
     7
370
     0
100
AcDbLine
 10
159.3130061390606
 20
59.64294486445733
 30
0.0
 11
161.0630057505606
 21
59.64294486445733
 31
0.0
  0
TEXT
  5
184
330
FA
100
AcDbEntity
  8
AM_5
  6
Continuous
 62
     7
370
     0
100
AcDbText
 10
159.3572260307029
 20
63.73835313249348
 30
0.0
 40
2.499999445
  1
8
 50
90.0
  7
arial_ttf
 11
156.857226585703
 21
63.73835313249348
 31
0.0
100
AcDbText
 73
     3
  0
POINT
  5
185
330
FA
100
AcDbEntity
  8
DEFPOINTS
  6
Continuous
 62
     7
370
     0
100
AcDbPoint
 10
150.5004371354514
 20
56.14294564145733
 30
0.0
  0
POINT
  5
186
330
FA
100
AcDbEntity
  8
DEFPOINTS
  6
Continuous
 62
     7
370
     0
100
AcDbPoint
 10
156.7473530486357
 20
48.14294741745733
 30
0.0
  0
POINT
  5
187
330
FA
100
AcDbEntity
  8
DEFPOINTS
  6
Continuous
 62
     7
370
     0
100
AcDbPoint
 10
160.1880059448106
 20
48.14294741745733
 30
0.0
  0
ENDBLK
  5
22F
330
FA
100
AcDbEntity
  8
0
370
     0
100
AcDbBlockEnd
  0
BLOCK
  5
189
330
FC
100
AcDbEntity
  8
0
 62
     1
 48
0.0
370
     0
100
AcDbBlockBegin
  2
SE8
 70
     0
 10
0.0
 20
0.0
 30
0.0
  3
SE8
  1

  0
LINE
  5
18A
330
FC
100
AcDbEntity
  8
AM_5
  6
Continuous
 62
     7
370
     0
100
AcDbLine
 10
152.0004558824471
 20
32.1429471494582
 30
0.0
 11
161.1880057228106
 21
32.1429471494582
 31
0.0
  0
LINE
  5
18B
330
FC
100
AcDbEntity
  8
AM_5
  6
Continuous
 62
     7
370
     0
100
AcDbLine
 10
152.0004406224505
 20
48.14294741745733
 30
0.0
 11
161.1880057228106
 21
48.14294741745733
 31
0.0
  0
LINE
  5
18C
330
FC
100
AcDbEntity
  8
AM_5
  6
Continuous
 62
     7
370
     0
100
AcDbLine
 10
160.1880059448106
 20
35.6429463724582
 30
0.0
 11
160.1880059448106
 21
44.64294819445734
 31
0.0
  0
LINE
  5
18D
330
FC
100
AcDbEntity
  8
AM_0
  6
Continuous
 62
     7
370
     0
100
AcDbLine
 10
159.3130061390606
 20
35.64294637245819
 30
0.0
 11
160.1880059448106
 21
32.14294714945819
 31
0.0
  0
LINE
  5
18E
330
FC
100
AcDbEntity
  8
AM_0
  6
Continuous
 62
     7
370
     0
100
AcDbLine
 10
160.1880059448106
 20
32.1429471494582
 30
0.0
 11
161.0630057505606
 21
35.6429463724582
 31
0.0
  0
LINE
  5
18F
330
FC
100
AcDbEntity
  8
AM_0
  6
Continuous
 62
     7
370
     0
100
AcDbLine
 10
159.3130061390606
 20
35.64294637245819
 30
0.0
 11
161.0630057505606
 21
35.64294637245819
 31
0.0
  0
LINE
  5
190
330
FC
100
AcDbEntity
  8
AM_0
  6
Continuous
 62
     7
370
     0
100
AcDbLine
 10
161.0630057505606
 20
44.64294819445734
 30
0.0
 11
160.1880059448106
 21
48.14294741745733
 31
0.0
  0
LINE
  5
191
330
FC
100
AcDbEntity
  8
AM_0
  6
Continuous
 62
     7
370
     0
100
AcDbLine
 10
160.1880059448106
 20
48.14294741745733
 30
0.0
 11
159.3130061390606
 21
44.64294819445734
 31
0.0
  0
LINE
  5
192
330
FC
100
AcDbEntity
  8
AM_0
  6
Continuous
 62
     7
370
     0
100
AcDbLine
 10
161.0630057505606
 20
44.64294819445734
 30
0.0
 11
159.3130061390606
 21
44.64294819445734
 31
0.0
  0
TEXT
  5
193
330
FC
100
AcDbEntity
  8
AM_5
  6
Continuous
 62
     7
370
     0
100
AcDbText
 10
159.3572260307029
 20
37.678108768372
 30
0.0
 40
2.499999445
  1
15
 50
90.0
  7
arial_ttf
 11
156.857226585703
 21
37.678108768372
 31
0.0
100
AcDbText
 73
     3
  0
POINT
  5
194
330
FC
100
AcDbEntity
  8
DEFPOINTS
  6
Continuous
 62
     7
370
     0
100
AcDbPoint
 10
150.5004562154472
 20
32.1429471494582
 30
0.0
  0
POINT
  5
195
330
FC
100
AcDbEntity
  8
DEFPOINTS
  6
Continuous
 62
     7
370
     0
100
AcDbPoint
 10
150.5004409554505
 20
48.14294741745733
 30
0.0
  0
POINT
  5
196
330
FC
100
AcDbEntity
  8
DEFPOINTS
  6
Continuous
 62
     7
370
     0
100
AcDbPoint
 10
160.1880059448106
 20
48.14294741745733
 30
0.0
  0
ENDBLK
  5
230
330
FC
100
AcDbEntity
  8
0
370
     0
100
AcDbBlockEnd
  0
BLOCK
  5
198
330
FE
100
AcDbEntity
  8
0
 62
     1
 48
0.0
370
     0
100
AcDbBlockBegin
  2
SE9
 70
     0
 10
0.0
 20
0.0
 30
0.0
  3
SE9
  1

  0
LINE
  5
199
330
FE
100
AcDbEntity
  8
AM_5
  6
Continuous
 62
     7
370
     0
100
AcDbLine
 10
77.00047246244718
 20
112.1429303394579
 30
0.0
 11
52.17708783423981
 21
112.142930339458
 31
0.0
  0
LINE
  5
19A
330
FE
100
AcDbEntity
  8
AM_5
  6
Continuous
 62
     7
370
     0
100
AcDbLine
 10
77.00047246244718
 20
32.14294809945799
 30
0.0
 11
52.17708783423979
 21
32.14294809945799
 31
0.0
  0
LINE
  5
19B
330
FE
100
AcDbEntity
  8
AM_5
  6
Continuous
 62
     7
370
     0
100
AcDbLine
 10
53.1770876122398
 20
108.642931116458
 30
0.0
 11
53.17708761223979
 21
35.64294732245798
 31
0.0
  0
LINE
  5
19C
330
FE
100
AcDbEntity
  8
AM_0
  6
Continuous
 62
     7
370
     0
100
AcDbLine
 10
54.05208741798981
 20
108.642931116458
 30
0.0
 11
53.17708761223981
 21
112.142930339458
 31
0.0
  0
LINE
  5
19D
330
FE
100
AcDbEntity
  8
AM_0
  6
Continuous
 62
     7
370
     0
100
AcDbLine
 10
53.17708761223981
 20
112.142930339458
 30
0.0
 11
52.30208780648981
 21
108.6429311164579
 31
0.0
  0
LINE
  5
19E
330
FE
100
AcDbEntity
  8
AM_0
  6
Continuous
 62
     7
370
     0
100
AcDbLine
 10
54.05208741798981
 20
108.642931116458
 30
0.0
 11
52.30208780648981
 21
108.642931116458
 31
0.0
  0
LINE
  5
19F
330
FE
100
AcDbEntity
  8
AM_0
  6
Continuous
 62
     7
370
     0
100
AcDbLine
 10
52.30208780648979
 20
35.64294732245798
 30
0.0
 11
53.17708761223979
 21
32.14294809945799
 31
0.0
  0
LINE
  5
1A0
330
FE
100
AcDbEntity
  8
AM_0
  6
Continuous
 62
     7
370
     0
100
AcDbLine
 10
53.17708761223979
 20
32.14294809945799
 30
0.0
 11
54.05208741798979
 21
35.64294732245798
 31
0.0
  0
LINE
  5
1A1
330
FE
100
AcDbEntity
  8
AM_0
  6
Continuous
 62
     7
370
     0
100
AcDbLine
 10
52.30208780648979
 20
35.64294732245798
 30
0.0
 11
54.05208741798979
 21
35.64294732245798
 31
0.0
  0
TEXT
  5
1A2
330
FE
100
AcDbEntity
  8
AM_5
  6
Continuous
 62
     7
370
     0
100
AcDbText
 10
52.34630769813218
 20
70.18641534902634
 30
0.0
 40
2.499999445
  1
78
 50
90.0
  7
arial_ttf
 11
49.84630825313217
 21
70.18641534902634
 31
0.0
100
AcDbText
 73
     3
  0
POINT
  5
1A3
330
FE
100
AcDbEntity
  8
DEFPOINTS
  6
Continuous
 62
     7
370
     0
100
AcDbPoint
 10
78.50047212944717
 20
112.1429303394579
 30
0.0
  0
POINT
  5
1A4
330
FE
100
AcDbEntity
  8
DEFPOINTS
  6
Continuous
 62
     7
370
     0
100
AcDbPoint
 10
78.50047212944717
 20
32.14294809945799
 30
0.0
  0
POINT
  5
1A5
330
FE
100
AcDbEntity
  8
DEFPOINTS
  6
Continuous
 62
     7
370
     0
100
AcDbPoint
 10
53.17708761223979
 20
32.14294809945799
 30
0.0
  0
ENDBLK
  5
231
330
FE
100
AcDbEntity
  8
0
370
     0
100
AcDbBlockEnd
  0
BLOCK
  5
1A7
330
100
100
AcDbEntity
  8
0
 62
     1
 48
0.0
370
     0
100
AcDbBlockBegin
  2
SE10
 70
     0
 10
0.0
 20
0.0
 30
0.0
  3
SE10
  1

  0
LINE
  5
1A8
330
100
100
AcDbEntity
  8
AM_5
  6
Continuous
 62
     7
370
     0
100
AcDbLine
 10
69.00047531844695
 20
231.2058655174805
 30
0.0
 11
51.96334363069105
 21
231.2058655174805
 31
0.0
  0
LINE
  5
1A9
330
100
100
AcDbEntity
  8
AM_5
  6
Continuous
 62
     7
370
     0
100
AcDbLine
 10
73.10789419659974
 20
151.2058832774805
 30
0.0
 11
51.96334363069104
 21
151.2058832774805
 31
0.0
  0
LINE
  5
1AA
330
100
100
AcDbEntity
  8
AM_5
  6
Continuous
 62
     7
370
     0
100
AcDbLine
 10
52.96334340869105
 20
227.7058662944805
 30
0.0
 11
52.96334340869103
 21
154.7058825004805
 31
0.0
  0
LINE
  5
1AB
330
100
100
AcDbEntity
  8
AM_0
  6
Continuous
 62
     7
370
     0
100
AcDbLine
 10
53.83834321444105
 20
227.7058662944805
 30
0.0
 11
52.96334340869105
 21
231.2058655174805
 31
0.0
  0
LINE
  5
1AC
330
100
100
AcDbEntity
  8
AM_0
  6
Continuous
 62
     7
370
     0
100
AcDbLine
 10
52.96334340869105
 20
231.2058655174805
 30
0.0
 11
52.08834360294105
 21
227.7058662944805
 31
0.0
  0
LINE
  5
1AD
330
100
100
AcDbEntity
  8
AM_0
  6
Continuous
 62
     7
370
     0
100
AcDbLine
 10
53.83834321444105
 20
227.7058662944805
 30
0.0
 11
52.08834360294105
 21
227.7058662944805
 31
0.0
  0
LINE
  5
1AE
330
100
100
AcDbEntity
  8
AM_0
  6
Continuous
 62
     7
370
     0
100
AcDbLine
 10
52.08834360294103
 20
154.7058825004805
 30
0.0
 11
52.96334340869103
 21
151.2058832774805
 31
0.0
  0
LINE
  5
1AF
330
100
100
AcDbEntity
  8
AM_0
  6
Continuous
 62
     7
370
     0
100
AcDbLine
 10
52.96334340869104
 20
151.2058832774805
 30
0.0
 11
53.83834321444104
 21
154.7058825004805
 31
0.0
  0
LINE
  5
1B0
330
100
100
AcDbEntity
  8
AM_0
  6
Continuous
 62
     7
370
     0
100
AcDbLine
 10
52.08834360294103
 20
154.7058825004805
 30
0.0
 11
53.83834321444103
 21
154.7058825004805
 31
0.0
  0
TEXT
  5
1B1
330
100
100
AcDbEntity
  8
AM_5
  6
Continuous
 62
     7
370
     0
100
AcDbText
 10
52.13256349458339
 20
189.2493532195482
 30
0.0
 40
2.499999445
  1
80
 50
90.0
  7
arial_ttf
 11
49.63256404958339
 21
189.2493532195482
 31
0.0
100
AcDbText
 73
     3
  0
POINT
  5
1B2
330
100
100
AcDbEntity
  8
DEFPOINTS
  6
Continuous
 62
     7
370
     0
100
AcDbPoint
 10
70.50047498544694
 20
231.2058655174805
 30
0.0
  0
POINT
  5
1B3
330
100
100
AcDbEntity
  8
DEFPOINTS
  6
Continuous
 62
     7
370
     0
100
AcDbPoint
 10
74.60789386359974
 20
151.2058832774805
 30
0.0
  0
POINT
  5
1B4
330
100
100
AcDbEntity
  8
DEFPOINTS
  6
Continuous
 62
     7
370
     0
100
AcDbPoint
 10
52.96334340869104
 20
151.2058832774805
 30
0.0
  0
ENDBLK
  5
232
330
100
100
AcDbEntity
  8
0
370
     0
100
AcDbBlockEnd
  0
BLOCK
  5
1B6
330
102
100
AcDbEntity
  8
0
 62
     1
 48
0.0
370
     0
100
AcDbBlockBegin
  2
SE11
 70
     0
 10
0.0
 20
0.0
 30
0.0
  3
SE11
  1

  0
LINE
  5
1B7
330
102
100
AcDbEntity
  8
AM_5
  6
Continuous
 62
     7
370
     0
100
AcDbLine
 10
77.00047354244694
 20
215.4558690139805
 30
0.0
 11
88.3496192029361
 21
215.4558690139805
 31
0.0
  0
LINE
  5
1B8
330
102
100
AcDbEntity
  8
AM_5
  6
Continuous
 62
     7
370
     0
100
AcDbLine
 10
77.00047354244694
 20
206.9558709009805
 30
0.0
 11
88.34961920293608
 21
206.9558709009805
 31
0.0
  0
LINE
  5
1B9
330
102
100
AcDbEntity
  8
AM_5
  6
Continuous
 62
     7
370
     0
100
AcDbLine
 10
87.34961942493608
 20
210.4558701239805
 30
0.0
 11
87.34961942493608
 21
211.9558697909805
 31
0.0
  0
LINE
  5
1BA
330
102
100
AcDbEntity
  8
AM_5
  6
Continuous
 62
     7
370
     0
100
AcDbLine
 10
87.34961942493608
 20
215.4558690139805
 30
0.0
 11
87.34961942493608
 21
232.6887516821405
 31
0.0
  0
LINE
  5
1BB
330
102
100
AcDbEntity
  8
AM_0
  6
Continuous
 62
     7
370
     0
100
AcDbLine
 10
86.47461961918606
 20
210.4558701239805
 30
0.0
 11
87.34961942493606
 21
206.9558709009805
 31
0.0
  0
LINE
  5
1BC
330
102
100
AcDbEntity
  8
AM_0
  6
Continuous
 62
     7
370
     0
100
AcDbLine
 10
87.34961942493608
 20
206.9558709009805
 30
0.0
 11
88.22461923068606
 21
210.4558701239804
 31
0.0
  0
LINE
  5
1BD
330
102
100
AcDbEntity
  8
AM_0
  6
Continuous
 62
     7
370
     0
100
AcDbLine
 10
86.47461961918606
 20
210.4558701239805
 30
0.0
 11
88.22461923068606
 21
210.4558701239805
 31
0.0
  0
LINE
  5
1BE
330
102
100
AcDbEntity
  8
AM_0
  6
Continuous
 62
     7
370
     0
100
AcDbLine
 10
88.22461923068608
 20
211.9558697909805
 30
0.0
 11
87.3496194249361
 21
215.4558690139805
 31
0.0
  0
LINE
  5
1BF
330
102
100
AcDbEntity
  8
AM_0
  6
Continuous
 62
     7
370
     0
100
AcDbLine
 10
87.34961942493608
 20
215.4558690139805
 30
0.0
 11
86.47461961918608
 21
211.9558697909805
 31
0.0
  0
LINE
  5
1C0
330
102
100
AcDbEntity
  8
AM_0
  6
Continuous
 62
     7
370
     0
100
AcDbLine
 10
88.22461923068608
 20
211.9558697909805
 30
0.0
 11
86.4746196191861
 21
211.9558697909805
 31
0.0
  0
TEXT
  5
1C1
330
102
100
AcDbEntity
  8
AM_5
  6
Continuous
 62
     7
370
     0
100
AcDbText
 10
86.44892138173906
 20
223.5149891608363
 30
0.0
 40
2.499999445
  1
Ø 8.5
 50
90.0
  7
arial_ttf
 11
83.94892193673907
 21
223.5149891608363
 31
0.0
100
AcDbText
 73
     3
  0
POINT
  5
1C2
330
102
100
AcDbEntity
  8
DEFPOINTS
  6
Continuous
 62
     7
370
     0
100
AcDbPoint
 10
75.50047387544693
 20
215.4558690139805
 30
0.0
  0
POINT
  5
1C3
330
102
100
AcDbEntity
  8
DEFPOINTS
  6
Continuous
 62
     7
370
     0
100
AcDbPoint
 10
75.50047387544693
 20
206.9558709009805
 30
0.0
  0
POINT
  5
1C4
330
102
100
AcDbEntity
  8
DEFPOINTS
  6
Continuous
 62
     7
370
     0
100
AcDbPoint
 10
87.34961942493608
 20
206.9558709009805
 30
0.0
  0
ENDBLK
  5
233
330
102
100
AcDbEntity
  8
0
370
     0
100
AcDbBlockEnd
  0
BLOCK
  5
1C6
330
104
100
AcDbEntity
  8
0
 62
     1
 48
0.0
370
     0
100
AcDbBlockBegin
  2
SE12
 70
     0
 10
0.0
 20
0.0
 30
0.0
  3
SE12
  1

  0
LINE
  5
1C7
330
104
100
AcDbEntity
  8
AM_5
  6
Continuous
 62
     7
370
     0
100
AcDbLine
 10
94.75046960194694
 20
149.7058836104804
 30
0.0
 11
94.75046960194694
 21
139.2625668388973
 31
0.0
  0
LINE
  5
1C8
330
104
100
AcDbEntity
  8
AM_5
  6
Continuous
 62
     7
370
     0
100
AcDbLine
 10
86.25047148894692
 20
149.7058836104804
 30
0.0
 11
86.25047148894692
 21
139.2625668388973
 31
0.0
  0
LINE
  5
1C9
330
104
100
AcDbEntity
  8
AM_5
  6
Continuous
 62
     7
370
     0
100
AcDbLine
 10
89.75047071194692
 20
140.2625666168973
 30
0.0
 11
91.25047037894693
 21
140.2625666168973
 31
0.0
  0
LINE
  5
1CA
330
104
100
AcDbEntity
  8
AM_5
  6
Continuous
 62
     7
370
     0
100
AcDbLine
 10
94.75046960194694
 20
140.2625666168973
 30
0.0
 11
111.983352270107
 21
140.2625666168973
 31
0.0
  0
LINE
  5
1CB
330
104
100
AcDbEntity
  8
AM_0
  6
Continuous
 62
     7
370
     0
100
AcDbLine
 10
89.75047071194692
 20
141.1375664226473
 30
0.0
 11
86.25047148894692
 21
140.2625666168973
 31
0.0
  0
LINE
  5
1CC
330
104
100
AcDbEntity
  8
AM_0
  6
Continuous
 62
     7
370
     0
100
AcDbLine
 10
86.25047148894692
 20
140.2625666168973
 30
0.0
 11
89.75047071194692
 21
139.3875668111473
 31
0.0
  0
LINE
  5
1CD
330
104
100
AcDbEntity
  8
AM_0
  6
Continuous
 62
     7
370
     0
100
AcDbLine
 10
89.75047071194692
 20
141.1375664226473
 30
0.0
 11
89.75047071194692
 21
139.3875668111473
 31
0.0
  0
LINE
  5
1CE
330
104
100
AcDbEntity
  8
AM_0
  6
Continuous
 62
     7
370
     0
100
AcDbLine
 10
91.25047037894693
 20
139.3875668111473
 30
0.0
 11
94.75046960194694
 21
140.2625666168973
 31
0.0
  0
LINE
  5
1CF
330
104
100
AcDbEntity
  8
AM_0
  6
Continuous
 62
     7
370
     0
100
AcDbLine
 10
94.75046960194694
 20
140.2625666168973
 30
0.0
 11
91.25047037894693
 21
141.1375664226473
 31
0.0
  0
LINE
  5
1D0
330
104
100
AcDbEntity
  8
AM_0
  6
Continuous
 62
     7
370
     0
100
AcDbLine
 10
91.25047037894693
 20
139.3875668111473
 30
0.0
 11
91.25047037894693
 21
141.1375664226473
 31
0.0
  0
TEXT
  5
1D1
330
104
100
AcDbEntity
  8
AM_5
  6
Continuous
 62
     7
370
     0
100
AcDbText
 10
102.8095897488027
 20
141.1632646600943
 30
0.0
 40
2.499999445
  1
Ø 8.5
  7
arial_ttf
 11
102.8095897488027
 21
143.6632641050943
 31
0.0
100
AcDbText
 73
     3
  0
POINT
  5
1D2
330
104
100
AcDbEntity
  8
DEFPOINTS
  6
Continuous
 62
     7
370
     0
100
AcDbPoint
 10
94.75046960194694
 20
151.2058832774805
 30
0.0
  0
POINT
  5
1D3
330
104
100
AcDbEntity
  8
DEFPOINTS
  6
Continuous
 62
     7
370
     0
100
AcDbPoint
 10
86.25047148894692
 20
151.2058832774805
 30
0.0
  0
POINT
  5
1D4
330
104
100
AcDbEntity
  8
DEFPOINTS
  6
Continuous
 62
     7
370
     0
100
AcDbPoint
 10
86.25047148894692
 20
140.2625666168973
 30
0.0
  0
ENDBLK
  5
234
330
104
100
AcDbEntity
  8
0
370
     0
100
AcDbBlockEnd
  0
ENDSEC
  0
SECTION
  2
ENTITIES
  0
LINE
  5
6E
330
A
100
AcDbEntity
  8
AM_8
  6
Continuous
 62
     7
370
     0
100
AcDbLine
 10
-17.67464399777731
 20
163.2790118553681
 30
0.0
 11
-15.87967088626142
 21
165.073984976884
 31
0.0
  0
LINE
  5
6F
330
A
100
AcDbEntity
  8
AM_8
  6
Continuous
 62
     7
370
     0
100
AcDbLine
 10
-15.17464455277734
 20
165.7790113003681
 30
0.0
 11
-13.61257256955738
 21
167.341083283588
 31
0.0
  0
LINE
  5
70
330
A
100
AcDbEntity
  8
AM_8
  6
Continuous
 62
     7
370
     0
100
AcDbLine
 10
-15.16178992563104
 20
170.0345056656481
 30
0.0
 11
-20.87966977626144
 21
164.3166258250177
 31
0.0
  0
LINE
  5
71
330
A
100
AcDbEntity
  8
AM_8
  6
Continuous
 62
     7
370
     0
100
AcDbLine
 10
-20.87966977626144
 20
168.5592655731515
 30
0.0
 11
-16.50690611701518
 21
172.9320292323977
 31
0.0
  0
LINE
  5
72
330
A
100
AcDbEntity
  8
AM_8
  6
Continuous
 62
     7
370
     0
100
AcDbLine
 10
-17.43942606999572
 20
176.242149017551
 30
0.0
 11
-20.87966977626145
 21
172.8019053212853
 31
0.0
  0
LINE
  5
73
330
A
100
AcDbEntity
  8
AM_8
  6
Continuous
 62
     7
370
     0
100
AcDbLine
 10
-20.87966977626144
 20
177.044545059419
 30
0.0
 11
-19.22370525388564
 21
178.7005095817948
 31
0.0
  0
LINE
  5
74
330
A
100
AcDbEntity
  8
AM_8
  6
Continuous
 62
     7
370
     0
100
AcDbLine
 10
-8.505598473305894
 20
125.779020180368
 30
0.0
 11
-7.629672717761451
 21
126.6549459459125
 31
0.0
  0
LINE
  5
75
330
A
100
AcDbEntity
  8
AM_8
  6
Continuous
 62
     7
370
     0
100
AcDbLine
 10
-7.629672717761437
 20
130.8975856840463
 30
0.0
 11
-12.74823822143963
 21
125.779020180368
 31
0.0
  0
LINE
  5
76
330
A
100
AcDbEntity
  8
AM_8
  6
Continuous
 62
     7
370
     0
100
AcDbLine
 10
-19.49087741457342
 20
123.2790207353681
 30
0.0
 11
-8.31027622666744
 21
134.4596219232741
 31
0.0
  0
LINE
  5
77
330
A
100
AcDbEntity
  8
AM_8
  6
Continuous
 62
     7
370
     0
100
AcDbLine
 10
-10.43159610573431
 20
136.580941792341
 30
0.0
 11
-20.87966977626145
 21
126.1328681218139
 31
0.0
  0
LINE
  5
78
330
A
100
AcDbEntity
  8
AM_8
  6
Continuous
 62
     7
370
     0
100
AcDbLine
 10
-20.87966977626144
 20
130.3755078699476
 30
0.0
 11
-12.32430161555359
 21
138.9308760206554
 31
0.0
  0
LINE
  5
79
330
A
100
AcDbEntity
  8
AM_8
  6
Continuous
 62
     7
370
     0
100
AcDbLine
 10
-12.87967155226144
 20
142.6181458320814
 30
0.0
 11
-20.87966977626145
 21
134.6181476080814
 31
0.0
  0
LINE
  5
7A
330
A
100
AcDbEntity
  8
AM_8
  6
Continuous
 62
     7
370
     0
100
AcDbLine
 10
-20.87966977626144
 20
138.8607873562151
 30
0.0
 11
-12.87967155226143
 21
146.8607855802151
 31
0.0
  0
LINE
  5
7B
330
A
100
AcDbEntity
  8
AM_8
  6
Continuous
 62
     7
370
     0
100
AcDbLine
 10
-12.87967155226144
 20
151.1034253283489
 30
0.0
 11
-20.87966977626145
 21
143.1034271043489
 31
0.0
  0
LINE
  5
7C
330
A
100
AcDbEntity
  8
AM_8
  6
Continuous
 62
     7
370
     0
100
AcDbLine
 10
-20.87966977626144
 20
147.3460668424826
 30
0.0
 11
-15.87967088626143
 21
152.3460657324827
 31
0.0
  0
LINE
  5
7D
330
A
100
AcDbEntity
  8
AM_8
  6
Continuous
 62
     7
370
     0
100
AcDbLine
 10
-17.68936262450978
 20
154.7790137423681
 30
0.0
 11
-20.87966977626144
 21
151.5887065906164
 31
0.0
  0
LINE
  5
7E
330
A
100
AcDbEntity
  8
AM_8
  6
Continuous
 62
     7
370
     0
100
AcDbLine
 10
-5.557114317869519
 20
99.0290261188681
 30
0.0
 11
-5.129673272761451
 21
99.4564671739762
 31
0.0
  0
LINE
  5
7F
330
A
100
AcDbEntity
  8
AM_8
  6
Continuous
 62
     7
370
     0
100
AcDbLine
 10
-5.129673272761451
 20
103.6991069121099
 30
0.0
 11
-9.799754066003274
 21
99.0290261188681
 31
0.0
  0
LINE
  5
80
330
A
100
AcDbEntity
  8
AM_8
  6
Continuous
 62
     7
370
     0
100
AcDbLine
 10
-14.04239381413704
 20
99.0290261188681
 30
0.0
 11
-7.629672717761451
 21
105.4417472152437
 31
0.0
  0
LINE
  5
81
330
A
100
AcDbEntity
  8
AM_8
  6
Continuous
 62
     7
370
     0
100
AcDbLine
 10
-7.629672717761437
 20
109.6843869633774
 30
0.0
 11
-18.28503356227081
 21
99.02902611886808
 31
0.0
  0
LINE
  5
82
330
A
100
AcDbEntity
  8
AM_8
  6
Continuous
 62
     7
370
     0
100
AcDbLine
 10
-20.87966977626144
 20
100.6770296530112
 30
0.0
 11
-9.277676241904586
 21
112.2790231773681
 31
0.0
  0
LINE
  5
83
330
A
100
AcDbEntity
  8
AM_8
  6
Continuous
 62
     7
370
     0
100
AcDbLine
 10
-13.52031599003835
 20
112.2790231773681
 30
0.0
 11
-20.87966977626145
 21
104.919669391145
 31
0.0
  0
LINE
  5
84
330
A
100
AcDbEntity
  8
AM_8
  6
Continuous
 62
     7
370
     0
100
AcDbLine
 10
-20.87966977626144
 20
109.1623091392787
 30
0.0
 11
-15.87967088626143
 21
114.1623080292787
 31
0.0
  0
LINE
  5
85
330
A
100
AcDbEntity
  8
AM_8
  6
Continuous
 62
     7
370
     0
100
AcDbLine
 10
-19.50559603130588
 20
114.779022622368
 30
0.0
 11
-20.87966977626144
 21
113.4049488874125
 31
0.0
  0
LINE
  5
86
330
A
100
AcDbEntity
  8
AM_8
  6
Continuous
 62
     7
370
     0
100
AcDbLine
 10
32.6266433853344
 20
99.0290261188681
 30
0.0
 11
34.87031784723854
 21
101.2727005807723
 31
0.0
  0
LINE
  5
87
330
A
100
AcDbEntity
  8
AM_8
  6
Continuous
 62
     7
370
     0
100
AcDbLine
 10
33.38400252720064
 20
104.0290250088681
 30
0.0
 11
28.38400363720062
 21
99.0290261188681
 31
0.0
  0
LINE
  5
88
330
A
100
AcDbEntity
  8
AM_8
  6
Continuous
 62
     7
370
     0
100
AcDbLine
 10
24.14136389906686
 20
99.0290261188681
 30
0.0
 11
32.14136212306687
 21
107.0290243428681
 31
0.0
  0
LINE
  5
89
330
A
100
AcDbEntity
  8
AM_8
  6
Continuous
 62
     7
370
     0
100
AcDbLine
 10
27.89872237493308
 20
107.0290243428681
 30
0.0
 11
19.89872415093306
 21
99.0290261188681
 31
0.0
  0
LINE
  5
8A
330
A
100
AcDbEntity
  8
AM_8
  6
Continuous
 62
     7
370
     0
100
AcDbLine
 10
15.65608440279932
 20
99.0290261188681
 30
0.0
 11
23.65608262679933
 21
107.0290243428681
 31
0.0
  0
LINE
  5
8B
330
A
100
AcDbEntity
  8
AM_8
  6
Continuous
 62
     7
370
     0
100
AcDbLine
 10
19.53108633254871
 20
107.1466677867512
 30
0.0
 11
11.41344465466555
 21
99.0290261188681
 31
0.0
  0
LINE
  5
8C
330
A
100
AcDbEntity
  8
AM_8
  6
Continuous
 62
     7
370
     0
100
AcDbLine
 10
7.170804916531778
 20
99.0290261188681
 30
0.0
 11
17.14556224213517
 21
109.0037834444715
 31
0.0
  0
LINE
  5
8D
330
A
100
AcDbEntity
  8
AM_8
  6
Continuous
 62
     7
370
     0
100
AcDbLine
 10
15.02424237306829
 20
111.1251033235383
 30
0.0
 11
3.370324840238552
 21
99.4711857907086
 31
0.0
  0
LINE
  5
8E
330
A
100
AcDbEntity
  8
AM_8
  6
Continuous
 62
     7
370
     0
100
AcDbLine
 10
3.370324840238566
 20
103.7138255388424
 30
0.0
 11
3.68552431026427
 21
104.0290250088681
 31
0.0
  0
LINE
  5
8F
330
A
100
AcDbEntity
  8
AM_8
  6
Continuous
 62
     7
370
     0
100
AcDbLine
 10
5.870324285238538
 20
106.2138249838424
 30
0.0
 11
11.93552247876424
 21
112.2790231773681
 31
0.0
  0
LINE
  5
90
330
A
100
AcDbEntity
  8
AM_8
  6
Continuous
 62
     7
370
     0
100
AcDbLine
 10
7.692882740630494
 20
112.2790231773681
 30
0.0
 11
5.870324285238552
 21
110.4564647319762
 31
0.0
  0
LINE
  5
91
330
A
100
AcDbEntity
  8
AM_8
  6
Continuous
 62
     7
370
     0
100
AcDbLine
 10
57.3580126149692
 20
102.5471966178341
 30
0.0
 11
53.83984211600321
 21
99.0290261188681
 31
0.0
  0
LINE
  5
92
330
A
100
AcDbEntity
  8
AM_8
  6
Continuous
 62
     7
370
     0
100
AcDbLine
 10
49.59720236786944
 20
99.0290261188681
 30
0.0
 11
53.59855423956912
 21
103.0303779905678
 31
0.0
  0
LINE
  5
93
330
A
100
AcDbEntity
  8
AM_8
  6
Continuous
 62
     7
370
     0
100
AcDbLine
 10
50.72577648732593
 20
104.4002399864583
 30
0.0
 11
45.3545626197357
 21
99.0290261188681
 31
0.0
  0
LINE
  5
94
330
A
100
AcDbEntity
  8
AM_8
  6
Continuous
 62
     7
370
     0
100
AcDbLine
 10
43.37031596023854
 20
101.2874192075047
 30
0.0
 11
47.9733317283688
 21
105.890434965635
 31
0.0
  0
LINE
  5
B3
330
A
100
AcDbEntity
  8
PROFILATI-IN-ALLUMINIO
  6
Continuous
 62
     7
370
     0
100
AcDbLine
 10
-15.87967094626144
 20
-4.283912215654495
 30
0.0
 11
-20.87966983626144
 21
-4.283912215654495
 31
0.0
  0
LINE
  5
B4
330
A
100
AcDbEntity
  8
PROFILATI-IN-ALLUMINIO
  6
Continuous
 62
     7
370
     0
100
AcDbLine
 10
-15.87967094626144
 20
4.216085897345514
 30
0.0
 11
-20.87966983626144
 21
4.216085897345514
 31
0.0
  0
LINE
  5
B5
330
A
100
AcDbEntity
  8
PROFILATI-IN-ALLUMINIO
  6
Continuous
 62
     7
370
     0
100
AcDbLine
 10
-15.87967094626144
 20
35.71607890434551
 30
0.0
 11
-20.87966983626144
 21
35.71607890434551
 31
0.0
  0
LINE
  5
B6
330
A
100
AcDbEntity
  8
PROFILATI-IN-ALLUMINIO
  6
Continuous
 62
     7
370
     0
100
AcDbLine
 10
-15.87967094626144
 20
44.21607701734551
 30
0.0
 11
-20.87966983626144
 21
44.21607701734551
 31
0.0
  0
LINE
  5
B7
330
A
100
AcDbEntity
  8
AM_BOR
  6
Continuous
 62
     7
370
     0
100
AcDbLine
 10
55.240896924969
 20
59.96607352084549
 30
0.0
 11
55.240896924969
 21
-20.03390871915453
 31
0.0
  0
CIRCLE
  5
B8
330
A
100
AcDbEntity
  8
PROFILATI-IN-ALLUMINIO
  6
Continuous
 62
     7
370
     0
100
AcDbCircle
 10
39.12031684373855
 20
39.96607796084551
 30
0.0
 40
6.749998501499999
  0
LINE
  5
BD
330
A
100
AcDbEntity
  8
AM_BOR
  6
Continuous
 62
     7
370
     0
100
AcDbLine
 10
46.78831342144294
 20
59.96607352084549
 30
0.0
 11
46.78831342144294
 21
-20.03390871915453
 31
0.0
  0
LINE
  5
BE
330
A
100
AcDbEntity
  8
AM_BOR
  6
Continuous
 62
     7
370
     0
100
AcDbLine
 10
-16.75908709103102
 20
59.96607352084549
 30
0.0
 11
-16.75908709103102
 21
-20.03390871915453
 31
0.0
  0
LINE
  5
BF
330
A
100
AcDbEntity
  8
PROFILATI-IN-ALLUMINIO
  6
Continuous
 62
     7
370
     0
100
AcDbLine
 10
-12.87967161226143
 20
59.96607352084549
 30
0.0
 11
-12.87967161226143
 21
-20.03390871915453
 31
0.0
  0
LINE
  5
C0
330
A
100
AcDbEntity
  8
PROFILATI-IN-ALLUMINIO
  6
Continuous
 62
     7
370
     0
100
AcDbLine
 10
59.12355394301894
 20
43.96606816284747
 30
0.0
 11
59.12030763373962
 21
35.9699342179896
 31
0.0
  0
LINE
  5
C1
330
A
100
AcDbEntity
  8
PROFILATI-IN-ALLUMINIO
  6
Continuous
 62
     7
370
     0
100
AcDbLine
 10
59.12029619374215
 20
-4.033911651154618
 30
0.0
 11
59.12029619374215
 21
3.966088482844952
 31
0.0
  0
CIRCLE
  5
C3
330
A
100
AcDbEntity
  8
PROFILATI-IN-ALLUMINIO
  6
Continuous
 62
     7
370
     0
100
AcDbCircle
 10
39.12031684373855
 20
-0.033913159154487
 30
0.0
 40
6.749998501499999
  0
CIRCLE
  5
C4
330
A
100
AcDbEntity
  8
PROFILATI-IN-ALLUMINIO
  6
Continuous
 62
     7
370
     0
100
AcDbCircle
 10
39.12031684373855
 20
-0.033913159154487
 30
0.0
 40
4.2499990565
  0
CIRCLE
  5
C5
330
A
100
AcDbEntity
  8
PROFILATI-IN-ALLUMINIO
  6
Continuous
 62
     7
370
     0
100
AcDbCircle
 10
39.12031684373855
 20
39.96607796084551
 30
0.0
 40
4.2499990565
  0
CIRCLE
  5
C6
330
A
100
AcDbEntity
  8
PROFILATI-IN-ALLUMINIO
  6
Continuous
 62
     7
370
     0
100
AcDbCircle
 10
-0.8796742762614258
 20
-0.033913159154487
 30
0.0
 40
4.2499990565
  0
CIRCLE
  5
C7
330
A
100
AcDbEntity
  8
PROFILATI-IN-ALLUMINIO
  6
Continuous
 62
     7
370
     0
100
AcDbCircle
 10
-0.8796742762614258
 20
39.96607796084551
 30
0.0
 40
4.2499990565
  0
LINE
  5
C8
330
A
100
AcDbEntity
  8
AM_BOR
  6
Continuous
 62
     7
370
     0
100
AcDbLine
 10
23.48129009560327
 20
53.73830157341119
 30
0.0
 11
23.48129009560327
 21
-12.3364224679968
 31
0.0
  0
LINE
  5
C9
330
A
100
AcDbEntity
  8
PROFILATI-IN-ALLUMINIO
  6
Continuous
 62
     7
370
     0
100
AcDbLine
 10
20.98266608029793
 20
59.96607352084549
 30
0.0
 11
20.98266608029793
 21
-20.03390871915453
 31
0.0
  0
LINE
  5
CA
330
A
100
AcDbEntity
  8
PROFILATI-IN-ALLUMINIO
  6
Continuous
 62
     7
370
     0
100
AcDbLine
 10
43.37031597023852
 20
104.0290250088681
 30
0.0
 11
43.37031597023852
 21
99.0290261188681
 31
0.0
  0
LINE
  5
CB
330
A
100
AcDbEntity
  8
PROFILATI-IN-ALLUMINIO
  6
Continuous
 62
     7
370
     0
100
AcDbLine
 10
34.87031784723856
 20
104.0290250088681
 30
0.0
 11
34.87031784723856
 21
99.0290261188681
 31
0.0
  0
LINE
  5
CD
330
A
100
AcDbEntity
  8
PROFILATI-IN-ALLUMINIO
  6
Continuous
 62
     7
370
     0
100
AcDbLine
 10
-15.87967088626145
 20
154.7790137423681
 30
0.0
 11
-20.87966977626145
 21
154.7790137423681
 31
0.0
  0
LINE
  5
CE
330
A
100
AcDbEntity
  8
PROFILATI-IN-ALLUMINIO
  6
Continuous
 62
     7
370
     0
100
AcDbLine
 10
-15.87967088626145
 20
163.2790118553681
 30
0.0
 11
-20.87966977626145
 21
163.2790118553681
 31
0.0
  0
LINE
  5
D1
330
A
100
AcDbEntity
  8
PROFILATI-IN-ALLUMINIO
  6
Continuous
 62
     7
370
     0
100
AcDbLine
 10
-15.87967088626145
 20
123.2790207353681
 30
0.0
 11
-20.87966977626145
 21
123.2790207353681
 31
0.0
  0
LINE
  5
D2
330
A
100
AcDbEntity
  8
PROFILATI-IN-ALLUMINIO
  6
Continuous
 62
     7
370
     0
100
AcDbLine
 10
-15.87967088626145
 20
114.779022622368
 30
0.0
 11
-20.87966977626145
 21
114.779022622368
 31
0.0
  0
LINE
  5
D5
330
A
100
AcDbEntity
  8
PROFILATI-IN-ALLUMINIO
  6
Continuous
 62
     7
370
     0
100
AcDbLine
 10
3.370324840238566
 20
104.0290250088681
 30
0.0
 11
3.370324840238566
 21
99.0290261188681
 31
0.0
  0
LINE
  5
D6
330
A
100
AcDbEntity
  8
PROFILATI-IN-ALLUMINIO
  6
Continuous
 62
     7
370
     0
100
AcDbLine
 10
-5.129673272761451
 20
104.0290250088681
 30
0.0
 11
-5.129673272761451
 21
99.0290261188681
 31
0.0
  0
LINE
  5
E2
330
A
100
AcDbEntity
  8
DEFAULT
  6
Continuous
 62
     7
370
     0
100
AcDbLine
 10
-15.87967094626144
 20
39.96607796084551
 30
0.0
 11
-15.87967094626144
 21
46.7160764623455
 31
0.0
  0
LINE
  5
E3
330
A
100
AcDbEntity
  8
DEFAULT
  6
HIDDEN2
 62
     7
370
     0
100
AcDbLine
 10
-15.87967094626144
 20
46.7160764623455
 30
0.0
 11
-0.8796742762614258
 21
46.7160764623455
 31
0.0
  0
LINE
  5
E4
330
A
100
AcDbEntity
  8
DEFAULT
  6
Continuous
 62
     7
370
     0
100
AcDbLine
 10
-15.87967094626144
 20
39.96607796084551
 30
0.0
 11
-15.87967094626144
 21
33.21607945934552
 31
0.0
  0
LINE
  5
E5
330
A
100
AcDbEntity
  8
DEFAULT
  6
HIDDEN2
 62
     7
370
     0
100
AcDbLine
 10
-15.87967094626144
 20
33.21607945934552
 30
0.0
 11
-0.8796742762614258
 21
33.21607945934552
 31
0.0
  0
LINE
  5
E6
330
A
100
AcDbEntity
  8
DEFAULT
  6
Continuous
 62
     7
370
     0
100
AcDbLine
 10
-15.87967094626144
 20
-0.033913159154487
 30
0.0
 11
-15.87967094626144
 21
6.716085342345529
 31
0.0
  0
LINE
  5
E7
330
A
100
AcDbEntity
  8
DEFAULT
  6
HIDDEN2
 62
     7
370
     0
100
AcDbLine
 10
-15.87967094626144
 20
6.716085342345522
 30
0.0
 11
-0.8796742762614258
 21
6.716085342345522
 31
0.0
  0
LINE
  5
E8
330
A
100
AcDbEntity
  8
DEFAULT
  6
Continuous
 62
     7
370
     0
100
AcDbLine
 10
-15.87967094626144
 20
-0.033913159154487
 30
0.0
 11
-15.87967094626144
 21
-6.783911660654474
 31
0.0
  0
LINE
  5
E9
330
A
100
AcDbEntity
  8
DEFAULT
  6
HIDDEN2
 62
     7
370
     0
100
AcDbLine
 10
-15.87967094626144
 20
-6.783911660654474
 30
0.0
 11
-0.8796742762614258
 21
-6.783911660654474
 31
0.0
  0
LINE
  5
2EF
330
A
100
AcDbEntity
  8
PROFILATI-IN-ALLUMINIO
  6
Continuous
 62
     7
370
     0
100
AcDbLine
 10
-20.87966983626143
 20
174.0289760888755
 30
0.0
 11
-21.87967056426122
 21
175.4621422707125
 31
0.0
  0
LINE
  5
2F0
330
A
100
AcDbEntity
  8
PROFILATI-IN-ALLUMINIO
  6
Continuous
 62
     7
370
     0
100
AcDbLine
 10
-21.87967056426122
 20
175.4621422707125
 30
0.0
 11
-21.87967056426122
 21
179.0290054888687
 31
0.0
  0
LINE
  5
2F1
330
A
100
AcDbEntity
  8
PROFILATI-IN-ALLUMINIO
  6
Continuous
 62
     7
370
     0
100
AcDbLine
 10
-21.87967056426122
 20
179.0290054888687
 30
0.0
 11
-19.88041678809566
 21
179.0290054888687
 31
0.0
  0
ARC
  5
2F2
330
A
100
AcDbEntity
  8
PROFILATI-IN-ALLUMINIO
  6
Continuous
 62
     7
370
     0
100
AcDbCircle
 10
-19.8804172219309
 20
176.029006577757
 30
0.0
 40
2.999998911111762
100
AcDbArc
 50
359.9857122851232
 51
89.99999171435399
  0
LINE
  5
2F3
330
A
100
AcDbEntity
  8
PROFILATI-IN-ALLUMINIO
  6
Continuous
 62
     7
370
     0
100
AcDbLine
 10
-16.88041840409545
 20
176.0282584750347
 30
0.0
 11
-16.88051377407427
 21
175.6423866806983
 31
0.0
  0
ARC
  5
2F4
330
A
100
AcDbEntity
  8
PROFILATI-IN-ALLUMINIO
  6
Continuous
 62
     7
370
     0
100
AcDbCircle
 10
-6.880514583655013
 20
175.6398943458811
 30
0.0
 40
9.999999501005921
100
AcDbArc
 50
179.9857199725239
 51
226.1920805019859
  0
ARC
  5
2F5
330
A
100
AcDbEntity
  8
PROFILATI-IN-ALLUMINIO
  6
Continuous
 62
     7
370
     0
100
AcDbCircle
 10
-15.87967103913731
 20
166.2582564017539
 30
0.0
 40
2.999998476876052
100
AcDbArc
 50
359.9999999999996
 51
46.1920866816275
  0
LINE
  5
2F6
330
A
100
AcDbEntity
  8
PROFILATI-IN-ALLUMINIO
  6
Continuous
 62
     7
370
     0
100
AcDbLine
 10
-12.87967256226123
 20
166.2582564017539
 30
0.0
 11
-12.87967256226122
 21
140.2716517330031
 31
0.0
  0
ARC
  5
2F7
330
A
100
AcDbEntity
  8
PROFILATI-IN-ALLUMINIO
  6
Continuous
 62
     7
370
     0
100
AcDbCircle
 10
-9.879675031355006
 20
140.2716559432596
 30
0.0
 40
2.999997530909168
100
AcDbArc
 50
180.0000804100413
 51
225.0000038265931
  0
LINE
  5
2F8
330
A
100
AcDbEntity
  8
PROFILATI-IN-ALLUMINIO
  6
Continuous
 62
     7
370
     0
100
AcDbLine
 10
-12.00099348732801
 20
138.1503372039351
 30
0.0
 11
3.12032388573877
 21
123.0290179208687
 31
0.0
  0
LINE
  5
2F9
330
A
100
AcDbEntity
  8
PROFILATI-IN-ALLUMINIO
  6
Continuous
 62
     7
370
     0
100
AcDbLine
 10
3.12032388573877
 20
123.0290179208687
 30
0.0
 11
18.24164124880562
 21
107.9076986478023
 31
0.0
  0
ARC
  5
2FA
330
A
100
AcDbEntity
  8
PROFILATI-IN-ALLUMINIO
  6
Continuous
 62
     7
370
     0
100
AcDbCircle
 10
20.36295923214671
 20
110.0290217656888
 30
0.0
 40
3.000000292820927
100
AcDbArc
 50
225.0000693407172
 51
270.000043463154
  0
LINE
  5
2FB
330
A
100
AcDbEntity
  8
PROFILATI-IN-ALLUMINIO
  6
Continuous
 62
     7
370
     0
100
AcDbLine
 10
20.36296150787237
 20
107.0290214728687
 30
0.0
 11
46.34956614884487
 21
107.0290214728687
 31
0.0
  0
ARC
  5
2FC
330
A
100
AcDbEntity
  8
PROFILATI-IN-ALLUMINIO
  6
Continuous
 62
     7
370
     0
100
AcDbCircle
 10
46.34956582605044
 20
104.0290221973784
 30
0.0
 40
2.99999927549037
100
AcDbArc
 50
43.80791982283248
 51
89.99999383507905
  0
ARC
  5
2FD
330
A
100
AcDbEntity
  8
PROFILATI-IN-ALLUMINIO
  6
Continuous
 62
     7
370
     0
100
AcDbCircle
 10
55.73120701725111
 20
113.0281708056772
 30
0.0
 40
9.99999561353554
100
AcDbArc
 50
223.8078722211235
 51
270.0142415502993
  0
LINE
  5
2FE
330
A
100
AcDbEntity
  8
PROFILATI-IN-ALLUMINIO
  6
Continuous
 62
     7
370
     0
100
AcDbLine
 10
55.73369263556831
 20
103.0281755010567
 30
0.0
 11
56.11956443990476
 21
103.0282746810347
 31
0.0
  0
ARC
  5
2FF
330
A
100
AcDbEntity
  8
PROFILATI-IN-ALLUMINIO
  6
Continuous
 62
     7
370
     0
100
AcDbCircle
 10
56.12031206774554
 20
100.0282753881994
 30
0.0
 40
2.999999385993245
100
AcDbArc
 50
0.0
 51
90.01427864304499
  0
LINE
  5
300
330
A
100
AcDbEntity
  8
PROFILATI-IN-ALLUMINIO
  6
Continuous
 62
     7
370
     0
100
AcDbLine
 10
59.12031145373879
 20
100.0282753881994
 30
0.0
 11
59.12031145373879
 21
99.02902324886873
 31
0.0
  0
LINE
  5
301
330
A
100
AcDbEntity
  8
PROFILATI-IN-ALLUMINIO
  6
Continuous
 62
     7
370
     0
100
AcDbLine
 10
59.12031145373879
 20
99.02902324886873
 30
0.0
 11
59.12030763373962
 21
98.10690431357919
 31
0.0
  0
LINE
  5
302
330
A
100
AcDbEntity
  8
PROFILATI-IN-ALLUMINIO
  6
Continuous
 62
     7
370
     0
100
AcDbLine
 10
59.12030763373962
 20
98.10690431357919
 30
0.0
 11
55.55345204558173
 21
98.10690431357919
 31
0.0
  0
LINE
  5
303
330
A
100
AcDbEntity
  8
PROFILATI-IN-ALLUMINIO
  6
Continuous
 62
     7
370
     0
100
AcDbLine
 10
55.55345204558173
 20
98.10690431357919
 30
0.0
 11
54.23192675896041
 21
99.02902324886873
 31
0.0
  0
LINE
  5
304
330
A
100
AcDbEntity
  8
PROFILATI-IN-ALLUMINIO
  6
Continuous
 62
     7
370
     0
100
AcDbLine
 10
54.23192675896041
 20
99.02902324886873
 30
0.0
 11
-20.87966983626143
 21
99.02902324886873
 31
0.0
  0
LINE
  5
305
330
A
100
AcDbEntity
  8
PROFILATI-IN-ALLUMINIO
  6
Continuous
 62
     7
370
     0
100
AcDbLine
 10
-20.87966983626143
 20
99.02902324886873
 30
0.0
 11
-20.87966983626143
 21
174.0289760888755
 31
0.0
  0
LINE
  5
306
330
A
100
AcDbEntity
  8
PROFILATI-IN-ALLUMINIO
  6
Continuous
 62
     7
370
     0
100
AcDbLine
 10
-20.87966983626143
 20
174.0289760888755
 30
0.0
 11
-20.87966983626143
 21
174.0289760888755
 31
0.0
  0
LINE
  5
307
330
A
100
AcDbEntity
  8
PROFILATI-IN-ALLUMINIO
  6
Continuous
 62
     7
370
     0
100
AcDbLine
 10
6.812601286053023
 20
39.43712175827382
 30
0.0
 11
3.066841397611909
 21
45.44216175515464
 31
0.0
  0
ARC
  5
308
330
A
100
AcDbEntity
  8
PROFILATI-IN-ALLUMINIO
  6
Continuous
 62
     7
370
     0
100
AcDbCircle
 10
-0.8796742784533222
 20
39.9660779592252
 30
0.0
 40
6.74999849788647
100
AcDbArc
 50
54.22038176361333
 51
297.9121612098741
  0
LINE
  5
309
330
A
100
AcDbEntity
  8
PROFILATI-IN-ALLUMINIO
  6
Continuous
 62
     7
370
     0
100
AcDbLine
 10
2.280117372264669
 20
34.00133182501945
 30
0.0
 11
6.812601286053023
 21
39.43712175827381
 31
0.0
  0
LINE
  5
30A
330
A
100
AcDbEntity
  8
PROFILATI-IN-ALLUMINIO
  6
Continuous
 62
     7
370
     0
100
AcDbLine
 10
6.812601286053023
 20
39.43712175827381
 30
0.0
 11
6.812601286053023
 21
39.43712175827382
 31
0.0
  0
LINE
  5
30B
330
A
100
AcDbEntity
  8
PROFILATI-IN-ALLUMINIO
  6
Continuous
 62
     7
370
     0
100
AcDbLine
 10
6.812601286053023
 20
-0.5628693617261718
 30
0.0
 11
3.066841397611895
 21
5.442170635154639
 31
0.0
  0
ARC
  5
30C
330
A
100
AcDbEntity
  8
PROFILATI-IN-ALLUMINIO
  6
Continuous
 62
     7
370
     0
100
AcDbCircle
 10
-0.8796742784533222
 20
-0.0339131607748087
 30
0.0
 40
6.749998497886467
100
AcDbArc
 50
54.22038176361333
 51
297.9121612098741
  0
LINE
  5
30D
330
A
100
AcDbEntity
  8
PROFILATI-IN-ALLUMINIO
  6
Continuous
 62
     7
370
     0
100
AcDbLine
 10
2.280117372264669
 20
-5.998659294980555
 30
0.0
 11
6.812601286053023
 21
-0.5628693617262002
 31
0.0
  0
LINE
  5
30E
330
A
100
AcDbEntity
  8
PROFILATI-IN-ALLUMINIO
  6
Continuous
 62
     7
370
     0
100
AcDbLine
 10
6.812601286053023
 20
-0.5628693617262002
 30
0.0
 11
6.812601286053023
 21
-0.5628693617261718
 31
0.0
  0
LINE
  5
30F
330
A
100
AcDbEntity
  8
PROFILATI-IN-ALLUMINIO
  6
Continuous
 62
     7
370
     0
100
AcDbLine
 10
-7.629672717761437
 20
133.7790184043681
 30
0.0
 11
-7.629672717761437
 21
125.779020180368
 31
0.0
  0
LINE
  5
310
330
A
100
AcDbEntity
  8
PROFILATI-IN-ALLUMINIO
  6
Continuous
 62
     7
370
     0
100
AcDbLine
 10
-7.629672717761437
 20
125.779020180368
 30
0.0
 11
-15.87967088626145
 21
125.779020180368
 31
0.0
  0
LINE
  5
311
330
A
100
AcDbEntity
  8
PROFILATI-IN-ALLUMINIO
  6
Continuous
 62
     7
370
     0
100
AcDbLine
 10
-15.87967088626145
 20
125.779020180368
 30
0.0
 11
-15.87967088626145
 21
112.2790231773681
 31
0.0
  0
LINE
  5
312
330
A
100
AcDbEntity
  8
PROFILATI-IN-ALLUMINIO
  6
Continuous
 62
     7
370
     0
100
AcDbLine
 10
-15.87967088626145
 20
112.2790231773681
 30
0.0
 11
-7.629672717761437
 21
112.2790231773681
 31
0.0
  0
LINE
  5
313
330
A
100
AcDbEntity
  8
PROFILATI-IN-ALLUMINIO
  6
Continuous
 62
     7
370
     0
100
AcDbLine
 10
-7.629672717761437
 20
112.2790231773681
 30
0.0
 11
-7.629672717761437
 21
104.0290250088681
 31
0.0
  0
LINE
  5
314
330
A
100
AcDbEntity
  8
PROFILATI-IN-ALLUMINIO
  6
Continuous
 62
     7
370
     0
100
AcDbLine
 10
-7.629672717761437
 20
104.0290250088681
 30
0.0
 11
5.870324285238538
 21
104.0290250088681
 31
0.0
  0
LINE
  5
315
330
A
100
AcDbEntity
  8
PROFILATI-IN-ALLUMINIO
  6
Continuous
 62
     7
370
     0
100
AcDbLine
 10
5.870324285238538
 20
104.0290250088681
 30
0.0
 11
5.870324285238538
 21
112.2790231773681
 31
0.0
  0
LINE
  5
316
330
A
100
AcDbEntity
  8
PROFILATI-IN-ALLUMINIO
  6
Continuous
 62
     7
370
     0
100
AcDbLine
 10
5.870324285238538
 20
112.2790231773681
 30
0.0
 11
13.87032250923855
 21
112.2790231773681
 31
0.0
  0
LINE
  5
317
330
A
100
AcDbEntity
  8
PROFILATI-IN-ALLUMINIO
  6
Continuous
 62
     7
370
     0
100
AcDbLine
 10
-12.87967155226144
 20
165.7790113003681
 30
0.0
 11
-15.87967088626145
 21
165.7790113003681
 31
0.0
  0
LINE
  5
318
330
A
100
AcDbEntity
  8
PROFILATI-IN-ALLUMINIO
  6
Continuous
 62
     7
370
     0
100
AcDbLine
 10
-15.87967088626145
 20
165.7790113003681
 30
0.0
 11
-15.87967088626145
 21
152.2790142973681
 31
0.0
  0
LINE
  5
319
330
A
100
AcDbEntity
  8
PROFILATI-IN-ALLUMINIO
  6
Continuous
 62
     7
370
     0
100
AcDbLine
 10
-15.87967088626145
 20
152.2790142973681
 30
0.0
 11
-12.87967155226144
 21
152.2790142973681
 31
0.0
  0
LINE
  5
31A
330
A
100
AcDbEntity
  8
PROFILATI-IN-ALLUMINIO
  6
Continuous
 62
     7
370
     0
100
AcDbLine
 10
32.37031841223855
 20
107.0290243428681
 30
0.0
 11
32.37031841223855
 21
104.0290250088681
 31
0.0
  0
LINE
  5
31B
330
A
100
AcDbEntity
  8
PROFILATI-IN-ALLUMINIO
  6
Continuous
 62
     7
370
     0
100
AcDbLine
 10
32.37031841223855
 20
104.0290250088681
 30
0.0
 11
45.87031540523852
 21
104.0290250088681
 31
0.0
  0
LINE
  5
31C
330
A
100
AcDbEntity
  8
PROFILATI-IN-ALLUMINIO
  6
Continuous
 62
     7
370
     0
100
AcDbLine
 10
45.87031540523852
 20
104.0290250088681
 30
0.0
 11
45.87031540523852
 21
107.0290243428681
 31
0.0
  0
LINE
  5
31D
330
A
100
AcDbEntity
  8
PROFILATI-IN-ALLUMINIO
  6
Continuous
 62
     7
370
     0
100
AcDbLine
 10
59.12355394301894
 20
43.96606816284747
 30
0.0
 11
55.24089489496944
 21
43.96606816284747
 31
0.0
  0
LINE
  5
31E
330
A
100
AcDbEntity
  8
PROFILATI-IN-ALLUMINIO
  6
Continuous
 62
     7
370
     0
100
AcDbLine
 10
55.24089489496944
 20
43.96606816284747
 30
0.0
 11
55.24089489496944
 21
35.9699342179896
 31
0.0
  0
LINE
  5
31F
330
A
100
AcDbEntity
  8
PROFILATI-IN-ALLUMINIO
  6
Continuous
 62
     7
370
     0
100
AcDbLine
 10
55.24089489496944
 20
35.9699342179896
 30
0.0
 11
59.12030763373962
 21
35.9699342179896
 31
0.0
  0
LINE
  5
320
330
A
100
AcDbEntity
  8
PROFILATI-IN-ALLUMINIO
  6
Continuous
 62
     7
370
     0
100
AcDbLine
 10
59.12030763373962
 20
35.9699342179896
 30
0.0
 11
59.12029237374304
 21
3.966088482844938
 31
0.0
  0
LINE
  5
321
330
A
100
AcDbEntity
  8
PROFILATI-IN-ALLUMINIO
  6
Continuous
 62
     7
370
     0
100
AcDbLine
 10
59.12029237374304
 20
3.966088482844938
 30
0.0
 11
55.12029326174303
 21
3.966088482844938
 31
0.0
  0
LINE
  5
322
330
A
100
AcDbEntity
  8
PROFILATI-IN-ALLUMINIO
  6
Continuous
 62
     7
370
     0
100
AcDbLine
 10
55.12029326174303
 20
3.966088482844938
 30
0.0
 11
55.12028945174384
 21
-4.033909741155056
 31
0.0
  0
LINE
  5
323
330
A
100
AcDbEntity
  8
PROFILATI-IN-ALLUMINIO
  6
Continuous
 62
     7
370
     0
100
AcDbLine
 10
55.12028945174384
 20
-4.033909741155056
 30
0.0
 11
55.24089489496944
 21
-4.033909741155056
 31
0.0
  0
LINE
  5
324
330
A
100
AcDbEntity
  8
PROFILATI-IN-ALLUMINIO
  6
Continuous
 62
     7
370
     0
100
AcDbLine
 10
55.24089489496944
 20
-4.033909741155056
 30
0.0
 11
59.12029619374215
 21
-4.033909741155056
 31
0.0
  0
LINE
  5
325
330
A
100
AcDbEntity
  8
PROFILATI-IN-ALLUMINIO
  6
Continuous
 62
     7
370
     0
100
AcDbLine
 10
59.12029619374215
 20
-4.033909741155056
 30
0.0
 11
59.12031145373879
 21
-20.03391000915419
 31
0.0
  0
LINE
  5
326
330
A
100
AcDbEntity
  8
PROFILATI-IN-ALLUMINIO
  6
Continuous
 62
     7
370
     0
100
AcDbLine
 10
59.12031145373879
 20
-20.03391000915419
 30
0.0
 11
-20.87967078626121
 21
-20.03391000915419
 31
0.0
  0
LINE
  5
327
330
A
100
AcDbEntity
  8
PROFILATI-IN-ALLUMINIO
  6
Continuous
 62
     7
370
     0
100
AcDbLine
 10
-20.87967078626121
 20
-20.03391000915419
 30
0.0
 11
-20.87967174626101
 21
-4.033913561154207
 31
0.0
  0
LINE
  5
328
330
A
100
AcDbEntity
  8
PROFILATI-IN-ALLUMINIO
  6
Continuous
 62
     7
370
     0
100
AcDbLine
 10
-20.87967174626101
 20
-4.033913561154207
 30
0.0
 11
-21.8796724742608
 21
-4.033915461153782
 31
0.0
  0
LINE
  5
329
330
A
100
AcDbEntity
  8
PROFILATI-IN-ALLUMINIO
  6
Continuous
 62
     7
370
     0
100
AcDbLine
 10
-21.8796724742608
 20
-4.033915461153782
 30
0.0
 11
-21.8796724742608
 21
3.966080852846637
 31
0.0
  0
LINE
  5
32A
330
A
100
AcDbEntity
  8
PROFILATI-IN-ALLUMINIO
  6
Continuous
 62
     7
370
     0
100
AcDbLine
 10
-21.8796724742608
 20
3.966080852846637
 30
0.0
 11
-20.87966983626143
 21
3.966084662845801
 31
0.0
  0
LINE
  5
32B
330
A
100
AcDbEntity
  8
PROFILATI-IN-ALLUMINIO
  6
Continuous
 62
     7
370
     0
100
AcDbLine
 10
-20.87966983626143
 20
3.966084662845801
 30
0.0
 11
-20.87967174626101
 21
35.9660775588458
 31
0.0
  0
LINE
  5
32C
330
A
100
AcDbEntity
  8
PROFILATI-IN-ALLUMINIO
  6
Continuous
 62
     7
370
     0
100
AcDbLine
 10
-20.87967174626101
 20
35.9660775588458
 30
0.0
 11
-21.879671524261
 21
35.9660775588458
 31
0.0
  0
LINE
  5
32D
330
A
100
AcDbEntity
  8
PROFILATI-IN-ALLUMINIO
  6
Continuous
 62
     7
370
     0
100
AcDbLine
 10
-21.879671524261
 20
35.9660775588458
 30
0.0
 11
-21.879671524261
 21
43.96607197284663
 31
0.0
  0
LINE
  5
32E
330
A
100
AcDbEntity
  8
PROFILATI-IN-ALLUMINIO
  6
Continuous
 62
     7
370
     0
100
AcDbLine
 10
-21.879671524261
 20
43.96607197284663
 30
0.0
 11
-20.87967078626121
 21
43.96607578284577
 31
0.0
  0
LINE
  5
32F
330
A
100
AcDbEntity
  8
PROFILATI-IN-ALLUMINIO
  6
Continuous
 62
     7
370
     0
100
AcDbLine
 10
-20.87967078626121
 20
43.96607578284577
 30
0.0
 11
-20.87967078626121
 21
59.96607223084582
 31
0.0
  0
LINE
  5
330
330
A
100
AcDbEntity
  8
PROFILATI-IN-ALLUMINIO
  6
Continuous
 62
     7
370
     0
100
AcDbLine
 10
-20.87967078626121
 20
59.96607223084582
 30
0.0
 11
59.12031145373879
 21
59.96607223084582
 31
0.0
  0
LINE
  5
331
330
A
100
AcDbEntity
  8
PROFILATI-IN-ALLUMINIO
  6
Continuous
 62
     7
370
     0
100
AcDbLine
 10
59.12031145373879
 20
59.96607223084582
 30
0.0
 11
59.12355394301894
 21
43.96606816284747
 31
0.0
  0
LINE
  5
332
330
A
100
AcDbEntity
  8
PROFILATI-IN-ALLUMINIO
  6
Continuous
 62
     7
370
     0
100
AcDbLine
 10
59.12355394301894
 20
43.96606816284747
 30
0.0
 11
59.12355394301894
 21
43.96606816284747
 31
0.0
  0
LINE
  5
333
330
A
100
AcDbEntity
  8
PROFILATI-IN-ALLUMINIO
  6
Continuous
 62
     7
370
     0
100
AcDbLine
 10
55.12029422174279
 20
35.96607502884636
 30
0.0
 11
54.23192389896107
 21
35.96607121884721
 31
0.0
  0
LINE
  5
334
330
A
100
AcDbEntity
  8
PROFILATI-IN-ALLUMINIO
  6
Continuous
 62
     7
370
     0
100
AcDbLine
 10
54.23192389896107
 20
35.96607121884721
 30
0.0
 11
54.23192008896188
 21
43.96606944284719
 31
0.0
  0
LINE
  5
335
330
A
100
AcDbEntity
  8
PROFILATI-IN-ALLUMINIO
  6
Continuous
 62
     7
370
     0
100
AcDbLine
 10
54.23192008896188
 20
43.96606944284719
 30
0.0
 11
55.12029422174279
 21
43.96607325284636
 31
0.0
  0
LINE
  5
336
330
A
100
AcDbEntity
  8
PROFILATI-IN-ALLUMINIO
  6
Continuous
 62
     7
370
     0
100
AcDbLine
 10
-17.87967145226122
 20
43.96607707284551
 30
0.0
 11
-17.87967145226122
 21
35.96608265884466
 31
0.0
  0
LINE
  5
337
330
A
100
AcDbEntity
  8
PROFILATI-IN-ALLUMINIO
  6
Continuous
 62
     7
370
     0
100
AcDbLine
 10
-17.87967145226122
 20
35.96608265884466
 30
0.0
 11
-16.87967167426122
 21
35.96608265884466
 31
0.0
  0
LINE
  5
338
330
A
100
AcDbEntity
  8
PROFILATI-IN-ALLUMINIO
  6
Continuous
 62
     7
370
     0
100
AcDbLine
 10
-16.87967167426122
 20
35.96608265884466
 30
0.0
 11
-16.87967167426122
 21
43.96608088284465
 31
0.0
  0
LINE
  5
339
330
A
100
AcDbEntity
  8
PROFILATI-IN-ALLUMINIO
  6
Continuous
 62
     7
370
     0
100
AcDbLine
 10
-16.87967167426122
 20
43.96608088284465
 30
0.0
 11
-17.87967145226122
 21
43.96607707284551
 31
0.0
  0
LINE
  5
33A
330
A
100
AcDbEntity
  8
PROFILATI-IN-ALLUMINIO
  6
Continuous
 62
     7
370
     0
100
AcDbLine
 10
-17.87967145226122
 20
43.96607707284551
 30
0.0
 11
-17.87967145226122
 21
43.96607707284551
 31
0.0
  0
LINE
  5
33B
330
A
100
AcDbEntity
  8
PROFILATI-IN-ALLUMINIO
  6
Continuous
 62
     7
370
     0
100
AcDbLine
 10
-20.87966983626143
 20
43.96607578284577
 30
0.0
 11
-16.87967263426101
 21
43.96607960284493
 31
0.0
  0
LINE
  5
33C
330
A
100
AcDbEntity
  8
PROFILATI-IN-ALLUMINIO
  6
Continuous
 62
     7
370
     0
100
AcDbLine
 10
-16.87967263426101
 20
43.96607960284493
 30
0.0
 11
-16.88041935409524
 21
35.96608137884495
 31
0.0
  0
LINE
  5
33D
330
A
100
AcDbEntity
  8
PROFILATI-IN-ALLUMINIO
  6
Continuous
 62
     7
370
     0
100
AcDbLine
 10
-16.88041935409524
 20
35.96608137884495
 30
0.0
 11
-20.87966983626143
 21
35.9660775588458
 31
0.0
  0
LINE
  5
33E
330
A
100
AcDbEntity
  8
PROFILATI-IN-ALLUMINIO
  6
Continuous
 62
     7
370
     0
100
AcDbLine
 10
55.12029422174279
 20
3.966089762844653
 30
0.0
 11
54.23192389896107
 21
3.966093582843818
 31
0.0
  0
LINE
  5
33F
330
A
100
AcDbEntity
  8
PROFILATI-IN-ALLUMINIO
  6
Continuous
 62
     7
370
     0
100
AcDbLine
 10
54.23192389896107
 20
3.966093582843818
 30
0.0
 11
54.23192008896188
 21
-4.033904641156169
 31
0.0
  0
LINE
  5
340
330
A
100
AcDbEntity
  8
PROFILATI-IN-ALLUMINIO
  6
Continuous
 62
     7
370
     0
100
AcDbLine
 10
54.23192008896188
 20
-4.033904641156169
 30
0.0
 11
55.12029422174279
 21
-4.033908461155334
 31
0.0
  0
LINE
  5
341
330
A
100
AcDbEntity
  8
PROFILATI-IN-ALLUMINIO
  6
Continuous
 62
     7
370
     0
100
AcDbLine
 10
-17.87967145226122
 20
-4.033912271154484
 30
0.0
 11
-17.87967145226122
 21
3.966082132846352
 31
0.0
  0
LINE
  5
342
330
A
100
AcDbEntity
  8
PROFILATI-IN-ALLUMINIO
  6
Continuous
 62
     7
370
     0
100
AcDbLine
 10
-17.87967145226122
 20
3.966082132846352
 30
0.0
 11
-16.87967167426122
 21
3.966082132846352
 31
0.0
  0
LINE
  5
343
330
A
100
AcDbEntity
  8
PROFILATI-IN-ALLUMINIO
  6
Continuous
 62
     7
370
     0
100
AcDbLine
 10
-16.87967167426122
 20
3.966082132846352
 30
0.0
 11
-16.87967167426122
 21
-4.033916091153635
 31
0.0
  0
LINE
  5
344
330
A
100
AcDbEntity
  8
PROFILATI-IN-ALLUMINIO
  6
Continuous
 62
     7
370
     0
100
AcDbLine
 10
-16.87967167426122
 20
-4.033916091153635
 30
0.0
 11
-17.87967145226122
 21
-4.033912271154484
 31
0.0
  0
LINE
  5
345
330
A
100
AcDbEntity
  8
PROFILATI-IN-ALLUMINIO
  6
Continuous
 62
     7
370
     0
100
AcDbLine
 10
-17.87967145226122
 20
-4.033912271154484
 30
0.0
 11
-17.87967145226122
 21
-4.033912271154484
 31
0.0
  0
LINE
  5
346
330
A
100
AcDbEntity
  8
PROFILATI-IN-ALLUMINIO
  6
Continuous
 62
     7
370
     0
100
AcDbLine
 10
-20.87966983626143
 20
-4.033913561154207
 30
0.0
 11
-16.88041935409524
 21
-4.033909741155056
 31
0.0
  0
LINE
  5
347
330
A
100
AcDbEntity
  8
PROFILATI-IN-ALLUMINIO
  6
Continuous
 62
     7
370
     0
100
AcDbLine
 10
-16.88041935409524
 20
-4.033909741155056
 30
0.0
 11
-16.87967263426101
 21
3.966084662845801
 31
0.0
  0
LINE
  5
348
330
A
100
AcDbEntity
  8
PROFILATI-IN-ALLUMINIO
  6
Continuous
 62
     7
370
     0
100
AcDbLine
 10
-16.87967263426101
 20
3.966084662845801
 30
0.0
 11
-20.87966983626143
 21
3.966084662845801
 31
0.0
  0
ENDSEC
  0
SECTION
  2
OBJECTS
  0
DICTIONARY
  5
19
330
0
100
AcDbDictionary
281
     1
  3
ACAD_COLOR
350
205
  3
ACAD_GROUP
350
1A
  3
ACAD_LAYOUT
350
1E
  3
ACAD_MATERIAL
350
1D8
  3
ACAD_MLEADERSTYLE
350
23B
  3
ACAD_MLINESTYLE
350
1B
  3
ACAD_PLOTSETTINGS
350
22
  3
ACAD_PLOTSTYLENAME
350
1F
  3
ACAD_SCALELIST
350
206
  3
ACAD_TABLESTYLE
350
235
  3
ACAD_VISUALSTYLE
350
1F1
  3
ACAD_WIPEOUT_VARS
350
23
  3
ACDB_RECOMPOSE_DATA
350
34D
  3
AcDbVariableDictionary
350
1D6
  3
AEC_PROPERTY_SET_DEFS
350
26B
  3
ASE_INDEX_DICTIONARY
350
292
  3
DWGPROPS
350
34E
  3
qs_topprt_diz
350
243
  3
QSCATDICT
350
240
  3
QsPallStyleDict
350
242
  3
QsTop499
350
28E
  3
TopSpotLight
350
24A
  0
DICTIONARY
  5
29B
330
7
100
AcDbDictionary
280
     1
281
     1
  0
DICTIONARY
  5
26C
330
14
100
AcDbDictionary
280
     1
281
     1
  3
ADSK_XREC_LAYER_RECONCILED
360
26D
  0
DICTIONARY
  5
26E
330
2D
100
AcDbDictionary
280
     1
281
     1
  3
ADSK_XREC_LAYER_RECONCILED
360
26F
  0
DICTIONARY
  5
270
330
2F
100
AcDbDictionary
280
     1
281
     1
  3
ADSK_XREC_LAYER_RECONCILED
360
271
  0
DICTIONARY
  5
272
330
31
100
AcDbDictionary
280
     1
281
     1
  3
ADSK_XREC_LAYER_RECONCILED
360
273
  0
DICTIONARY
  5
274
330
33
100
AcDbDictionary
280
     1
281
     1
  3
ADSK_XREC_LAYER_RECONCILED
360
275
  0
DICTIONARY
  5
276
330
35
100
AcDbDictionary
280
     1
281
     1
  3
ADSK_XREC_LAYER_RECONCILED
360
277
  0
DICTIONARY
  5
278
330
37
100
AcDbDictionary
280
     1
281
     1
  3
ADSK_XREC_LAYER_RECONCILED
360
279
  0
DICTIONARY
  5
27A
330
39
100
AcDbDictionary
280
     1
281
     1
  3
ADSK_XREC_LAYER_RECONCILED
360
27B
  0
DICTIONARY
  5
27C
330
3B
100
AcDbDictionary
280
     1
281
     1
  3
ADSK_XREC_LAYER_RECONCILED
360
27D
  0
DICTIONARY
  5
27E
330
3D
100
AcDbDictionary
280
     1
281
     1
  3
ADSK_XREC_LAYER_RECONCILED
360
27F
  0
DICTIONARY
  5
280
330
3F
100
AcDbDictionary
280
     1
281
     1
  3
ADSK_XREC_LAYER_RECONCILED
360
281
  0
DICTIONARY
  5
282
330
41
100
AcDbDictionary
280
     1
281
     1
  3
ADSK_XREC_LAYER_RECONCILED
360
283
  0
DICTIONARY
  5
284
330
45
100
AcDbDictionary
280
     1
281
     1
  3
ADSK_XREC_LAYER_RECONCILED
360
285
  0
DICTIONARY
  5
286
330
47
100
AcDbDictionary
280
     1
281
     1
  3
ADSK_XREC_LAYER_RECONCILED
360
287
  0
DICTIONARY
  5
288
330
49
100
AcDbDictionary
280
     1
281
     1
  3
ADSK_XREC_LAYER_RECONCILED
360
289
  0
DICTIONARY
  5
28A
330
4B
100
AcDbDictionary
280
     1
281
     1
  3
ADSK_XREC_LAYER_RECONCILED
360
28B
  0
DICTIONARY
  5
28C
330
245
100
AcDbDictionary
280
     1
281
     1
  3
ADSK_XREC_LAYER_RECONCILED
360
28D
  0
DICTIONARY
  5
205
102
{ACAD_REACTORS
330
19
102
}
330
19
100
AcDbDictionary
281
     1
  0
DICTIONARY
  5
1A
102
{ACAD_REACTORS
330
19
102
}
330
19
100
AcDbDictionary
281
     1
  0
DICTIONARY
  5
1E
102
{ACAD_REACTORS
330
19
102
}
330
19
100
AcDbDictionary
281
     1
  3
Layout1
350
21
  3
Model
350
20
  0
DICTIONARY
  5
1D8
102
{ACAD_REACTORS
330
19
102
}
330
19
100
AcDbDictionary
281
     1
  3
ByBlock
350
1E1
  3
ByLayer
350
1D9
  3
Global
350
1E9
  0
DICTIONARY
  5
23B
102
{ACAD_REACTORS
330
19
102
}
330
19
100
AcDbDictionary
281
     1
  3
Standard
350
23C
  0
DICTIONARY
  5
1B
102
{ACAD_REACTORS
330
19
102
}
330
19
100
AcDbDictionary
281
     1
  3
Standard
350
1C
  0
DICTIONARY
  5
22
102
{ACAD_REACTORS
330
19
102
}
330
19
100
AcDbDictionary
281
     1
  3
Kyocera_1010 OR
350
25F
  3
Kyocera_1010 VER
350
260
  3
Olivetti_200 A3
350
261
  3
Olivetti_200 A4
350
262
  3
PLOTTER
350
263
  0
ACDBDICTIONARYWDFLT
  5
1F
102
{ACAD_REACTORS
330
19
102
}
330
19
100
AcDbDictionary
281
     1
  3
Normal
350
1D
100
AcDbDictionaryWithDefault
340
1D
  0
DICTIONARY
  5
206
102
{ACAD_REACTORS
330
19
102
}
330
19
100
AcDbDictionary
281
     1
  3
A0
350
207
  3
A1
350
208
  3
A2
350
209
  3
A3
350
20A
  3
A4
350
20B
  3
A5
350
20C
  3
A6
350
20D
  3
A7
350
20E
  3
A8
350
20F
  3
A9
350
210
  3
B0
350
211
  3
B1
350
212
  3
B2
350
213
  3
B3
350
214
  3
B4
350
215
  3
B5
350
216
  3
B6
350
217
  3
B7
350
218
  3
B8
350
219
  3
B9
350
21A
  3
C0
350
21B
  3
C1
350
21C
  3
C2
350
21D
  3
C3
350
21E
  3
C4
350
21F
  3
C5
350
220
  3
C6
350
221
  3
C7
350
222
  3
C8
350
223
  3
C9
350
224
  3
D0
350
225
  3
D1
350
226
  3
D2
350
227
  0
DICTIONARY
  5
235
102
{ACAD_REACTORS
330
19
102
}
330
19
100
AcDbDictionary
281
     1
  3
QSTABFORI
350
264
  3
QSTABREGION
350
266
  3
Standard
350
236
  0
DICTIONARY
  5
1F1
102
{ACAD_REACTORS
330
19
102
}
330
19
100
AcDbDictionary
281
     1
  3
2dWireframe
350
1F7
  3
3D Hidden
350
1F9
  3
3dWireframe
350
1F8
  3
Basic
350
1F6
  3
Brighten
350
1FD
  3
ColorChange
350
201
  3
Conceptual
350
1FA
  3
Dim
350
1FC
  3
EdgeColorOff
350
204
  3
Facepattern
350
200
  3
Flat
350
1F2
  3
FlatWithEdges
350
1F3
  3
Gouraud
350
1F4
  3
GouraudWithEdges
350
1F5
  3
Hidden
350
2E0
  3
JitterOff
350
202
  3
Linepattern
350
1FF
  3
OverhangOff
350
203
  3
Realistic
350
1FB
  3
Shaded
350
2E5
  3
Shaded with edges
350
2E4
  3
Shades of Gray
350
2E1
  3
Sketchy
350
2E2
  3
Thicken
350
1FE
  3
Wireframe
350
2DF
  3
X-Ray
350
2E3
  0
WIPEOUTVARIABLES
  5
23
330
19
100
AcDbWipeoutVariables
 70
     1
  0
XRECORD
  5
34D
102
{ACAD_REACTORS
330
19
102
}
330
19
100
AcDbXrecord
280
     1
 90
        1
330
236
330
264
330
266
  0
DICTIONARY
  5
1D6
330
19
100
AcDbDictionary
281
     0
  3
CANNOSCALE
350
2DA
  3
CMLEADERSTYLE
350
2D8
  3
CTABLESTYLE
350
2D7
  3
DIMASSOC
350
1D7
  3
DRAWORDERCTL
350
2D9
  3
INDEXCTL
350
2DC
  3
SORTENTS
350
2DB
  3
XCLIPFRAME
350
349
  0
DICTIONARY
  5
26B
102
{ACAD_REACTORS
330
19
102
}
330
19
100
AcDbDictionary
281
     1
  0
DICTIONARY
  5
292
102
{ACAD_REACTORS
330
19
102
}
330
19
100
AcDbDictionary
281
     1
  3
ASEBlockHierarchyIndexRecord
350
294
1001
DCO15
1040
1707124021.005
  0
XRECORD
  5
34E
102
{ACAD_REACTORS
330
19
102
}
330
19
100
AcDbXrecord
280
     1
  1
DWGPROPS COOKIE
  2

  3

  4

  6

  7

  8
mpistoia
  9

300
=
301
=
302
=
303
=
304
=
305
=
306
=
307
=
308
=
309
=
 40
0.0011396527777778
 41
2455561.591566875
 42
2455637.660852222
  1

 90
        0
  0
DICTIONARY
  5
243
102
{ACAD_REACTORS
330
19
102
}
330
19
100
AcDbDictionary
281
     1
  3
UCNT
350
244
  0
DICTIONARY
  5
240
102
{ACAD_REACTORS
330
19
102
}
330
19
100
AcDbDictionary
281
     1
  3
DEFAULT
350
241
  0
DICTIONARY
  5
242
102
{ACAD_REACTORS
330
19
102
}
330
19
100
AcDbDictionary
281
     1
  0
DICTIONARY
  5
28E
102
{ACAD_REACTORS
330
19
102
}
330
19
100
AcDbDictionary
281
     1
  3
TOP
350
290
  3
X3469
350
28F
  0
DICTIONARY
  5
24A
102
{ACAD_REACTORS
330
19
102
}
330
19
100
AcDbDictionary
281
     1
  3
colors
350
24B
  0
XRECORD
  5
26D
102
{ACAD_REACTORS
330
26C
102
}
330
26C
100
AcDbXrecord
280
     1
290
     1
  0
XRECORD
  5
26F
102
{ACAD_REACTORS
330
26E
102
}
330
26E
100
AcDbXrecord
280
     1
290
     1
  0
XRECORD
  5
271
102
{ACAD_REACTORS
330
270
102
}
330
270
100
AcDbXrecord
280
     1
290
     1
  0
XRECORD
  5
273
102
{ACAD_REACTORS
330
272
102
}
330
272
100
AcDbXrecord
280
     1
290
     1
  0
XRECORD
  5
275
102
{ACAD_REACTORS
330
274
102
}
330
274
100
AcDbXrecord
280
     1
290
     1
  0
XRECORD
  5
277
102
{ACAD_REACTORS
330
276
102
}
330
276
100
AcDbXrecord
280
     1
290
     1
  0
XRECORD
  5
279
102
{ACAD_REACTORS
330
278
102
}
330
278
100
AcDbXrecord
280
     1
290
     1
  0
XRECORD
  5
27B
102
{ACAD_REACTORS
330
27A
102
}
330
27A
100
AcDbXrecord
280
     1
290
     1
  0
XRECORD
  5
27D
102
{ACAD_REACTORS
330
27C
102
}
330
27C
100
AcDbXrecord
280
     1
290
     1
  0
XRECORD
  5
27F
102
{ACAD_REACTORS
330
27E
102
}
330
27E
100
AcDbXrecord
280
     1
290
     1
  0
XRECORD
  5
281
102
{ACAD_REACTORS
330
280
102
}
330
280
100
AcDbXrecord
280
     1
290
     1
  0
XRECORD
  5
283
102
{ACAD_REACTORS
330
282
102
}
330
282
100
AcDbXrecord
280
     1
290
     1
  0
XRECORD
  5
285
102
{ACAD_REACTORS
330
284
102
}
330
284
100
AcDbXrecord
280
     1
290
     1
  0
XRECORD
  5
287
102
{ACAD_REACTORS
330
286
102
}
330
286
100
AcDbXrecord
280
     1
290
     1
  0
XRECORD
  5
289
102
{ACAD_REACTORS
330
288
102
}
330
288
100
AcDbXrecord
280
     1
290
     1
  0
XRECORD
  5
28B
102
{ACAD_REACTORS
330
28A
102
}
330
28A
100
AcDbXrecord
280
     1
290
     1
  0
XRECORD
  5
28D
102
{ACAD_REACTORS
330
28C
102
}
330
28C
100
AcDbXrecord
280
     1
290
     1
  0
LAYOUT
  5
21
102
{ACAD_XDICTIONARY
360
351
102
}
102
{ACAD_REACTORS
330
1E
102
}
330
1E
100
AcDbPlotSettings
  1

  2

  4

  6

 40
0.0
 41
0.0
 42
0.0
 43
0.0
 44
0.0
 45
0.0
 46
0.0
 47
0.0
 48
0.0
 49
0.0
140
0.0
141
0.0
142
1.0
143
1.0
 70
     0
 72
     0
 73
     0
 74
     0
  7

 75
     0
147
1.0
148
0.0
149
0.0
100
AcDbLayout
  1
Layout1
 70
     0
 71
     1
 10
0.0
 20
0.0
 11
12.0
 21
9.0
 12
0.0
 22
0.0
 32
0.0
 14
1.000000000000000E+20
 24
1.000000000000000E+20
 34
1.000000000000000E+20
 15
-1.000000000000000E+20
 25
-1.000000000000000E+20
 35
-1.000000000000000E+20
146
0.0
 13
0.0
 23
0.0
 33
0.0
 16
1.0
 26
0.0
 36
0.0
 17
0.0
 27
1.0
 37
0.0
 76
     0
330
B
  0
LAYOUT
  5
20
102
{ACAD_XDICTIONARY
360
34F
102
}
102
{ACAD_REACTORS
330
1E
102
}
330
1E
100
AcDbPlotSettings
  1

  2

  4

  6

 40
0.0
 41
0.0
 42
0.0
 43
0.0
 44
0.0
 45
0.0
 46
0.0
 47
0.0
 48
0.0
 49
0.0
140
0.0
141
0.0
142
1.0
143
1.0
 70
  1024
 72
     0
 73
     0
 74
     0
  7

 75
     0
147
1.0
148
0.0
149
0.0
100
AcDbLayout
  1
Model
 70
     0
 71
     0
 10
0.0
 20
0.0
 11
0.0
 21
0.0
 12
0.0
 22
0.0
 32
0.0
 14
0.0
 24
0.0
 34
0.0
 15
0.0
 25
0.0
 35
0.0
146
0.0
 13
0.0
 23
0.0
 33
0.0
 16
0.0
 26
0.0
 36
0.0
 17
0.0
 27
0.0
 37
0.0
 76
     0
330
A
331
15
  0
MATERIAL
  5
1E1
102
{ACAD_XDICTIONARY
360
1E2
102
}
102
{ACAD_REACTORS
330
1D8
102
}
330
1D8
100
AcDbMaterial
  1
ByBlock
 72
     0
 43
0.0208333333333333
 43
0.0
 43
0.0
 43
0.0
 43
0.0
 43
0.0208333333333333
 43
0.0
 43
0.0
 43
0.0
 43
0.0
 43
1.0
 43
0.0
 43
0.0
 43
0.0
 43
0.0
 43
1.0
 77
     0
 47
0.0208333333333333
 47
0.0
 47
0.0
 47
0.0
 47
0.0
 47
0.0208333333333333
 47
0.0
 47
0.0
 47
0.0
 47
0.0
 47
1.0
 47
0.0
 47
0.0
 47
0.0
 47
0.0
 47
1.0
171
     0
 49
0.0208333333333333
 49
0.0
 49
0.0
 49
0.0
 49
0.0
 49
0.0208333333333333
 49
0.0
 49
0.0
 49
0.0
 49
0.0
 49
1.0
 49
0.0
 49
0.0
 49
0.0
 49
0.0
 49
1.0
175
     0
142
0.0208333333333333
142
0.0
142
0.0
142
0.0
142
0.0
142
0.0208333333333333
142
0.0
142
0.0
142
0.0
142
0.0
142
1.0
142
0.0
142
0.0
142
0.0
142
0.0
142
1.0
179
     0
144
0.0208333333333333
144
0.0
144
0.0
144
0.0
144
0.0
144
0.0208333333333333
144
0.0
144
0.0
144
0.0
144
0.0
144
1.0
144
0.0
144
0.0
144
0.0
144
0.0
144
1.0
147
0.0208333333333333
147
0.0
147
0.0
147
0.0
147
0.0
147
0.0208333333333333
147
0.0
147
0.0
147
0.0
147
0.0
147
1.0
147
0.0
147
0.0
147
0.0
147
0.0
147
1.0
  0
MATERIAL
  5
1D9
102
{ACAD_XDICTIONARY
360
1DA
102
}
102
{ACAD_REACTORS
330
1D8
102
}
330
1D8
100
AcDbMaterial
  1
ByLayer
 72
     0
 43
0.0208333333333333
 43
0.0
 43
0.0
 43
0.0
 43
0.0
 43
0.0208333333333333
 43
0.0
 43
0.0
 43
0.0
 43
0.0
 43
1.0
 43
0.0
 43
0.0
 43
0.0
 43
0.0
 43
1.0
 77
     0
 47
0.0208333333333333
 47
0.0
 47
0.0
 47
0.0
 47
0.0
 47
0.0208333333333333
 47
0.0
 47
0.0
 47
0.0
 47
0.0
 47
1.0
 47
0.0
 47
0.0
 47
0.0
 47
0.0
 47
1.0
171
     0
 49
0.0208333333333333
 49
0.0
 49
0.0
 49
0.0
 49
0.0
 49
0.0208333333333333
 49
0.0
 49
0.0
 49
0.0
 49
0.0
 49
1.0
 49
0.0
 49
0.0
 49
0.0
 49
0.0
 49
1.0
175
     0
142
0.0208333333333333
142
0.0
142
0.0
142
0.0
142
0.0
142
0.0208333333333333
142
0.0
142
0.0
142
0.0
142
0.0
142
1.0
142
0.0
142
0.0
142
0.0
142
0.0
142
1.0
179
     0
144
0.0208333333333333
144
0.0
144
0.0
144
0.0
144
0.0
144
0.0208333333333333
144
0.0
144
0.0
144
0.0
144
0.0
144
1.0
144
0.0
144
0.0
144
0.0
144
0.0
144
1.0
147
0.0208333333333333
147
0.0
147
0.0
147
0.0
147
0.0
147
0.0208333333333333
147
0.0
147
0.0
147
0.0
147
0.0
147
1.0
147
0.0
147
0.0
147
0.0
147
0.0
147
1.0
  0
MATERIAL
  5
1E9
102
{ACAD_XDICTIONARY
360
1EA
102
}
102
{ACAD_REACTORS
330
1D8
102
}
330
1D8
100
AcDbMaterial
  1
Global
 72
     0
 43
0.0208333333333333
 43
0.0
 43
0.0
 43
0.0
 43
0.0
 43
0.0208333333333333
 43
0.0
 43
0.0
 43
0.0
 43
0.0
 43
1.0
 43
0.0
 43
0.0
 43
0.0
 43
0.0
 43
1.0
 77
     0
 47
0.0208333333333333
 47
0.0
 47
0.0
 47
0.0
 47
0.0
 47
0.0208333333333333
 47
0.0
 47
0.0
 47
0.0
 47
0.0
 47
1.0
 47
0.0
 47
0.0
 47
0.0
 47
0.0
 47
1.0
171
     0
 49
0.0208333333333333
 49
0.0
 49
0.0
 49
0.0
 49
0.0
 49
0.0208333333333333
 49
0.0
 49
0.0
 49
0.0
 49
0.0
 49
1.0
 49
0.0
 49
0.0
 49
0.0
 49
0.0
 49
1.0
175
     0
142
0.0208333333333333
142
0.0
142
0.0
142
0.0
142
0.0
142
0.0208333333333333
142
0.0
142
0.0
142
0.0
142
0.0
142
1.0
142
0.0
142
0.0
142
0.0
142
0.0
142
1.0
179
     0
144
0.0208333333333333
144
0.0
144
0.0
144
0.0
144
0.0
144
0.0208333333333333
144
0.0
144
0.0
144
0.0
144
0.0
144
1.0
144
0.0
144
0.0
144
0.0
144
0.0
144
1.0
147
0.0208333333333333
147
0.0
147
0.0
147
0.0
147
0.0
147
0.0208333333333333
147
0.0
147
0.0
147
0.0
147
0.0
147
1.0
147
0.0
147
0.0
147
0.0
147
0.0
147
1.0
  0
MLEADERSTYLE
  5
23C
102
{ACAD_REACTORS
330
23B
102
}
330
23B
100
AcDbMLeaderStyle
170
     2
171
     1
172
     0
 90
        2
 40
0.0
 41
0.0
173
     1
 91
-1056964608
340
11
 92
       -2
290
     1
 42
0.09
291
     1
 43
0.36
  3
Standard
 44
0.18
300

342
17
174
     1
178
     6
175
     1
176
     0
 93
-1056964608
 45
0.18
292
     0
297
     0
 46
0.18
 94
-1056964608
 47
1.0
 49
1.0
140
1.0
293
     1
141
0.0
294
     1
177
     0
142
1.0
295
     0
296
     0
143
0.125
1001
ACAD_MLEADERVER
1070
     2
  0
MLINESTYLE
  5
1C
102
{ACAD_REACTORS
330
1B
102
}
330
1B
100
AcDbMlineStyle
  2
STANDARD
 70
     0
  3

 62
     0
 51
90.0
 52
90.0
 71
     2
 49
0.5
 62
   256
  6
BYLAYER
 49
-0.5
 62
   256
  6
BYLAYER
  0
PLOTSETTINGS
  5
25F
102
{ACAD_XDICTIONARY
360
37D
102
}
102
{ACAD_REACTORS
330
22
102
}
330
22
100
AcDbPlotSettings
  1
Kyocera_1010 OR
  2
Kyocera_1010.pc3
  4
A4
  6

 40
4.984749794006347
 41
5.154074668884277
 42
5.111740112304687
 43
4.9847412109375
 44
210.0156707763672
 45
297.0106506347656
 46
0.0
 47
109.7870247470818
 48
0.0
 49
0.0
140
0.0
141
0.0
142
1.0
143
0.6770771918566143
 70
 11956
 72
     1
 73
     1
 74
     1
  7
DIERRE BN.ctb
 75
     0
147
1.476936473458659
148
-222.4649060220283
149
-239.0808115236937
1001
ACAD_PSEXT
1000
Kyocera_1010.pc3
1000
Kyocera Mita FS-1010 KX
1000
\\PC5
1000

1070
     0
  0
PLOTSETTINGS
  5
260
102
{ACAD_XDICTIONARY
360
37F
102
}
102
{ACAD_REACTORS
330
22
102
}
330
22
100
AcDbPlotSettings
  1
Kyocera_1010 VER
  2
Kyocera_1010.pc3
  4
A4
  6

 40
4.984749794006347
 41
5.154074668884277
 42
5.111740112304687
 43
4.9847412109375
 44
210.0156707763672
 45
297.0106506347656
 46
51.67548120477697
 47
0.0
 48
0.0
 49
0.0
140
0.0
141
0.0
142
1.0
143
0.4718508448115938
 70
 11956
 72
     1
 73
     0
 74
     1
  7
DIERRE BN.ctb
 75
     0
147
2.119313785268927
148
-222.4649060220283
149
-239.0808115236937
1001
ACAD_PSEXT
1000
Kyocera_1010.pc3
1000
Kyocera Mita FS-1010 KX
1000
\\PC5
1000

1070
     0
  0
PLOTSETTINGS
  5
261
102
{ACAD_XDICTIONARY
360
381
102
}
102
{ACAD_REACTORS
330
22
102
}
330
22
100
AcDbPlotSettings
  1
Olivetti_200 A3
  2
Olivetti_200.pc3
  4
A3
  6

 40
4.984749794006347
 41
5.111746788024902
 42
5.154083251953125
 43
4.9847412109375
 44
297.0106506347656
 45
419.9889831542968
 46
0.0
 47
156.6621412366913
 48
0.0
 49
0.0
140
0.0
141
0.0
142
1.0
143
0.4718508730467012
 70
 11956
 72
     1
 73
     1
 74
     1
  7
DIERRE BN.ctb
 75
     0
147
2.119313658451206
148
-222.4649060220283
149
-239.0808115236937
1001
ACAD_PSEXT
1000
Olivetti_200.pc3
1000
Olivetti d-Copia 200MF KX
1000
IP_192.168.1.151
1000

1070
     0
  0
PLOTSETTINGS
  5
262
102
{ACAD_XDICTIONARY
360
383
102
}
102
{ACAD_REACTORS
330
22
102
}
330
22
100
AcDbPlotSettings
  1
Olivetti_200 A4
  2
Olivetti_200.pc3
  4
A4
  6

 40
4.984749794006347
 41
5.154074668884277
 42
5.111740112304687
 43
4.9847412109375
 44
210.0156707763672
 45
297.0106506347656
 46
51.67548120477697
 47
0.0
 48
0.0
 49
0.0
140
0.0
141
0.0
142
1.0
143
0.4718508448115938
 70
 11956
 72
     1
 73
     0
 74
     1
  7
DIERRE BN.ctb
 75
     0
147
2.119313785268927
148
-222.4649060220283
149
-239.0808115236937
1001
ACAD_PSEXT
1000
Olivetti_200.pc3
1000
Olivetti d-Copia 200MF KX
1000
IP_192.168.1.151
1000

1070
     0
  0
PLOTSETTINGS
  5
263
102
{ACAD_XDICTIONARY
360
385
102
}
102
{ACAD_REACTORS
330
22
102
}
330
22
100
AcDbPlotSettings
  1
PLOTTER
  2
PLOTTER.pc3
  4
User622
  6

 40
0.0
 41
0.0
 42
0.0
 43
0.0
 44
841.0
 45
1189.0
 46
0.0
 47
0.0
 48
0.0
 49
0.0
140
0.0
141
0.0
142
1.0
143
1.0
 70
 11936
 72
     1
 73
     0
 74
     1
  7
DIERRE BN.ctb
 75
     0
147
2.194137304425714
148
-222.4649060220283
149
-239.0808115236937
1001
ACAD_PSEXT
1000
PLOTTER.pc3
1000
HP DesignJet 430 (E/A0) by HP
1000
\\SERVER2003
1000

1070
     0
  0
ACDBPLACEHOLDER
  5
1D
102
{ACAD_REACTORS
330
1F
102
}
330
1F
  0
SCALE
  5
207
102
{ACAD_REACTORS
330
206
102
}
330
206
100
AcDbScale
 70
     0
300
1:1
140
1.0
141
1.0
290
     1
  0
SCALE
  5
208
102
{ACAD_REACTORS
330
206
102
}
330
206
100
AcDbScale
 70
     0
300
1:2
140
1.0
141
2.0
290
     0
  0
SCALE
  5
209
102
{ACAD_REACTORS
330
206
102
}
330
206
100
AcDbScale
 70
     0
300
1:4
140
1.0
141
4.0
290
     0
  0
SCALE
  5
20A
102
{ACAD_REACTORS
330
206
102
}
330
206
100
AcDbScale
 70
     0
300
1:5
140
1.0
141
5.0
290
     0
  0
SCALE
  5
20B
102
{ACAD_REACTORS
330
206
102
}
330
206
100
AcDbScale
 70
     0
300
1:8
140
1.0
141
8.0
290
     0
  0
SCALE
  5
20C
102
{ACAD_REACTORS
330
206
102
}
330
206
100
AcDbScale
 70
     0
300
1:10
140
1.0
141
10.0
290
     0
  0
SCALE
  5
20D
102
{ACAD_REACTORS
330
206
102
}
330
206
100
AcDbScale
 70
     0
300
1:16
140
1.0
141
16.0
290
     0
  0
SCALE
  5
20E
102
{ACAD_REACTORS
330
206
102
}
330
206
100
AcDbScale
 70
     0
300
1:20
140
1.0
141
20.0
290
     0
  0
SCALE
  5
20F
102
{ACAD_REACTORS
330
206
102
}
330
206
100
AcDbScale
 70
     0
300
1:30
140
1.0
141
30.0
290
     0
  0
SCALE
  5
210
102
{ACAD_REACTORS
330
206
102
}
330
206
100
AcDbScale
 70
     0
300
1:40
140
1.0
141
40.0
290
     0
  0
SCALE
  5
211
102
{ACAD_REACTORS
330
206
102
}
330
206
100
AcDbScale
 70
     0
300
1:50
140
1.0
141
50.0
290
     0
  0
SCALE
  5
212
102
{ACAD_REACTORS
330
206
102
}
330
206
100
AcDbScale
 70
     0
300
1:100
140
1.0
141
100.0
290
     0
  0
SCALE
  5
213
102
{ACAD_REACTORS
330
206
102
}
330
206
100
AcDbScale
 70
     0
300
2:1
140
2.0
141
1.0
290
     0
  0
SCALE
  5
214
102
{ACAD_REACTORS
330
206
102
}
330
206
100
AcDbScale
 70
     0
300
4:1
140
4.0
141
1.0
290
     0
  0
SCALE
  5
215
102
{ACAD_REACTORS
330
206
102
}
330
206
100
AcDbScale
 70
     0
300
8:1
140
8.0
141
1.0
290
     0
  0
SCALE
  5
216
102
{ACAD_REACTORS
330
206
102
}
330
206
100
AcDbScale
 70
     0
300
10:1
140
10.0
141
1.0
290
     0
  0
SCALE
  5
217
102
{ACAD_REACTORS
330
206
102
}
330
206
100
AcDbScale
 70
     0
300
100:1
140
100.0
141
1.0
290
     0
  0
SCALE
  5
218
102
{ACAD_REACTORS
330
206
102
}
330
206
100
AcDbScale
 70
     0
300
1/128" = 1'-0"
140
0.0078125
141
12.0
290
     0
  0
SCALE
  5
219
102
{ACAD_REACTORS
330
206
102
}
330
206
100
AcDbScale
 70
     0
300
1/64" = 1'-0"
140
0.015625
141
12.0
290
     0
  0
SCALE
  5
21A
102
{ACAD_REACTORS
330
206
102
}
330
206
100
AcDbScale
 70
     0
300
1/32" = 1'-0"
140
0.03125
141
12.0
290
     0
  0
SCALE
  5
21B
102
{ACAD_REACTORS
330
206
102
}
330
206
100
AcDbScale
 70
     0
300
1/16" = 1'-0"
140
0.0625
141
12.0
290
     0
  0
SCALE
  5
21C
102
{ACAD_REACTORS
330
206
102
}
330
206
100
AcDbScale
 70
     0
300
3/32" = 1'-0"
140
0.09375
141
12.0
290
     0
  0
SCALE
  5
21D
102
{ACAD_REACTORS
330
206
102
}
330
206
100
AcDbScale
 70
     0
300
1/8" = 1'-0"
140
0.125
141
12.0
290
     0
  0
SCALE
  5
21E
102
{ACAD_REACTORS
330
206
102
}
330
206
100
AcDbScale
 70
     0
300
3/16" = 1'-0"
140
0.1875
141
12.0
290
     0
  0
SCALE
  5
21F
102
{ACAD_REACTORS
330
206
102
}
330
206
100
AcDbScale
 70
     0
300
1/4" = 1'-0"
140
0.25
141
12.0
290
     0
  0
SCALE
  5
220
102
{ACAD_REACTORS
330
206
102
}
330
206
100
AcDbScale
 70
     0
300
3/8" = 1'-0"
140
0.375
141
12.0
290
     0
  0
SCALE
  5
221
102
{ACAD_REACTORS
330
206
102
}
330
206
100
AcDbScale
 70
     0
300
1/2" = 1'-0"
140
0.5
141
12.0
290
     0
  0
SCALE
  5
222
102
{ACAD_REACTORS
330
206
102
}
330
206
100
AcDbScale
 70
     0
300
3/4" = 1'-0"
140
0.75
141
12.0
290
     0
  0
SCALE
  5
223
102
{ACAD_REACTORS
330
206
102
}
330
206
100
AcDbScale
 70
     0
300
1" = 1'-0"
140
1.0
141
12.0
290
     0
  0
SCALE
  5
224
102
{ACAD_REACTORS
330
206
102
}
330
206
100
AcDbScale
 70
     0
300
1-1/2" = 1'-0"
140
1.5
141
12.0
290
     0
  0
SCALE
  5
225
102
{ACAD_REACTORS
330
206
102
}
330
206
100
AcDbScale
 70
     0
300
3" = 1'-0"
140
3.0
141
12.0
290
     0
  0
SCALE
  5
226
102
{ACAD_REACTORS
330
206
102
}
330
206
100
AcDbScale
 70
     0
300
6" = 1'-0"
140
6.0
141
12.0
290
     0
  0
SCALE
  5
227
102
{ACAD_REACTORS
330
206
102
}
330
206
100
AcDbScale
 70
     0
300
1'-0" = 1'-0"
140
12.0
141
12.0
290
     0
  0
TABLESTYLE
  5
264
102
{ACAD_XDICTIONARY
360
265
102
}
102
{ACAD_REACTORS
330
235
102
}
330
235
100
AcDbTableStyle
  3
Standard
 70
     1
 71
     0
 40
1.5
 41
1.5
280
     1
281
     0
  7
ROMANS
140
3.0
170
     5
 62
     7
 63
     7
283
     0
274
    -2
284
     1
 64
     0
275
    -2
285
     1
 65
     0
276
    -2
286
     1
 66
     0
277
    -2
287
     1
 67
     0
278
    -2
288
     1
 68
     0
279
    -2
289
     1
 69
     0
  7
ROMANS
140
6.0
170
     5
 62
     1
 63
     7
283
     0
274
    -2
284
     1
 64
     0
275
    -2
285
     1
 65
     0
276
    -2
286
     1
 66
     0
277
    -2
287
     1
 67
     0
278
    -2
288
     1
 68
     0
279
    -2
289
     1
 69
     0
  7
ROMANS
140
3.5
170
     5
 62
     3
 63
     7
283
     0
274
    -2
284
     1
 64
     0
275
    -2
285
     1
 65
     0
276
    -2
286
     1
 66
     0
277
    -2
287
     1
 67
     0
278
    -2
288
     1
 68
     0
279
    -2
289
     1
 69
     0
  0
TABLESTYLE
  5
266
102
{ACAD_XDICTIONARY
360
267
102
}
102
{ACAD_REACTORS
330
235
102
}
330
235
100
AcDbTableStyle
  3
Standard
 70
     0
 71
     0
 40
1.5
 41
1.5
280
     0
281
     0
  7
ROMANS
140
4.5
170
     5
 62
     7
 63
     7
283
     0
274
    -2
284
     1
 64
     0
275
    -2
285
     1
 65
     0
276
    -2
286
     1
 66
     0
277
    -2
287
     1
 67
     0
278
    -2
288
     1
 68
     0
279
    -2
289
     1
 69
     0
  7
ROMANS
140
6.0
170
     5
 62
     1
 63
     7
283
     0
274
    -2
284
     1
 64
     0
275
    -2
285
     1
 65
     0
276
    -2
286
     1
 66
     0
277
    -2
287
     1
 67
     0
278
    -2
288
     1
 68
     0
279
    -2
289
     1
 69
     0
  7
ROMANS
140
5.0
170
     5
 62
     3
 63
     7
283
     0
274
    -2
284
     1
 64
     0
275
    -2
285
     1
 65
     0
276
    -2
286
     1
 66
     0
277
    -2
287
     1
 67
     0
278
    -2
288
     1
 68
     0
279
    -2
289
     1
 69
     0
  0
TABLESTYLE
  5
236
102
{ACAD_XDICTIONARY
360
295
102
}
102
{ACAD_REACTORS
330
235
102
}
330
235
100
AcDbTableStyle
  3
Standard
 70
     0
 71
     0
 40
0.06
 41
0.06
280
     0
281
     0
  7
Standard
140
0.18
170
     2
 62
     0
 63
     7
283
     0
274
    -2
284
     1
 64
     0
275
    -2
285
     1
 65
     0
276
    -2
286
     1
 66
     0
277
    -2
287
     1
 67
     0
278
    -2
288
     1
 68
     0
279
    -2
289
     1
 69
     0
  7
Standard
140
0.25
170
     5
 62
     0
 63
     7
283
     0
274
    -2
284
     1
 64
     0
275
    -2
285
     1
 65
     0
276
    -2
286
     1
 66
     0
277
    -2
287
     1
 67
     0
278
    -2
288
     1
 68
     0
279
    -2
289
     1
 69
     0
  7
Standard
140
0.18
170
     5
 62
     0
 63
     7
283
     0
274
    -2
284
     1
 64
     0
275
    -2
285
     1
 65
     0
276
    -2
286
     1
 66
     0
277
    -2
287
     1
 67
     0
278
    -2
288
     1
 68
     0
279
    -2
289
     1
 69
     0
  0
VISUALSTYLE
  5
1F7
102
{ACAD_XDICTIONARY
360
360
102
}
102
{ACAD_REACTORS
330
1F1
102
}
330
1F1
100
AcDbVisualStyle
  2
2dWireframe
 70
     4
 71
     0
 72
     2
 73
     0
 90
        0
 40
-0.6
 41
-30.0
 62
     5
 63
     7
 74
     1
 91
        4
 64
     7
 65
   257
 75
     1
175
     1
 42
1.0
 92
        0
 66
   257
 43
1.0
 76
     1
 77
     6
 78
     2
 67
     7
 79
     5
170
     0
171
     0
290
     0
174
     0
 93
        1
 44
0.0
173
     0
291
     0
 45
0.0
1001
ACAD
1000
AcDbSavedByObjectVersion
1070
     0
  0
VISUALSTYLE
  5
1F9
102
{ACAD_XDICTIONARY
360
364
102
}
102
{ACAD_REACTORS
330
1F1
102
}
330
1F1
100
AcDbVisualStyle
  2
3D Hidden
 70
     6
 71
     1
 72
     2
 73
     2
 90
        0
 40
-0.6
 41
-30.0
 62
     5
 63
     7
 74
     2
 91
        2
 64
     7
 65
   257
 75
     2
175
     1
 42
179.0
 92
        0
 66
   257
 43
1.0
 76
     1
 77
     6
 78
     2
 67
     7
 79
     3
170
     0
171
     0
290
     0
174
     0
 93
        1
 44
0.0
173
     0
291
     0
 45
0.0
1001
ACAD
1000
AcDbSavedByObjectVersion
1070
     0
  0
VISUALSTYLE
  5
1F8
102
{ACAD_XDICTIONARY
360
362
102
}
102
{ACAD_REACTORS
330
1F1
102
}
330
1F1
100
AcDbVisualStyle
  2
3dWireframe
 70
     5
 71
     0
 72
     2
 73
     0
 90
        0
 40
-0.6
 41
-30.0
 62
     5
 63
     7
 74
     1
 91
        4
 64
     7
 65
   257
 75
     1
175
     1
 42
1.0
 92
        0
 66
   257
 43
1.0
 76
     1
 77
     6
 78
     2
 67
     7
 79
     5
170
     0
171
     0
290
     0
174
     0
 93
        1
 44
0.0
173
     0
291
     0
 45
0.0
1001
ACAD
1000
AcDbSavedByObjectVersion
1070
     0
  0
VISUALSTYLE
  5
1F6
102
{ACAD_XDICTIONARY
360
35E
102
}
102
{ACAD_REACTORS
330
1F1
102
}
330
1F1
100
AcDbVisualStyle
  2
Basic
 70
     7
 71
     1
 72
     0
 73
     1
 90
        0
 40
-0.6
 41
-30.0
 62
     5
 63
     7
 74
     0
 91
        4
 64
     7
 65
   257
 75
     1
175
     1
 42
1.0
 92
        8
 66
     7
 43
1.0
 76
     1
 77
     6
 78
     2
 67
     7
 79
     5
170
     0
171
     0
290
     0
174
     0
 93
        1
 44
0.0
173
     0
291
     1
 45
0.0
1001
ACAD
1000
AcDbSavedByObjectVersion
1070
     0
  0
VISUALSTYLE
  5
1FD
102
{ACAD_XDICTIONARY
360
36C
102
}
102
{ACAD_REACTORS
330
1F1
102
}
330
1F1
100
AcDbVisualStyle
  2
Brighten
 70
    12
 71
     2
 72
     2
 73
     0
 90
        0
 40
-0.6
 41
-30.0
 62
     5
 63
     7
 74
     1
 91
        4
 64
     7
 65
   257
 75
     1
175
     1
 42
1.0
 92
        8
 66
     7
 43
1.0
 76
     1
 77
     6
 78
     2
 67
     7
 79
     5
170
     0
171
     0
290
     0
174
     0
 93
        1
 44
50.0
173
     0
291
     1
 45
0.0
1001
ACAD
1000
AcDbSavedByObjectVersion
1070
     0
  0
VISUALSTYLE
  5
201
102
{ACAD_XDICTIONARY
360
374
102
}
102
{ACAD_REACTORS
330
1F1
102
}
330
1F1
100
AcDbVisualStyle
  2
ColorChange
 70
    16
 71
     2
 72
     2
 73
     3
 90
        0
 40
-0.6
 41
-30.0
 62
     5
 63
     8
 74
     1
 91
        4
 64
     7
 65
   257
 75
     1
175
     1
 42
1.0
 92
        8
 66
     8
 43
1.0
 76
     1
 77
     6
 78
     2
 67
     7
 79
     5
170
     0
171
     0
290
     0
174
     0
 93
        1
 44
0.0
173
     0
291
     1
 45
0.0
1001
ACAD
1000
AcDbSavedByObjectVersion
1070
     0
  0
VISUALSTYLE
  5
1FA
102
{ACAD_XDICTIONARY
360
366
102
}
102
{ACAD_REACTORS
330
1F1
102
}
330
1F1
100
AcDbVisualStyle
  2
Conceptual
 70
     9
 71
     3
 72
     2
 73
     0
 90
        0
 40
-0.6
 41
-30.0
 62
     5
 63
     7
 74
     2
 91
        2
 64
     7
 65
   257
 75
     1
175
     1
 42
179.0
 92
        8
 66
     7
 43
1.0
 76
     1
 77
     6
 78
     2
 67
     7
 79
     3
170
     0
171
     0
290
     0
174
     0
 93
        1
 44
0.0
173
     0
291
     0
 45
0.0
1001
ACAD
1000
AcDbSavedByObjectVersion
1070
     0
  0
VISUALSTYLE
  5
1FC
102
{ACAD_XDICTIONARY
360
36A
102
}
102
{ACAD_REACTORS
330
1F1
102
}
330
1F1
100
AcDbVisualStyle
  2
Dim
 70
    11
 71
     2
 72
     2
 73
     0
 90
        0
 40
-0.6
 41
-30.0
 62
     5
 63
     7
 74
     1
 91
        4
 64
     7
 65
   257
 75
     1
175
     1
 42
1.0
 92
        8
 66
     7
 43
1.0
 76
     1
 77
     6
 78
     2
 67
     7
 79
     5
170
     0
171
     0
290
     0
174
     0
 93
        1
 44
-50.0
173
     0
291
     1
 45
0.0
1001
ACAD
1000
AcDbSavedByObjectVersion
1070
     0
  0
VISUALSTYLE
  5
204
102
{ACAD_XDICTIONARY
360
37A
102
}
102
{ACAD_REACTORS
330
1F1
102
}
330
1F1
100
AcDbVisualStyle
  2
EdgeColorOff
 70
    22
 71
     2
 72
     2
 73
     0
 90
        0
 40
-0.6
 41
-30.0
 62
     5
 63
     7
 74
     1
 91
        4
 64
     7
 65
   257
 75
     1
175
     1
 42
1.0
 92
        8
 66
     7
 43
1.0
 76
     1
 77
     6
 78
     2
 67
     7
 79
     5
170
     0
171
     0
290
     0
174
     0
 93
        1
 44
0.0
173
     0
291
     1
 45
0.0
1001
ACAD
1000
AcDbSavedByObjectVersion
1070
     0
  0
VISUALSTYLE
  5
200
102
{ACAD_XDICTIONARY
360
372
102
}
102
{ACAD_REACTORS
330
1F1
102
}
330
1F1
100
AcDbVisualStyle
  2
Facepattern
 70
    15
 71
     2
 72
     2
 73
     0
 90
        0
 40
-0.6
 41
-30.0
 62
     5
 63
     7
 74
     1
 91
        4
 64
     7
 65
   257
 75
     1
175
     1
 42
1.0
 92
        8
 66
     7
 43
1.0
 76
     1
 77
     6
 78
     2
 67
     7
 79
     5
170
     0
171
     0
290
     0
174
     0
 93
        1
 44
0.0
173
     0
291
     1
 45
0.0
1001
ACAD
1000
AcDbSavedByObjectVersion
1070
     0
  0
VISUALSTYLE
  5
1F2
102
{ACAD_XDICTIONARY
360
356
102
}
102
{ACAD_REACTORS
330
1F1
102
}
330
1F1
100
AcDbVisualStyle
  2
Flat
 70
     0
 71
     2
 72
     1
 73
     1
 90
        2
 40
-0.6
 41
30.0
 62
     5
 63
     7
 74
     0
 91
        4
 64
     7
 65
   257
 75
     1
175
     1
 42
1.0
 92
        8
 66
     7
 43
1.0
 76
     1
 77
     6
 78
     2
 67
     7
 79
     5
170
     0
171
     0
290
     0
174
     0
 93
       13
 44
0.0
173
     0
291
     1
 45
0.0
1001
ACAD
1000
AcDbSavedByObjectVersion
1070
     0
  0
VISUALSTYLE
  5
1F3
102
{ACAD_XDICTIONARY
360
358
102
}
102
{ACAD_REACTORS
330
1F1
102
}
330
1F1
100
AcDbVisualStyle
  2
FlatWithEdges
 70
     1
 71
     2
 72
     1
 73
     1
 90
        2
 40
-0.6
 41
30.0
 62
     5
 63
     7
 74
     1
 91
        4
 64
     7
 65
   257
 75
     1
175
     1
 42
1.0
 92
        0
 66
   257
 43
1.0
 76
     1
 77
     6
 78
     2
 67
     7
 79
     5
170
     0
171
     0
290
     0
174
     0
 93
       13
 44
0.0
173
     0
291
     1
 45
0.0
1001
ACAD
1000
AcDbSavedByObjectVersion
1070
     0
  0
VISUALSTYLE
  5
1F4
102
{ACAD_XDICTIONARY
360
35A
102
}
102
{ACAD_REACTORS
330
1F1
102
}
330
1F1
100
AcDbVisualStyle
  2
Gouraud
 70
     2
 71
     2
 72
     2
 73
     1
 90
        2
 40
-0.6
 41
30.0
 62
     5
 63
     7
 74
     0
 91
        4
 64
     7
 65
   257
 75
     1
175
     1
 42
1.0
 92
        0
 66
     7
 43
1.0
 76
     1
 77
     6
 78
     2
 67
     7
 79
     5
170
     0
171
     0
290
     0
174
     0
 93
       13
 44
0.0
173
     0
291
     1
 45
0.0
1001
ACAD
1000
AcDbSavedByObjectVersion
1070
     0
  0
VISUALSTYLE
  5
1F5
102
{ACAD_XDICTIONARY
360
35C
102
}
102
{ACAD_REACTORS
330
1F1
102
}
330
1F1
100
AcDbVisualStyle
  2
GouraudWithEdges
 70
     3
 71
     2
 72
     2
 73
     1
 90
        2
 40
-0.6
 41
30.0
 62
     5
 63
     7
 74
     1
 91
        4
 64
     7
 65
   257
 75
     1
175
     1
 42
1.0
 92
        0
 66
   257
 43
1.0
 76
     1
 77
     6
 78
     2
 67
     7
 79
     5
170
     0
171
     0
290
     0
174
     0
 93
       13
 44
0.0
173
     0
291
     1
 45
0.0
1001
ACAD
1000
AcDbSavedByObjectVersion
1070
     0
  0
VISUALSTYLE
  5
2E0
102
{ACAD_XDICTIONARY
360
38B
102
}
102
{ACAD_REACTORS
330
1F1
102
}
330
1F1
100
AcDbVisualStyle
  2
Hidden
 70
     6
 71
     1
 72
     2
 73
     2
 90
        0
 40
-0.6
 41
-30.0
 62
     5
 63
     7
 74
     2
 91
        2
 64
     7
 65
   257
 75
     2
175
     1
 42
40.0
 92
        0
 66
   257
 43
1.0
 76
     1
 77
     6
 78
     2
 67
     7
 79
     3
170
     0
171
     0
290
     0
174
     0
 93
        1
 44
0.0
173
     0
291
     0
 45
0.0
1001
ACAD
1000
AcDbSavedByObjectVersion
1070
     0
  0
VISUALSTYLE
  5
202
102
{ACAD_XDICTIONARY
360
376
102
}
102
{ACAD_REACTORS
330
1F1
102
}
330
1F1
100
AcDbVisualStyle
  2
JitterOff
 70
    20
 71
     2
 72
     2
 73
     0
 90
        0
 40
-0.6
 41
-30.0
 62
     5
 63
     7
 74
     1
 91
        4
 64
     7
 65
   257
 75
     1
175
     1
 42
1.0
 92
       10
 66
     7
 43
1.0
 76
     1
 77
     6
 78
     2
 67
     7
 79
     5
170
     0
171
     0
290
     0
174
     0
 93
        1
 44
0.0
173
     0
291
     1
 45
0.0
1001
ACAD
1000
AcDbSavedByObjectVersion
1070
     0
  0
VISUALSTYLE
  5
1FF
102
{ACAD_XDICTIONARY
360
370
102
}
102
{ACAD_REACTORS
330
1F1
102
}
330
1F1
100
AcDbVisualStyle
  2
Linepattern
 70
    14
 71
     2
 72
     2
 73
     0
 90
        0
 40
-0.6
 41
-30.0
 62
     5
 63
     7
 74
     1
 91
        4
 64
     7
 65
   257
 75
     7
175
     7
 42
1.0
 92
        8
 66
     7
 43
1.0
 76
     1
 77
     6
 78
     2
 67
     7
 79
     5
170
     0
171
     0
290
     0
174
     0
 93
        1
 44
0.0
173
     0
291
     1
 45
0.0
1001
ACAD
1000
AcDbSavedByObjectVersion
1070
     0
  0
VISUALSTYLE
  5
203
102
{ACAD_XDICTIONARY
360
378
102
}
102
{ACAD_REACTORS
330
1F1
102
}
330
1F1
100
AcDbVisualStyle
  2
OverhangOff
 70
    21
 71
     2
 72
     2
 73
     0
 90
        0
 40
-0.6
 41
-30.0
 62
     5
 63
     7
 74
     1
 91
        4
 64
     7
 65
   257
 75
     1
175
     1
 42
1.0
 92
        9
 66
     7
 43
1.0
 76
     1
 77
     6
 78
     2
 67
     7
 79
     5
170
     0
171
     0
290
     0
174
     0
 93
        1
 44
0.0
173
     0
291
     1
 45
0.0
1001
ACAD
1000
AcDbSavedByObjectVersion
1070
     0
  0
VISUALSTYLE
  5
1FB
102
{ACAD_XDICTIONARY
360
368
102
}
102
{ACAD_REACTORS
330
1F1
102
}
330
1F1
100
AcDbVisualStyle
  2
Realistic
 70
     8
 71
     2
 72
     2
 73
     0
 90
        0
 40
-0.6
 41
-30.0
 62
     5
 63
     7
 74
     1
 91
        0
 64
     7
 65
   257
 75
     1
175
     1
 42
1.0
 92
        8
 66
     8
 43
1.0
 76
     1
 77
     6
 78
     2
 67
     7
 79
     5
170
     0
171
     0
290
     0
174
     0
 93
       13
 44
0.0
173
     0
291
     0
 45
0.0
1001
ACAD
1000
AcDbSavedByObjectVersion
1070
     0
  0
VISUALSTYLE
  5
2E5
102
{ACAD_XDICTIONARY
360
395
102
}
102
{ACAD_REACTORS
330
1F1
102
}
330
1F1
100
AcDbVisualStyle
  2
Shaded
 70
    27
 71
     2
 72
     2
 73
     1
 90
        2
 40
-0.6
 41
30.0
 62
     5
 63
     7
 74
     0
 91
        4
 64
     7
 65
   257
 75
     1
175
     1
 42
1.0
 92
        8
 66
   257
 43
1.0
 76
     1
 77
     6
 78
     2
 67
     8
 79
     3
170
     0
171
     0
290
     0
174
     0
 93
        5
 44
0.0
173
     0
291
     0
 45
0.0
1001
ACAD
1000
AcDbSavedByObjectVersion
1070
     0
  0
VISUALSTYLE
  5
2E4
102
{ACAD_XDICTIONARY
360
393
102
}
102
{ACAD_REACTORS
330
1F1
102
}
330
1F1
100
AcDbVisualStyle
  2
Shaded with edges
 70
    26
 71
     2
 72
     2
 73
     1
 90
        2
 40
-0.6
 41
30.0
 62
     5
 63
     7
 74
     1
 91
       10
 64
     7
 65
   257
 75
     2
175
     1
 42
1.0
 92
        8
 66
   257
 43
1.0
 76
     1
 77
     6
 78
     2
 67
     7
 79
     3
170
     0
171
     0
290
     0
174
     0
 93
        5
 44
0.0
173
     0
291
     0
 45
0.0
1001
ACAD
1000
AcDbSavedByObjectVersion
1070
     0
  0
VISUALSTYLE
  5
2E1
102
{ACAD_XDICTIONARY
360
38D
102
}
102
{ACAD_REACTORS
330
1F1
102
}
330
1F1
100
AcDbVisualStyle
  2
Shades of Gray
 70
    23
 71
     2
 72
     2
 73
     3
 90
        0
 40
-0.6
 41
-30.0
 62
     5
 63
     7
 74
     2
 91
        2
 64
     7
 65
     7
 75
     1
175
     1
 42
40.0
 92
        8
 66
     7
 43
1.0
 76
     1
 77
     6
 78
     2
 67
     7
 79
     3
170
     0
171
     0
290
     0
174
     0
 93
        1
 44
0.0
173
     0
291
     0
 45
0.0
1001
ACAD
1000
AcDbSavedByObjectVersion
1070
     0
  0
VISUALSTYLE
  5
2E2
102
{ACAD_XDICTIONARY
360
38F
102
}
102
{ACAD_REACTORS
330
1F1
102
}
330
1F1
100
AcDbVisualStyle
  2
Sketchy
 70
    24
 71
     1
 72
     2
 73
     2
 90
        0
 40
-0.6
 41
-30.0
 62
     5
 63
     7
 74
     2
 91
        2
 64
     7
 65
     7
 75
     1
175
     1
 42
40.0
 92
       11
 66
     7
 43
1.0
 76
     1
 77
     6
 78
     2
 67
     7
 79
     6
170
     0
171
     0
290
     0
174
     0
 93
        1
 44
0.0
173
     0
291
     0
 45
0.0
1001
ACAD
1000
AcDbSavedByObjectVersion
1070
     0
  0
VISUALSTYLE
  5
1FE
102
{ACAD_XDICTIONARY
360
36E
102
}
102
{ACAD_REACTORS
330
1F1
102
}
330
1F1
100
AcDbVisualStyle
  2
Thicken
 70
    13
 71
     2
 72
     2
 73
     0
 90
        0
 40
-0.6
 41
-30.0
 62
     5
 63
     7
 74
     1
 91
        4
 64
     7
 65
   257
 75
     1
175
     1
 42
1.0
 92
       12
 66
     7
 43
1.0
 76
     1
 77
     6
 78
     2
 67
     7
 79
     5
170
     0
171
     0
290
     0
174
     0
 93
        1
 44
0.0
173
     0
291
     1
 45
0.0
1001
ACAD
1000
AcDbSavedByObjectVersion
1070
     0
  0
VISUALSTYLE
  5
2DF
102
{ACAD_XDICTIONARY
360
389
102
}
102
{ACAD_REACTORS
330
1F1
102
}
330
1F1
100
AcDbVisualStyle
  2
Wireframe
 70
     5
 71
     0
 72
     2
 73
     0
 90
        0
 40
-0.6
 41
-30.0
 62
     5
 63
     7
 74
     1
 91
        4
 64
     7
 65
   257
 75
     1
175
     1
 42
1.0
 92
        0
 66
   257
 43
1.0
 76
     1
 77
     6
 78
     2
 67
     7
 79
     3
170
     0
171
     0
290
     0
174
     0
 93
        1
 44
0.0
173
     0
291
     0
 45
0.0
1001
ACAD
1000
AcDbSavedByObjectVersion
1070
     0
  0
VISUALSTYLE
  5
2E3
102
{ACAD_XDICTIONARY
360
391
102
}
102
{ACAD_REACTORS
330
1F1
102
}
330
1F1
100
AcDbVisualStyle
  2
X-Ray
 70
    25
 71
     2
 72
     2
 73
     1
 90
        1
 40
0.5
 41
-30.0
 62
     5
 63
     7
 74
     1
 91
        0
 64
     7
 65
   257
 75
     1
175
     1
 42
1.0
 92
        8
 66
     7
 43
1.0
 76
     1
 77
     6
 78
     2
 67
     7
 79
     3
170
     0
171
     0
290
     0
174
     0
 93
       13
 44
0.0
173
     0
291
     0
 45
0.0
1001
ACAD
1000
AcDbSavedByObjectVersion
1070
     0
  0
DICTIONARYVAR
  5
2DA
102
{ACAD_REACTORS
330
1D6
102
}
330
1D6
100
DictionaryVariables
280
     0
  1
1:1
  0
DICTIONARYVAR
  5
2D8
102
{ACAD_REACTORS
330
1D6
102
}
330
1D6
100
DictionaryVariables
280
     0
  1
STANDARD
  0
DICTIONARYVAR
  5
2D7
102
{ACAD_REACTORS
330
1D6
102
}
330
1D6
100
DictionaryVariables
280
     0
  1
STANDARD
  0
DICTIONARYVAR
  5
1D7
330
1D6
100
DictionaryVariables
280
     0
  1
2
  0
DICTIONARYVAR
  5
2D9
102
{ACAD_REACTORS
330
1D6
102
}
330
1D6
100
DictionaryVariables
280
     0
  1
0
  0
DICTIONARYVAR
  5
2DC
102
{ACAD_REACTORS
330
1D6
102
}
330
1D6
100
DictionaryVariables
280
     0
  1
0
  0
DICTIONARYVAR
  5
2DB
102
{ACAD_REACTORS
330
1D6
102
}
330
1D6
100
DictionaryVariables
280
     0
  1
127
  0
DICTIONARYVAR
  5
349
102
{ACAD_REACTORS
330
1D6
102
}
330
1D6
100
DictionaryVariables
280
     0
  1
2
  0
XRECORD
  5
294
102
{ACAD_REACTORS
330
292
102
}
330
292
100
AcDbXrecord
280
     1
330
ED
330
EF
330
F1
330
F3
330
F5
330
F7
330
F9
330
FB
330
FD
330
FF
330
101
330
103
330
105
  0
XRECORD
  5
244
102
{ACAD_REACTORS
330
243
102
}
330
243
100
AcDbXrecord
280
     1
 91
        1
  0
ACAD_PROXY_OBJECT
  5
241
102
{ACAD_REACTORS
330
240
102
}
330
240
100
AcDbProxyObject
 90
      499
 91
      529
 95
   983063
 70
     0
 93
       88
310
4050844454641554C5400E00
 94
        0
1001
ACAD
1000
AcRTDxfName
1000
ACDBQSCATEGORY
  0
XRECORD
  5
290
102
{ACAD_REACTORS
330
28E
102
}
330
28E
100
AcDbXrecord
280
     1
  9
X3469
  0
XRECORD
  5
28F
102
{ACAD_REACTORS
330
28E
102
}
330
28E
100
AcDbXrecord
280
     1
  2
TOP
  3
P-0000
280
     1
310
6465736372697A696F6E6500544F5000444154410033302F31322F313000554D004E520052455600300044495345474E41544F5245004D2E43617075616E6F005343414C4100313A310000
 10
0.0
 20
0.0
 30
0.0
  0
XRECORD
  5
24B
102
{ACAD_REACTORS
330
24A
102
}
330
24A
100
AcDbXrecord
280
     1
 90
      202
 91
      144
  0
DICTIONARY
  5
351
330
21
100
AcDbDictionary
280
     1
281
     1
  3
ACAD_XREC_ROUNDTRIP
360
352
  0
DICTIONARY
  5
34F
330
20
100
AcDbDictionary
280
     1
281
     1
  3
ACAD_XREC_ROUNDTRIP
360
350
  0
DICTIONARY
  5
1E2
330
1E1
100
AcDbDictionary
280
     1
281
     1
  3
ACAD_XREC_ROUNDTRIP
360
354
  3
BUMPTILE
360
1E4
  3
DIFFUSETILE
360
1E3
  3
OPACITYTILE
360
1E7
  3
REFLECTIONTILE
360
1E6
  3
REFRACTIONTILE
360
1E8
  3
SPECULARTILE
360
1E5
  0
DICTIONARY
  5
1DA
330
1D9
100
AcDbDictionary
280
     1
281
     1
  3
ACAD_XREC_ROUNDTRIP
360
353
  3
BUMPTILE
360
1DC
  3
DIFFUSETILE
360
1DB
  3
OPACITYTILE
360
1DF
  3
REFLECTIONTILE
360
1DE
  3
REFRACTIONTILE
360
1E0
  3
SPECULARTILE
360
1DD
  0
DICTIONARY
  5
1EA
330
1E9
100
AcDbDictionary
280
     1
281
     1
  3
ACAD_XREC_ROUNDTRIP
360
355
  3
BUMPTILE
360
1EC
  3
DIFFUSETILE
360
1EB
  3
OPACITYTILE
360
1EF
  3
REFLECTIONTILE
360
1EE
  3
REFRACTIONTILE
360
1F0
  3
SPECULARTILE
360
1ED
  0
DICTIONARY
  5
37D
330
25F
100
AcDbDictionary
280
     1
281
     1
  3
ACAD_XREC_ROUNDTRIP
360
37E
  0
DICTIONARY
  5
37F
330
260
100
AcDbDictionary
280
     1
281
     1
  3
ACAD_XREC_ROUNDTRIP
360
380
  0
DICTIONARY
  5
381
330
261
100
AcDbDictionary
280
     1
281
     1
  3
ACAD_XREC_ROUNDTRIP
360
382
  0
DICTIONARY
  5
383
330
262
100
AcDbDictionary
280
     1
281
     1
  3
ACAD_XREC_ROUNDTRIP
360
384
  0
DICTIONARY
  5
385
330
263
100
AcDbDictionary
280
     1
281
     1
  3
ACAD_XREC_ROUNDTRIP
360
386
  0
DICTIONARY
  5
265
330
264
100
AcDbDictionary
280
     1
281
     1
  3
ACAD_ROUNDTRIP_2008_TABLESTYLE_CELLSTYLEMAP
360
34B
  3
ACAD_XREC_ROUNDTRIP
360
387
  0
DICTIONARY
  5
267
330
266
100
AcDbDictionary
280
     1
281
     1
  3
ACAD_ROUNDTRIP_2008_TABLESTYLE_CELLSTYLEMAP
360
34C
  3
ACAD_XREC_ROUNDTRIP
360
388
  0
DICTIONARY
  5
295
330
236
100
AcDbDictionary
280
     1
281
     1
  3
ACAD_ROUNDTRIP_2008_TABLESTYLE_CELLSTYLEMAP
360
34A
  3
ACAD_XREC_ROUNDTRIP
360
37C
  0
DICTIONARY
  5
360
330
1F7
100
AcDbDictionary
280
     1
281
     1
  3
ACAD_XREC_ROUNDTRIP
360
361
  0
DICTIONARY
  5
364
330
1F9
100
AcDbDictionary
280
     1
281
     1
  3
ACAD_XREC_ROUNDTRIP
360
365
  0
DICTIONARY
  5
362
330
1F8
100
AcDbDictionary
280
     1
281
     1
  3
ACAD_XREC_ROUNDTRIP
360
363
  0
DICTIONARY
  5
35E
330
1F6
100
AcDbDictionary
280
     1
281
     1
  3
ACAD_XREC_ROUNDTRIP
360
35F
  0
DICTIONARY
  5
36C
330
1FD
100
AcDbDictionary
280
     1
281
     1
  3
ACAD_XREC_ROUNDTRIP
360
36D
  0
DICTIONARY
  5
374
330
201
100
AcDbDictionary
280
     1
281
     1
  3
ACAD_XREC_ROUNDTRIP
360
375
  0
DICTIONARY
  5
366
330
1FA
100
AcDbDictionary
280
     1
281
     1
  3
ACAD_XREC_ROUNDTRIP
360
367
  0
DICTIONARY
  5
36A
330
1FC
100
AcDbDictionary
280
     1
281
     1
  3
ACAD_XREC_ROUNDTRIP
360
36B
  0
DICTIONARY
  5
37A
330
204
100
AcDbDictionary
280
     1
281
     1
  3
ACAD_XREC_ROUNDTRIP
360
37B
  0
DICTIONARY
  5
372
330
200
100
AcDbDictionary
280
     1
281
     1
  3
ACAD_XREC_ROUNDTRIP
360
373
  0
DICTIONARY
  5
356
330
1F2
100
AcDbDictionary
280
     1
281
     1
  3
ACAD_XREC_ROUNDTRIP
360
357
  0
DICTIONARY
  5
358
330
1F3
100
AcDbDictionary
280
     1
281
     1
  3
ACAD_XREC_ROUNDTRIP
360
359
  0
DICTIONARY
  5
35A
330
1F4
100
AcDbDictionary
280
     1
281
     1
  3
ACAD_XREC_ROUNDTRIP
360
35B
  0
DICTIONARY
  5
35C
330
1F5
100
AcDbDictionary
280
     1
281
     1
  3
ACAD_XREC_ROUNDTRIP
360
35D
  0
DICTIONARY
  5
38B
330
2E0
100
AcDbDictionary
280
     1
281
     1
  3
ACAD_XREC_ROUNDTRIP
360
38C
  0
DICTIONARY
  5
376
330
202
100
AcDbDictionary
280
     1
281
     1
  3
ACAD_XREC_ROUNDTRIP
360
377
  0
DICTIONARY
  5
370
330
1FF
100
AcDbDictionary
280
     1
281
     1
  3
ACAD_XREC_ROUNDTRIP
360
371
  0
DICTIONARY
  5
378
330
203
100
AcDbDictionary
280
     1
281
     1
  3
ACAD_XREC_ROUNDTRIP
360
379
  0
DICTIONARY
  5
368
330
1FB
100
AcDbDictionary
280
     1
281
     1
  3
ACAD_XREC_ROUNDTRIP
360
369
  0
DICTIONARY
  5
395
330
2E5
100
AcDbDictionary
280
     1
281
     1
  3
ACAD_XREC_ROUNDTRIP
360
396
  0
DICTIONARY
  5
393
330
2E4
100
AcDbDictionary
280
     1
281
     1
  3
ACAD_XREC_ROUNDTRIP
360
394
  0
DICTIONARY
  5
38D
330
2E1
100
AcDbDictionary
280
     1
281
     1
  3
ACAD_XREC_ROUNDTRIP
360
38E
  0
DICTIONARY
  5
38F
330
2E2
100
AcDbDictionary
280
     1
281
     1
  3
ACAD_XREC_ROUNDTRIP
360
390
  0
DICTIONARY
  5
36E
330
1FE
100
AcDbDictionary
280
     1
281
     1
  3
ACAD_XREC_ROUNDTRIP
360
36F
  0
DICTIONARY
  5
389
330
2DF
100
AcDbDictionary
280
     1
281
     1
  3
ACAD_XREC_ROUNDTRIP
360
38A
  0
DICTIONARY
  5
391
330
2E3
100
AcDbDictionary
280
     1
281
     1
  3
ACAD_XREC_ROUNDTRIP
360
392
  0
XRECORD
  5
352
102
{ACAD_REACTORS
330
351
102
}
330
351
100
AcDbXrecord
280
     1
102
SHADEPLOT
 70
     0
102
SHADEPLOTRESLEVEL
 70
     2
102
SHADEPLOTCUSTOMDPI
 70
   300
  0
XRECORD
  5
350
102
{ACAD_REACTORS
330
34F
102
}
330
34F
100
AcDbXrecord
280
     1
102
SHADEPLOT
 70
     0
102
SHADEPLOTRESLEVEL
 70
     2
102
SHADEPLOTCUSTOMDPI
 70
   300
  0
XRECORD
  5
354
102
{ACAD_REACTORS
330
1E2
102
}
330
1E2
100
AcDbXrecord
280
     1
102
MATERIAL
148
0.0
149
0.0
149
0.0
 93
        0
 94
      127
282
     0
 72
     0
 77
     0
171
     0
175
     0
179
     0
273
     0
  0
XRECORD
  5
1E4
102
{ACAD_REACTORS
330
1E2
102
}
330
1E2
100
AcDbXrecord
280
     1
270
     1
271
     1
  0
XRECORD
  5
1E3
102
{ACAD_REACTORS
330
1E2
102
}
330
1E2
100
AcDbXrecord
280
     1
270
     1
271
     1
  0
XRECORD
  5
1E7
102
{ACAD_REACTORS
330
1E2
102
}
330
1E2
100
AcDbXrecord
280
     1
270
     1
271
     1
  0
XRECORD
  5
1E6
102
{ACAD_REACTORS
330
1E2
102
}
330
1E2
100
AcDbXrecord
280
     1
270
     1
271
     1
  0
XRECORD
  5
1E8
102
{ACAD_REACTORS
330
1E2
102
}
330
1E2
100
AcDbXrecord
280
     1
270
     1
271
     1
  0
XRECORD
  5
1E5
102
{ACAD_REACTORS
330
1E2
102
}
330
1E2
100
AcDbXrecord
280
     1
270
     1
271
     1
  0
XRECORD
  5
353
102
{ACAD_REACTORS
330
1DA
102
}
330
1DA
100
AcDbXrecord
280
     1
102
MATERIAL
148
0.0
149
0.0
149
0.0
 93
        0
 94
      127
282
     0
 72
     0
 77
     0
171
     0
175
     0
179
     0
273
     0
  0
XRECORD
  5
1DC
102
{ACAD_REACTORS
330
1DA
102
}
330
1DA
100
AcDbXrecord
280
     1
270
     1
271
     1
  0
XRECORD
  5
1DB
102
{ACAD_REACTORS
330
1DA
102
}
330
1DA
100
AcDbXrecord
280
     1
270
     1
271
     1
  0
XRECORD
  5
1DF
102
{ACAD_REACTORS
330
1DA
102
}
330
1DA
100
AcDbXrecord
280
     1
270
     1
271
     1
  0
XRECORD
  5
1DE
102
{ACAD_REACTORS
330
1DA
102
}
330
1DA
100
AcDbXrecord
280
     1
270
     1
271
     1
  0
XRECORD
  5
1E0
102
{ACAD_REACTORS
330
1DA
102
}
330
1DA
100
AcDbXrecord
280
     1
270
     1
271
     1
  0
XRECORD
  5
1DD
102
{ACAD_REACTORS
330
1DA
102
}
330
1DA
100
AcDbXrecord
280
     1
270
     1
271
     1
  0
XRECORD
  5
355
102
{ACAD_REACTORS
330
1EA
102
}
330
1EA
100
AcDbXrecord
280
     1
102
MATERIAL
148
0.0
149
0.0
149
0.0
 93
        0
 94
      127
282
     0
 72
     0
 77
     0
171
     0
175
     0
179
     0
273
     0
  0
XRECORD
  5
1EC
102
{ACAD_REACTORS
330
1EA
102
}
330
1EA
100
AcDbXrecord
280
     1
270
     1
271
     1
  0
XRECORD
  5
1EB
102
{ACAD_REACTORS
330
1EA
102
}
330
1EA
100
AcDbXrecord
280
     1
270
     1
271
     1
  0
XRECORD
  5
1EF
102
{ACAD_REACTORS
330
1EA
102
}
330
1EA
100
AcDbXrecord
280
     1
270
     1
271
     1
  0
XRECORD
  5
1EE
102
{ACAD_REACTORS
330
1EA
102
}
330
1EA
100
AcDbXrecord
280
     1
270
     1
271
     1
  0
XRECORD
  5
1F0
102
{ACAD_REACTORS
330
1EA
102
}
330
1EA
100
AcDbXrecord
280
     1
270
     1
271
     1
  0
XRECORD
  5
1ED
102
{ACAD_REACTORS
330
1EA
102
}
330
1EA
100
AcDbXrecord
280
     1
270
     1
271
     1
  0
XRECORD
  5
37E
102
{ACAD_REACTORS
330
37D
102
}
330
37D
100
AcDbXrecord
280
     1
102
SHADEPLOT
 70
     0
102
SHADEPLOTRESLEVEL
 70
     2
102
SHADEPLOTCUSTOMDPI
 70
   300
  0
XRECORD
  5
380
102
{ACAD_REACTORS
330
37F
102
}
330
37F
100
AcDbXrecord
280
     1
102
SHADEPLOT
 70
     0
102
SHADEPLOTRESLEVEL
 70
     2
102
SHADEPLOTCUSTOMDPI
 70
   300
  0
XRECORD
  5
382
102
{ACAD_REACTORS
330
381
102
}
330
381
100
AcDbXrecord
280
     1
102
SHADEPLOT
 70
     0
102
SHADEPLOTRESLEVEL
 70
     2
102
SHADEPLOTCUSTOMDPI
 70
   300
  0
XRECORD
  5
384
102
{ACAD_REACTORS
330
383
102
}
330
383
100
AcDbXrecord
280
     1
102
SHADEPLOT
 70
     0
102
SHADEPLOTRESLEVEL
 70
     2
102
SHADEPLOTCUSTOMDPI
 70
   300
  0
XRECORD
  5
386
102
{ACAD_REACTORS
330
385
102
}
330
385
100
AcDbXrecord
280
     1
102
SHADEPLOT
 70
     0
102
SHADEPLOTRESLEVEL
 70
     2
102
SHADEPLOTCUSTOMDPI
 70
   300
  0
CELLSTYLEMAP
  5
34B
102
{ACAD_REACTORS
330
265
102
}
330
265
100
AcDbCellStyleMap
 90
        3
300
CELLSTYLE
  1
TABLEFORMAT_BEGIN
 90
        5
170
     1
 91
        0
 92
    32768
 62
   257
 93
        1
300
CONTENTFORMAT
  1
CONTENTFORMAT_BEGIN
 90
        0
 91
        0
 92
      512
 93
        0
300

 40
0.0
140
1.0
 94
        5
 62
     1
340
251
144
6.0
309
CONTENTFORMAT_END
171
     1
301
MARGIN
  1
CELLMARGIN_BEGIN
 40
1.5
 40
1.5
 40
1.5
 40
1.5
 40
0.18
 40
0.18
309
CELLMARGIN_END
 94
        6
 95
        1
302
GRIDFORMAT
  1
GRIDFORMAT_BEGIN
 90
        0
 91
        1
 62
     0
 92
       -2
340
0
 93
        0
 40
0.045
309
GRIDFORMAT_END
 95
        2
302
GRIDFORMAT
  1
GRIDFORMAT_BEGIN
 90
        0
 91
        1
 62
     0
 92
       -2
340
0
 93
        0
 40
0.045
309
GRIDFORMAT_END
 95
        4
302
GRIDFORMAT
  1
GRIDFORMAT_BEGIN
 90
        0
 91
        1
 62
     0
 92
       -2
340
0
 93
        0
 40
0.045
309
GRIDFORMAT_END
 95
        8
302
GRIDFORMAT
  1
GRIDFORMAT_BEGIN
 90
        0
 91
        1
 62
     0
 92
       -2
340
0
 93
        0
 40
0.045
309
GRIDFORMAT_END
 95
       16
302
GRIDFORMAT
  1
GRIDFORMAT_BEGIN
 90
        0
 91
        1
 62
     0
 92
       -2
340
0
 93
        0
 40
0.045
309
GRIDFORMAT_END
 95
       32
302
GRIDFORMAT
  1
GRIDFORMAT_BEGIN
 90
        0
 91
        1
 62
     0
 92
       -2
340
0
 93
        0
 40
0.045
309
GRIDFORMAT_END
309
TABLEFORMAT_END
  1
CELLSTYLE_BEGIN
 90
        1
 91
        1
300
_TITLE
309
CELLSTYLE_END
300
CELLSTYLE
  1
TABLEFORMAT_BEGIN
 90
        5
170
     1
 91
        0
 92
        0
 62
   257
 93
        1
300
CONTENTFORMAT
  1
CONTENTFORMAT_BEGIN
 90
        0
 91
        0
 92
      512
 93
        0
300

 40
0.0
140
1.0
 94
        5
 62
     3
340
251
144
3.5
309
CONTENTFORMAT_END
171
     1
301
MARGIN
  1
CELLMARGIN_BEGIN
 40
1.5
 40
1.5
 40
1.5
 40
1.5
 40
0.18
 40
0.18
309
CELLMARGIN_END
 94
        6
 95
        1
302
GRIDFORMAT
  1
GRIDFORMAT_BEGIN
 90
        0
 91
        1
 62
     0
 92
       -2
340
0
 93
        0
 40
0.045
309
GRIDFORMAT_END
 95
        2
302
GRIDFORMAT
  1
GRIDFORMAT_BEGIN
 90
        0
 91
        1
 62
     0
 92
       -2
340
0
 93
        0
 40
0.045
309
GRIDFORMAT_END
 95
        4
302
GRIDFORMAT
  1
GRIDFORMAT_BEGIN
 90
        0
 91
        1
 62
     0
 92
       -2
340
0
 93
        0
 40
0.045
309
GRIDFORMAT_END
 95
        8
302
GRIDFORMAT
  1
GRIDFORMAT_BEGIN
 90
        0
 91
        1
 62
     0
 92
       -2
340
0
 93
        0
 40
0.045
309
GRIDFORMAT_END
 95
       16
302
GRIDFORMAT
  1
GRIDFORMAT_BEGIN
 90
        0
 91
        1
 62
     0
 92
       -2
340
0
 93
        0
 40
0.045
309
GRIDFORMAT_END
 95
       32
302
GRIDFORMAT
  1
GRIDFORMAT_BEGIN
 90
        0
 91
        1
 62
     0
 92
       -2
340
0
 93
        0
 40
0.045
309
GRIDFORMAT_END
309
TABLEFORMAT_END
  1
CELLSTYLE_BEGIN
 90
        2
 91
        1
300
_HEADER
309
CELLSTYLE_END
300
CELLSTYLE
  1
TABLEFORMAT_BEGIN
 90
        5
170
     1
 91
        0
 92
        0
 62
   257
 93
        1
300
CONTENTFORMAT
  1
CONTENTFORMAT_BEGIN
 90
        0
 91
        0
 92
      512
 93
        0
300

 40
0.0
140
1.0
 94
        5
 62
     7
340
251
144
3.0
309
CONTENTFORMAT_END
171
     1
301
MARGIN
  1
CELLMARGIN_BEGIN
 40
1.5
 40
1.5
 40
1.5
 40
1.5
 40
0.18
 40
0.18
309
CELLMARGIN_END
 94
        6
 95
        1
302
GRIDFORMAT
  1
GRIDFORMAT_BEGIN
 90
        0
 91
        1
 62
     0
 92
       -2
340
0
 93
        0
 40
0.045
309
GRIDFORMAT_END
 95
        2
302
GRIDFORMAT
  1
GRIDFORMAT_BEGIN
 90
        0
 91
        1
 62
     0
 92
       -2
340
0
 93
        0
 40
0.045
309
GRIDFORMAT_END
 95
        4
302
GRIDFORMAT
  1
GRIDFORMAT_BEGIN
 90
        0
 91
        1
 62
     0
 92
       -2
340
0
 93
        0
 40
0.045
309
GRIDFORMAT_END
 95
        8
302
GRIDFORMAT
  1
GRIDFORMAT_BEGIN
 90
        0
 91
        1
 62
     0
 92
       -2
340
0
 93
        0
 40
0.045
309
GRIDFORMAT_END
 95
       16
302
GRIDFORMAT
  1
GRIDFORMAT_BEGIN
 90
        0
 91
        1
 62
     0
 92
       -2
340
0
 93
        0
 40
0.045
309
GRIDFORMAT_END
 95
       32
302
GRIDFORMAT
  1
GRIDFORMAT_BEGIN
 90
        0
 91
        1
 62
     0
 92
       -2
340
0
 93
        0
 40
0.045
309
GRIDFORMAT_END
309
TABLEFORMAT_END
  1
CELLSTYLE_BEGIN
 90
        3
 91
        2
300
_DATA
309
CELLSTYLE_END
  0
XRECORD
  5
387
102
{ACAD_REACTORS
330
265
102
}
330
265
100
AcDbXrecord
280
     1
102
ACAD_ROUNDTRIP_PRE2007_TABLESTYLE
 90
      512
 91
        0
  1

 92
      512
 93
        0
  2

 94
      512
 95
        0
  3

  0
CELLSTYLEMAP
  5
34C
102
{ACAD_REACTORS
330
267
102
}
330
267
100
AcDbCellStyleMap
 90
        3
300
CELLSTYLE
  1
TABLEFORMAT_BEGIN
 90
        5
170
     1
 91
        0
 92
    32768
 62
   257
 93
        1
300
CONTENTFORMAT
  1
CONTENTFORMAT_BEGIN
 90
        0
 91
        0
 92
      512
 93
        0
300

 40
0.0
140
1.0
 94
        5
 62
     1
340
251
144
6.0
309
CONTENTFORMAT_END
171
     1
301
MARGIN
  1
CELLMARGIN_BEGIN
 40
1.5
 40
1.5
 40
1.5
 40
1.5
 40
0.18
 40
0.18
309
CELLMARGIN_END
 94
        6
 95
        1
302
GRIDFORMAT
  1
GRIDFORMAT_BEGIN
 90
        0
 91
        1
 62
     0
 92
       -2
340
0
 93
        0
 40
0.045
309
GRIDFORMAT_END
 95
        2
302
GRIDFORMAT
  1
GRIDFORMAT_BEGIN
 90
        0
 91
        1
 62
     0
 92
       -2
340
0
 93
        0
 40
0.045
309
GRIDFORMAT_END
 95
        4
302
GRIDFORMAT
  1
GRIDFORMAT_BEGIN
 90
        0
 91
        1
 62
     0
 92
       -2
340
0
 93
        0
 40
0.045
309
GRIDFORMAT_END
 95
        8
302
GRIDFORMAT
  1
GRIDFORMAT_BEGIN
 90
        0
 91
        1
 62
     0
 92
       -2
340
0
 93
        0
 40
0.045
309
GRIDFORMAT_END
 95
       16
302
GRIDFORMAT
  1
GRIDFORMAT_BEGIN
 90
        0
 91
        1
 62
     0
 92
       -2
340
0
 93
        0
 40
0.045
309
GRIDFORMAT_END
 95
       32
302
GRIDFORMAT
  1
GRIDFORMAT_BEGIN
 90
        0
 91
        1
 62
     0
 92
       -2
340
0
 93
        0
 40
0.045
309
GRIDFORMAT_END
309
TABLEFORMAT_END
  1
CELLSTYLE_BEGIN
 90
        1
 91
        1
300
_TITLE
309
CELLSTYLE_END
300
CELLSTYLE
  1
TABLEFORMAT_BEGIN
 90
        5
170
     1
 91
        0
 92
        0
 62
   257
 93
        1
300
CONTENTFORMAT
  1
CONTENTFORMAT_BEGIN
 90
        0
 91
        0
 92
      512
 93
        0
300

 40
0.0
140
1.0
 94
        5
 62
     3
340
251
144
5.0
309
CONTENTFORMAT_END
171
     1
301
MARGIN
  1
CELLMARGIN_BEGIN
 40
1.5
 40
1.5
 40
1.5
 40
1.5
 40
0.18
 40
0.18
309
CELLMARGIN_END
 94
        6
 95
        1
302
GRIDFORMAT
  1
GRIDFORMAT_BEGIN
 90
        0
 91
        1
 62
     0
 92
       -2
340
0
 93
        0
 40
0.045
309
GRIDFORMAT_END
 95
        2
302
GRIDFORMAT
  1
GRIDFORMAT_BEGIN
 90
        0
 91
        1
 62
     0
 92
       -2
340
0
 93
        0
 40
0.045
309
GRIDFORMAT_END
 95
        4
302
GRIDFORMAT
  1
GRIDFORMAT_BEGIN
 90
        0
 91
        1
 62
     0
 92
       -2
340
0
 93
        0
 40
0.045
309
GRIDFORMAT_END
 95
        8
302
GRIDFORMAT
  1
GRIDFORMAT_BEGIN
 90
        0
 91
        1
 62
     0
 92
       -2
340
0
 93
        0
 40
0.045
309
GRIDFORMAT_END
 95
       16
302
GRIDFORMAT
  1
GRIDFORMAT_BEGIN
 90
        0
 91
        1
 62
     0
 92
       -2
340
0
 93
        0
 40
0.045
309
GRIDFORMAT_END
 95
       32
302
GRIDFORMAT
  1
GRIDFORMAT_BEGIN
 90
        0
 91
        1
 62
     0
 92
       -2
340
0
 93
        0
 40
0.045
309
GRIDFORMAT_END
309
TABLEFORMAT_END
  1
CELLSTYLE_BEGIN
 90
        2
 91
        1
300
_HEADER
309
CELLSTYLE_END
300
CELLSTYLE
  1
TABLEFORMAT_BEGIN
 90
        5
170
     1
 91
        0
 92
        0
 62
   257
 93
        1
300
CONTENTFORMAT
  1
CONTENTFORMAT_BEGIN
 90
        0
 91
        0
 92
      512
 93
        0
300

 40
0.0
140
1.0
 94
        5
 62
     7
340
251
144
4.5
309
CONTENTFORMAT_END
171
     1
301
MARGIN
  1
CELLMARGIN_BEGIN
 40
1.5
 40
1.5
 40
1.5
 40
1.5
 40
0.18
 40
0.18
309
CELLMARGIN_END
 94
        6
 95
        1
302
GRIDFORMAT
  1
GRIDFORMAT_BEGIN
 90
        0
 91
        1
 62
     0
 92
       -2
340
0
 93
        0
 40
0.045
309
GRIDFORMAT_END
 95
        2
302
GRIDFORMAT
  1
GRIDFORMAT_BEGIN
 90
        0
 91
        1
 62
     0
 92
       -2
340
0
 93
        0
 40
0.045
309
GRIDFORMAT_END
 95
        4
302
GRIDFORMAT
  1
GRIDFORMAT_BEGIN
 90
        0
 91
        1
 62
     0
 92
       -2
340
0
 93
        0
 40
0.045
309
GRIDFORMAT_END
 95
        8
302
GRIDFORMAT
  1
GRIDFORMAT_BEGIN
 90
        0
 91
        1
 62
     0
 92
       -2
340
0
 93
        0
 40
0.045
309
GRIDFORMAT_END
 95
       16
302
GRIDFORMAT
  1
GRIDFORMAT_BEGIN
 90
        0
 91
        1
 62
     0
 92
       -2
340
0
 93
        0
 40
0.045
309
GRIDFORMAT_END
 95
       32
302
GRIDFORMAT
  1
GRIDFORMAT_BEGIN
 90
        0
 91
        1
 62
     0
 92
       -2
340
0
 93
        0
 40
0.045
309
GRIDFORMAT_END
309
TABLEFORMAT_END
  1
CELLSTYLE_BEGIN
 90
        3
 91
        2
300
_DATA
309
CELLSTYLE_END
  0
XRECORD
  5
388
102
{ACAD_REACTORS
330
267
102
}
330
267
100
AcDbXrecord
280
     1
102
ACAD_ROUNDTRIP_PRE2007_TABLESTYLE
 90
      512
 91
        0
  1

 92
      512
 93
        0
  2

 94
      512
 95
        0
  3

  0
CELLSTYLEMAP
  5
34A
102
{ACAD_REACTORS
330
295
102
}
330
295
100
AcDbCellStyleMap
 90
        3
300
CELLSTYLE
  1
TABLEFORMAT_BEGIN
 90
        5
170
     1
 91
        0
 92
    32768
 62
   257
 93
        1
300
CONTENTFORMAT
  1
CONTENTFORMAT_BEGIN
 90
        0
 91
        0
 92
      512
 93
        0
300

 40
0.0
140
1.0
 94
        5
 62
     0
340
17
144
0.25
309
CONTENTFORMAT_END
171
     0
 94
        0
309
TABLEFORMAT_END
  1
CELLSTYLE_BEGIN
 90
        1
 91
        1
300
_TITLE
309
CELLSTYLE_END
300
CELLSTYLE
  1
TABLEFORMAT_BEGIN
 90
        5
170
     1
 91
        0
 92
        0
 62
   257
 93
        1
300
CONTENTFORMAT
  1
CONTENTFORMAT_BEGIN
 90
        0
 91
        0
 92
      512
 93
        0
300

 40
0.0
140
1.0
 94
        5
 62
     0
340
17
144
0.18
309
CONTENTFORMAT_END
171
     0
 94
        0
309
TABLEFORMAT_END
  1
CELLSTYLE_BEGIN
 90
        2
 91
        1
300
_HEADER
309
CELLSTYLE_END
300
CELLSTYLE
  1
TABLEFORMAT_BEGIN
 90
        5
170
     1
 91
        0
 92
        0
 62
   257
 93
        1
300
CONTENTFORMAT
  1
CONTENTFORMAT_BEGIN
 90
        0
 91
        0
 92
      512
 93
        0
300

 40
0.0
140
1.0
 94
        2
 62
     0
340
17
144
0.18
309
CONTENTFORMAT_END
171
     0
 94
        0
309
TABLEFORMAT_END
  1
CELLSTYLE_BEGIN
 90
        3
 91
        2
300
_DATA
309
CELLSTYLE_END
  0
XRECORD
  5
37C
102
{ACAD_REACTORS
330
295
102
}
330
295
100
AcDbXrecord
280
     1
102
ACAD_ROUNDTRIP_PRE2007_TABLESTYLE
 90
      512
 91
        0
  1

 92
      512
 93
        0
  2

 94
      512
 95
        0
  3

  0
XRECORD
  5
361
102
{ACAD_REACTORS
330
360
102
}
330
360
100
AcDbXrecord
280
     1
102
RTVSPropertyOp0
 70
     1
102
RTVSPropertyOp1
 70
     1
102
RTVSPropertyOp2
 70
     1
102
RTVSPropertyOp3
 70
     1
102
RTVSPropertyOp4
 70
     1
102
RTVSPropertyOp5
 70
     1
102
RTVSPropertyOp6
 70
     1
102
RTVSPropertyOp7
 70
     1
102
RTVSPropertyOp8
 70
     1
102
RTVSPropertyOp9
 70
     1
102
RTVSPropertyOp10
 70
     1
102
RTVSPropertyOp11
 70
     1
102
RTVSPropertyOp12
 70
     1
102
RTVSPropertyOp13
 70
     1
102
RTVSPropertyOp14
 70
     1
102
RTVSPropertyOp15
 70
     1
102
RTVSPropertyOp16
 70
     1
102
RTVSPropertyOp17
 70
     1
102
RTVSPropertyOp18
 70
     1
102
RTVSPropertyOp19
 70
     1
102
RTVSPropertyOp20
 70
     1
102
RTVSPropertyOp21
 70
     1
102
RTVSPropertyOp22
 70
     1
102
RTVSPropertyOp23
 70
     1
102
RTVSPropertyOp24
 70
     1
102
RTVSPropertyOp25
 70
     1
102
RTVSPropertyOp26
 70
     1
102
RTVSPropertyOp27
 70
     1
102
RTVSPropertyOp28
 70
     1
102
RTVSPropertyOp29
 70
     1
102
RTVSPropertyOp30
 70
     1
102
RTVSPropertyOp31
 70
     1
102
RTVSPropertyOp32
 70
     1
  0
XRECORD
  5
365
102
{ACAD_REACTORS
330
364
102
}
330
364
100
AcDbXrecord
280
     1
102
RTVSPropertyOp0
 70
     1
102
RTVSPropertyOp1
 70
     1
102
RTVSPropertyOp2
 70
     1
102
RTVSPropertyOp3
 70
     1
102
RTVSPropertyOp4
 70
     1
102
RTVSPropertyOp5
 70
     1
102
RTVSPropertyOp6
 70
     1
102
RTVSPropertyOp7
 70
     1
102
RTVSPropertyOp8
 70
     1
102
RTVSPropertyOp9
 70
     1
102
RTVSPropertyOp10
 70
     1
102
RTVSPropertyOp11
 70
     1
102
RTVSPropertyOp12
 70
     1
102
RTVSPropertyOp13
 70
     1
102
RTVSPropertyOp14
 70
     1
102
RTVSPropertyOp15
 70
     1
102
RTVSPropertyOp16
 70
     1
102
RTVSPropertyOp17
 70
     1
102
RTVSPropertyOp18
 70
     1
102
RTVSPropertyOp19
 70
     1
102
RTVSPropertyOp20
 70
     1
102
RTVSPropertyOp21
 70
     1
102
RTVSPropertyOp22
 70
     1
102
RTVSPropertyOp23
 70
     1
102
RTVSPropertyOp24
 70
     1
102
RTVSPropertyOp25
 70
     1
102
RTVSPropertyOp26
 70
     1
102
RTVSPropertyOp27
 70
     1
102
RTVSPropertyOp28
 70
     1
102
RTVSPropertyOp29
 70
     1
102
RTVSPropertyOp30
 70
     1
102
RTVSPropertyOp31
 70
     1
102
RTVSPropertyOp32
 70
     1
  0
XRECORD
  5
363
102
{ACAD_REACTORS
330
362
102
}
330
362
100
AcDbXrecord
280
     1
102
RTVSPropertyOp0
 70
     1
102
RTVSPropertyOp1
 70
     1
102
RTVSPropertyOp2
 70
     1
102
RTVSPropertyOp3
 70
     1
102
RTVSPropertyOp4
 70
     1
102
RTVSPropertyOp5
 70
     1
102
RTVSPropertyOp6
 70
     1
102
RTVSPropertyOp7
 70
     1
102
RTVSPropertyOp8
 70
     1
102
RTVSPropertyOp9
 70
     1
102
RTVSPropertyOp10
 70
     1
102
RTVSPropertyOp11
 70
     1
102
RTVSPropertyOp12
 70
     1
102
RTVSPropertyOp13
 70
     1
102
RTVSPropertyOp14
 70
     1
102
RTVSPropertyOp15
 70
     1
102
RTVSPropertyOp16
 70
     1
102
RTVSPropertyOp17
 70
     1
102
RTVSPropertyOp18
 70
     1
102
RTVSPropertyOp19
 70
     1
102
RTVSPropertyOp20
 70
     1
102
RTVSPropertyOp21
 70
     1
102
RTVSPropertyOp22
 70
     1
102
RTVSPropertyOp23
 70
     1
102
RTVSPropertyOp24
 70
     1
102
RTVSPropertyOp25
 70
     1
102
RTVSPropertyOp26
 70
     1
102
RTVSPropertyOp27
 70
     1
102
RTVSPropertyOp28
 70
     1
102
RTVSPropertyOp29
 70
     1
102
RTVSPropertyOp30
 70
     1
102
RTVSPropertyOp31
 70
     1
102
RTVSPropertyOp32
 70
     1
  0
XRECORD
  5
35F
102
{ACAD_REACTORS
330
35E
102
}
330
35E
100
AcDbXrecord
280
     1
102
RTVSPropertyOp0
 70
     1
102
RTVSPropertyOp1
 70
     1
102
RTVSPropertyOp2
 70
     1
102
RTVSPropertyOp3
 70
     1
102
RTVSPropertyOp4
 70
     1
102
RTVSPropertyOp5
 70
     1
102
RTVSPropertyOp6
 70
     1
102
RTVSPropertyOp7
 70
     1
102
RTVSPropertyOp8
 70
     1
102
RTVSPropertyOp9
 70
     1
102
RTVSPropertyOp10
 70
     1
102
RTVSPropertyOp11
 70
     1
102
RTVSPropertyOp12
 70
     1
102
RTVSPropertyOp13
 70
     1
102
RTVSPropertyOp14
 70
     1
102
RTVSPropertyOp15
 70
     1
102
RTVSPropertyOp16
 70
     1
102
RTVSPropertyOp17
 70
     1
102
RTVSPropertyOp18
 70
     1
102
RTVSPropertyOp19
 70
     1
102
RTVSPropertyOp20
 70
     1
102
RTVSPropertyOp21
 70
     1
102
RTVSPropertyOp22
 70
     1
102
RTVSPropertyOp23
 70
     1
102
RTVSPropertyOp24
 70
     1
102
RTVSPropertyOp25
 70
     1
102
RTVSPropertyOp26
 70
     1
102
RTVSPropertyOp27
 70
     1
102
RTVSPropertyOp28
 70
     1
102
RTVSPropertyOp29
 70
     1
102
RTVSPropertyOp30
 70
     1
102
RTVSPropertyOp31
 70
     1
102
RTVSPropertyOp32
 70
     1
  0
XRECORD
  5
36D
102
{ACAD_REACTORS
330
36C
102
}
330
36C
100
AcDbXrecord
280
     1
102
RTVSPropertyOp0
 70
     1
102
RTVSPropertyOp1
 70
     1
102
RTVSPropertyOp2
 70
     1
102
RTVSPropertyOp3
 70
     1
102
RTVSPropertyOp4
 70
     1
102
RTVSPropertyOp5
 70
     1
102
RTVSPropertyOp6
 70
     1
102
RTVSPropertyOp7
 70
     1
102
RTVSPropertyOp8
 70
     1
102
RTVSPropertyOp9
 70
     1
102
RTVSPropertyOp10
 70
     1
102
RTVSPropertyOp11
 70
     1
102
RTVSPropertyOp12
 70
     1
102
RTVSPropertyOp13
 70
     1
102
RTVSPropertyOp14
 70
     1
102
RTVSPropertyOp15
 70
     1
102
RTVSPropertyOp16
 70
     1
102
RTVSPropertyOp17
 70
     1
102
RTVSPropertyOp18
 70
     1
102
RTVSPropertyOp19
 70
     1
102
RTVSPropertyOp20
 70
     1
102
RTVSPropertyOp21
 70
     1
102
RTVSPropertyOp22
 70
     1
102
RTVSPropertyOp23
 70
     1
102
RTVSPropertyOp24
 70
     1
102
RTVSPropertyOp25
 70
     1
102
RTVSPropertyOp26
 70
     1
102
RTVSPropertyOp27
 70
     1
102
RTVSPropertyOp28
 70
     1
102
RTVSPropertyOp29
 70
     1
102
RTVSPropertyOp30
 70
     1
102
RTVSPropertyOp31
 70
     1
102
RTVSPropertyOp32
 70
     1
  0
XRECORD
  5
375
102
{ACAD_REACTORS
330
374
102
}
330
374
100
AcDbXrecord
280
     1
102
RTVSPropertyOp0
 70
     1
102
RTVSPropertyOp1
 70
     1
102
RTVSPropertyOp2
 70
     1
102
RTVSPropertyOp3
 70
     1
102
RTVSPropertyOp4
 70
     1
102
RTVSPropertyOp5
 70
     1
102
RTVSPropertyOp6
 70
     1
102
RTVSPropertyOp7
 70
     1
102
RTVSPropertyOp8
 70
     1
102
RTVSPropertyOp9
 70
     1
102
RTVSPropertyOp10
 70
     1
102
RTVSPropertyOp11
 70
     1
102
RTVSPropertyOp12
 70
     1
102
RTVSPropertyOp13
 70
     1
102
RTVSPropertyOp14
 70
     1
102
RTVSPropertyOp15
 70
     1
102
RTVSPropertyOp16
 70
     1
102
RTVSPropertyOp17
 70
     1
102
RTVSPropertyOp18
 70
     1
102
RTVSPropertyOp19
 70
     1
102
RTVSPropertyOp20
 70
     1
102
RTVSPropertyOp21
 70
     1
102
RTVSPropertyOp22
 70
     1
102
RTVSPropertyOp23
 70
     1
102
RTVSPropertyOp24
 70
     1
102
RTVSPropertyOp25
 70
     1
102
RTVSPropertyOp26
 70
     1
102
RTVSPropertyOp27
 70
     1
102
RTVSPropertyOp28
 70
     1
102
RTVSPropertyOp29
 70
     1
102
RTVSPropertyOp30
 70
     1
102
RTVSPropertyOp31
 70
     1
102
RTVSPropertyOp32
 70
     1
  0
XRECORD
  5
367
102
{ACAD_REACTORS
330
366
102
}
330
366
100
AcDbXrecord
280
     1
102
RTVSPropertyOp0
 70
     1
102
RTVSPropertyOp1
 70
     1
102
RTVSPropertyOp2
 70
     1
102
RTVSPropertyOp3
 70
     1
102
RTVSPropertyOp4
 70
     1
102
RTVSPropertyOp5
 70
     1
102
RTVSPropertyOp6
 70
     1
102
RTVSPropertyOp7
 70
     1
102
RTVSPropertyOp8
 70
     1
102
RTVSPropertyOp9
 70
     1
102
RTVSPropertyOp10
 70
     1
102
RTVSPropertyOp11
 70
     1
102
RTVSPropertyOp12
 70
     1
102
RTVSPropertyOp13
 70
     1
102
RTVSPropertyOp14
 70
     1
102
RTVSPropertyOp15
 70
     1
102
RTVSPropertyOp16
 70
     1
102
RTVSPropertyOp17
 70
     1
102
RTVSPropertyOp18
 70
     1
102
RTVSPropertyOp19
 70
     1
102
RTVSPropertyOp20
 70
     1
102
RTVSPropertyOp21
 70
     1
102
RTVSPropertyOp22
 70
     1
102
RTVSPropertyOp23
 70
     1
102
RTVSPropertyOp24
 70
     1
102
RTVSPropertyOp25
 70
     1
102
RTVSPropertyOp26
 70
     1
102
RTVSPropertyOp27
 70
     1
102
RTVSPropertyOp28
 70
     1
102
RTVSPropertyOp29
 70
     1
102
RTVSPropertyOp30
 70
     1
102
RTVSPropertyOp31
 70
     1
102
RTVSPropertyOp32
 70
     1
  0
XRECORD
  5
36B
102
{ACAD_REACTORS
330
36A
102
}
330
36A
100
AcDbXrecord
280
     1
102
RTVSPropertyOp0
 70
     1
102
RTVSPropertyOp1
 70
     1
102
RTVSPropertyOp2
 70
     1
102
RTVSPropertyOp3
 70
     1
102
RTVSPropertyOp4
 70
     1
102
RTVSPropertyOp5
 70
     1
102
RTVSPropertyOp6
 70
     1
102
RTVSPropertyOp7
 70
     1
102
RTVSPropertyOp8
 70
     1
102
RTVSPropertyOp9
 70
     1
102
RTVSPropertyOp10
 70
     1
102
RTVSPropertyOp11
 70
     1
102
RTVSPropertyOp12
 70
     1
102
RTVSPropertyOp13
 70
     1
102
RTVSPropertyOp14
 70
     1
102
RTVSPropertyOp15
 70
     1
102
RTVSPropertyOp16
 70
     1
102
RTVSPropertyOp17
 70
     1
102
RTVSPropertyOp18
 70
     1
102
RTVSPropertyOp19
 70
     1
102
RTVSPropertyOp20
 70
     1
102
RTVSPropertyOp21
 70
     1
102
RTVSPropertyOp22
 70
     1
102
RTVSPropertyOp23
 70
     1
102
RTVSPropertyOp24
 70
     1
102
RTVSPropertyOp25
 70
     1
102
RTVSPropertyOp26
 70
     1
102
RTVSPropertyOp27
 70
     1
102
RTVSPropertyOp28
 70
     1
102
RTVSPropertyOp29
 70
     1
102
RTVSPropertyOp30
 70
     1
102
RTVSPropertyOp31
 70
     1
102
RTVSPropertyOp32
 70
     1
  0
XRECORD
  5
37B
102
{ACAD_REACTORS
330
37A
102
}
330
37A
100
AcDbXrecord
280
     1
102
RTVSPropertyOp0
 70
     0
102
RTVSPropertyOp1
 70
     0
102
RTVSPropertyOp2
 70
     0
102
RTVSPropertyOp3
 70
     0
102
RTVSPropertyOp4
 70
     0
102
RTVSPropertyOp5
 70
     0
102
RTVSPropertyOp6
 70
     0
102
RTVSPropertyOp7
 70
     0
102
RTVSPropertyOp8
 70
     0
102
RTVSPropertyOp9
 70
     0
102
RTVSPropertyOp10
 70
     0
102
RTVSPropertyOp11
 70
     0
102
RTVSPropertyOp12
 70
     0
102
RTVSPropertyOp13
 70
     0
102
RTVSPropertyOp14
 70
     2
102
RTVSPropertyOp15
 70
     0
102
RTVSPropertyOp16
 70
     0
102
RTVSPropertyOp17
 70
     0
102
RTVSPropertyOp18
 70
     0
102
RTVSPropertyOp19
 70
     0
102
RTVSPropertyOp20
 70
     0
102
RTVSPropertyOp21
 70
     0
102
RTVSPropertyOp22
 70
     0
102
RTVSPropertyOp23
 70
     0
102
RTVSPropertyOp24
 70
     0
102
RTVSPropertyOp25
 70
     0
102
RTVSPropertyOp26
 70
     0
102
RTVSPropertyOp27
 70
     0
102
RTVSPropertyOp28
 70
     1
102
RTVSPropertyOp29
 70
     1
102
RTVSPropertyOp30
 70
     1
102
RTVSPropertyOp31
 70
     1
102
RTVSPropertyOp32
 70
     1
  0
XRECORD
  5
373
102
{ACAD_REACTORS
330
372
102
}
330
372
100
AcDbXrecord
280
     1
102
RTVSPropertyOp0
 70
     1
102
RTVSPropertyOp1
 70
     1
102
RTVSPropertyOp2
 70
     1
102
RTVSPropertyOp3
 70
     1
102
RTVSPropertyOp4
 70
     1
102
RTVSPropertyOp5
 70
     1
102
RTVSPropertyOp6
 70
     1
102
RTVSPropertyOp7
 70
     1
102
RTVSPropertyOp8
 70
     1
102
RTVSPropertyOp9
 70
     1
102
RTVSPropertyOp10
 70
     1
102
RTVSPropertyOp11
 70
     1
102
RTVSPropertyOp12
 70
     1
102
RTVSPropertyOp13
 70
     1
102
RTVSPropertyOp14
 70
     1
102
RTVSPropertyOp15
 70
     1
102
RTVSPropertyOp16
 70
     1
102
RTVSPropertyOp17
 70
     1
102
RTVSPropertyOp18
 70
     1
102
RTVSPropertyOp19
 70
     1
102
RTVSPropertyOp20
 70
     1
102
RTVSPropertyOp21
 70
     1
102
RTVSPropertyOp22
 70
     1
102
RTVSPropertyOp23
 70
     1
102
RTVSPropertyOp24
 70
     1
102
RTVSPropertyOp25
 70
     1
102
RTVSPropertyOp26
 70
     1
102
RTVSPropertyOp27
 70
     1
102
RTVSPropertyOp28
 70
     1
102
RTVSPropertyOp29
 70
     1
102
RTVSPropertyOp30
 70
     1
102
RTVSPropertyOp31
 70
     1
102
RTVSPropertyOp32
 70
     1
  0
XRECORD
  5
357
102
{ACAD_REACTORS
330
356
102
}
330
356
100
AcDbXrecord
280
     1
102
RTVSPropertyOp0
 70
     1
102
RTVSPropertyOp1
 70
     1
102
RTVSPropertyOp2
 70
     1
102
RTVSPropertyOp3
 70
     1
102
RTVSPropertyOp4
 70
     1
102
RTVSPropertyOp5
 70
     1
102
RTVSPropertyOp6
 70
     1
102
RTVSPropertyOp7
 70
     1
102
RTVSPropertyOp8
 70
     1
102
RTVSPropertyOp9
 70
     1
102
RTVSPropertyOp10
 70
     1
102
RTVSPropertyOp11
 70
     1
102
RTVSPropertyOp12
 70
     1
102
RTVSPropertyOp13
 70
     1
102
RTVSPropertyOp14
 70
     1
102
RTVSPropertyOp15
 70
     1
102
RTVSPropertyOp16
 70
     1
102
RTVSPropertyOp17
 70
     1
102
RTVSPropertyOp18
 70
     1
102
RTVSPropertyOp19
 70
     1
102
RTVSPropertyOp20
 70
     1
102
RTVSPropertyOp21
 70
     1
102
RTVSPropertyOp22
 70
     1
102
RTVSPropertyOp23
 70
     1
102
RTVSPropertyOp24
 70
     1
102
RTVSPropertyOp25
 70
     1
102
RTVSPropertyOp26
 70
     1
102
RTVSPropertyOp27
 70
     1
102
RTVSPropertyOp28
 70
     1
102
RTVSPropertyOp29
 70
     1
102
RTVSPropertyOp30
 70
     1
102
RTVSPropertyOp31
 70
     1
102
RTVSPropertyOp32
 70
     1
  0
XRECORD
  5
359
102
{ACAD_REACTORS
330
358
102
}
330
358
100
AcDbXrecord
280
     1
102
RTVSPropertyOp0
 70
     1
102
RTVSPropertyOp1
 70
     1
102
RTVSPropertyOp2
 70
     1
102
RTVSPropertyOp3
 70
     1
102
RTVSPropertyOp4
 70
     1
102
RTVSPropertyOp5
 70
     1
102
RTVSPropertyOp6
 70
     1
102
RTVSPropertyOp7
 70
     1
102
RTVSPropertyOp8
 70
     1
102
RTVSPropertyOp9
 70
     1
102
RTVSPropertyOp10
 70
     1
102
RTVSPropertyOp11
 70
     1
102
RTVSPropertyOp12
 70
     1
102
RTVSPropertyOp13
 70
     1
102
RTVSPropertyOp14
 70
     1
102
RTVSPropertyOp15
 70
     1
102
RTVSPropertyOp16
 70
     1
102
RTVSPropertyOp17
 70
     1
102
RTVSPropertyOp18
 70
     1
102
RTVSPropertyOp19
 70
     1
102
RTVSPropertyOp20
 70
     1
102
RTVSPropertyOp21
 70
     1
102
RTVSPropertyOp22
 70
     1
102
RTVSPropertyOp23
 70
     1
102
RTVSPropertyOp24
 70
     1
102
RTVSPropertyOp25
 70
     1
102
RTVSPropertyOp26
 70
     1
102
RTVSPropertyOp27
 70
     1
102
RTVSPropertyOp28
 70
     1
102
RTVSPropertyOp29
 70
     1
102
RTVSPropertyOp30
 70
     1
102
RTVSPropertyOp31
 70
     1
102
RTVSPropertyOp32
 70
     1
  0
XRECORD
  5
35B
102
{ACAD_REACTORS
330
35A
102
}
330
35A
100
AcDbXrecord
280
     1
102
RTVSPropertyOp0
 70
     1
102
RTVSPropertyOp1
 70
     1
102
RTVSPropertyOp2
 70
     1
102
RTVSPropertyOp3
 70
     1
102
RTVSPropertyOp4
 70
     1
102
RTVSPropertyOp5
 70
     1
102
RTVSPropertyOp6
 70
     1
102
RTVSPropertyOp7
 70
     1
102
RTVSPropertyOp8
 70
     1
102
RTVSPropertyOp9
 70
     1
102
RTVSPropertyOp10
 70
     1
102
RTVSPropertyOp11
 70
     1
102
RTVSPropertyOp12
 70
     1
102
RTVSPropertyOp13
 70
     1
102
RTVSPropertyOp14
 70
     1
102
RTVSPropertyOp15
 70
     1
102
RTVSPropertyOp16
 70
     1
102
RTVSPropertyOp17
 70
     1
102
RTVSPropertyOp18
 70
     1
102
RTVSPropertyOp19
 70
     1
102
RTVSPropertyOp20
 70
     1
102
RTVSPropertyOp21
 70
     1
102
RTVSPropertyOp22
 70
     1
102
RTVSPropertyOp23
 70
     1
102
RTVSPropertyOp24
 70
     1
102
RTVSPropertyOp25
 70
     1
102
RTVSPropertyOp26
 70
     1
102
RTVSPropertyOp27
 70
     1
102
RTVSPropertyOp28
 70
     1
102
RTVSPropertyOp29
 70
     1
102
RTVSPropertyOp30
 70
     1
102
RTVSPropertyOp31
 70
     1
102
RTVSPropertyOp32
 70
     1
  0
XRECORD
  5
35D
102
{ACAD_REACTORS
330
35C
102
}
330
35C
100
AcDbXrecord
280
     1
102
RTVSPropertyOp0
 70
     1
102
RTVSPropertyOp1
 70
     1
102
RTVSPropertyOp2
 70
     1
102
RTVSPropertyOp3
 70
     1
102
RTVSPropertyOp4
 70
     1
102
RTVSPropertyOp5
 70
     1
102
RTVSPropertyOp6
 70
     1
102
RTVSPropertyOp7
 70
     1
102
RTVSPropertyOp8
 70
     1
102
RTVSPropertyOp9
 70
     1
102
RTVSPropertyOp10
 70
     1
102
RTVSPropertyOp11
 70
     1
102
RTVSPropertyOp12
 70
     1
102
RTVSPropertyOp13
 70
     1
102
RTVSPropertyOp14
 70
     1
102
RTVSPropertyOp15
 70
     1
102
RTVSPropertyOp16
 70
     1
102
RTVSPropertyOp17
 70
     1
102
RTVSPropertyOp18
 70
     1
102
RTVSPropertyOp19
 70
     1
102
RTVSPropertyOp20
 70
     1
102
RTVSPropertyOp21
 70
     1
102
RTVSPropertyOp22
 70
     1
102
RTVSPropertyOp23
 70
     1
102
RTVSPropertyOp24
 70
     1
102
RTVSPropertyOp25
 70
     1
102
RTVSPropertyOp26
 70
     1
102
RTVSPropertyOp27
 70
     1
102
RTVSPropertyOp28
 70
     1
102
RTVSPropertyOp29
 70
     1
102
RTVSPropertyOp30
 70
     1
102
RTVSPropertyOp31
 70
     1
102
RTVSPropertyOp32
 70
     1
  0
XRECORD
  5
38C
102
{ACAD_REACTORS
330
38B
102
}
330
38B
100
AcDbXrecord
280
     1
102
RTVSPropertyOp0
 70
     1
102
RTVSPropertyOp1
 70
     1
102
RTVSPropertyOp2
 70
     1
102
RTVSPropertyOp3
 70
     1
102
RTVSPropertyOp4
 70
     1
102
RTVSPropertyOp5
 70
     1
102
RTVSPropertyOp6
 70
     1
102
RTVSPropertyOp7
 70
     1
102
RTVSPropertyOp8
 70
     1
102
RTVSPropertyOp9
 70
     1
102
RTVSPropertyOp10
 70
     1
102
RTVSPropertyOp11
 70
     1
102
RTVSPropertyOp12
 70
     1
102
RTVSPropertyOp13
 70
     1
102
RTVSPropertyOp14
 70
     1
102
RTVSPropertyOp15
 70
     1
102
RTVSPropertyOp16
 70
     1
102
RTVSPropertyOp17
 70
     1
102
RTVSPropertyOp18
 70
     1
102
RTVSPropertyOp19
 70
     1
102
RTVSPropertyOp20
 70
     1
102
RTVSPropertyOp21
 70
     1
102
RTVSPropertyOp22
 70
     1
102
RTVSPropertyOp23
 70
     1
102
RTVSPropertyOp24
 70
     1
102
RTVSPropertyOp25
 70
     1
102
RTVSPropertyOp26
 70
     1
102
RTVSPropertyOp27
 70
     1
102
RTVSPropertyOp28
 70
     1
102
RTVSPropertyOp29
 70
     1
102
RTVSPropertyOp30
 70
     1
102
RTVSPropertyOp31
 70
     1
102
RTVSPropertyOp32
 70
     1
  0
XRECORD
  5
377
102
{ACAD_REACTORS
330
376
102
}
330
376
100
AcDbXrecord
280
     1
102
RTVSPropertyOp0
 70
     0
102
RTVSPropertyOp1
 70
     0
102
RTVSPropertyOp2
 70
     0
102
RTVSPropertyOp3
 70
     0
102
RTVSPropertyOp4
 70
     0
102
RTVSPropertyOp5
 70
     0
102
RTVSPropertyOp6
 70
     0
102
RTVSPropertyOp7
 70
     0
102
RTVSPropertyOp8
 70
     0
102
RTVSPropertyOp9
 70
     0
102
RTVSPropertyOp10
 70
     0
102
RTVSPropertyOp11
 70
     0
102
RTVSPropertyOp12
 70
     0
102
RTVSPropertyOp13
 70
     0
102
RTVSPropertyOp14
 70
     2
102
RTVSPropertyOp15
 70
     0
102
RTVSPropertyOp16
 70
     0
102
RTVSPropertyOp17
 70
     0
102
RTVSPropertyOp18
 70
     0
102
RTVSPropertyOp19
 70
     0
102
RTVSPropertyOp20
 70
     0
102
RTVSPropertyOp21
 70
     0
102
RTVSPropertyOp22
 70
     0
102
RTVSPropertyOp23
 70
     0
102
RTVSPropertyOp24
 70
     0
102
RTVSPropertyOp25
 70
     0
102
RTVSPropertyOp26
 70
     0
102
RTVSPropertyOp27
 70
     0
102
RTVSPropertyOp28
 70
     1
102
RTVSPropertyOp29
 70
     1
102
RTVSPropertyOp30
 70
     1
102
RTVSPropertyOp31
 70
     1
102
RTVSPropertyOp32
 70
     1
  0
XRECORD
  5
371
102
{ACAD_REACTORS
330
370
102
}
330
370
100
AcDbXrecord
280
     1
102
RTVSPropertyOp0
 70
     1
102
RTVSPropertyOp1
 70
     1
102
RTVSPropertyOp2
 70
     1
102
RTVSPropertyOp3
 70
     1
102
RTVSPropertyOp4
 70
     1
102
RTVSPropertyOp5
 70
     1
102
RTVSPropertyOp6
 70
     1
102
RTVSPropertyOp7
 70
     1
102
RTVSPropertyOp8
 70
     1
102
RTVSPropertyOp9
 70
     1
102
RTVSPropertyOp10
 70
     1
102
RTVSPropertyOp11
 70
     1
102
RTVSPropertyOp12
 70
     1
102
RTVSPropertyOp13
 70
     1
102
RTVSPropertyOp14
 70
     1
102
RTVSPropertyOp15
 70
     1
102
RTVSPropertyOp16
 70
     1
102
RTVSPropertyOp17
 70
     1
102
RTVSPropertyOp18
 70
     1
102
RTVSPropertyOp19
 70
     1
102
RTVSPropertyOp20
 70
     1
102
RTVSPropertyOp21
 70
     1
102
RTVSPropertyOp22
 70
     1
102
RTVSPropertyOp23
 70
     1
102
RTVSPropertyOp24
 70
     1
102
RTVSPropertyOp25
 70
     1
102
RTVSPropertyOp26
 70
     1
102
RTVSPropertyOp27
 70
     1
102
RTVSPropertyOp28
 70
     1
102
RTVSPropertyOp29
 70
     1
102
RTVSPropertyOp30
 70
     1
102
RTVSPropertyOp31
 70
     1
102
RTVSPropertyOp32
 70
     1
  0
XRECORD
  5
379
102
{ACAD_REACTORS
330
378
102
}
330
378
100
AcDbXrecord
280
     1
102
RTVSPropertyOp0
 70
     0
102
RTVSPropertyOp1
 70
     0
102
RTVSPropertyOp2
 70
     0
102
RTVSPropertyOp3
 70
     0
102
RTVSPropertyOp4
 70
     0
102
RTVSPropertyOp5
 70
     0
102
RTVSPropertyOp6
 70
     0
102
RTVSPropertyOp7
 70
     0
102
RTVSPropertyOp8
 70
     0
102
RTVSPropertyOp9
 70
     0
102
RTVSPropertyOp10
 70
     0
102
RTVSPropertyOp11
 70
     0
102
RTVSPropertyOp12
 70
     0
102
RTVSPropertyOp13
 70
     0
102
RTVSPropertyOp14
 70
     2
102
RTVSPropertyOp15
 70
     0
102
RTVSPropertyOp16
 70
     0
102
RTVSPropertyOp17
 70
     0
102
RTVSPropertyOp18
 70
     0
102
RTVSPropertyOp19
 70
     0
102
RTVSPropertyOp20
 70
     0
102
RTVSPropertyOp21
 70
     0
102
RTVSPropertyOp22
 70
     0
102
RTVSPropertyOp23
 70
     0
102
RTVSPropertyOp24
 70
     0
102
RTVSPropertyOp25
 70
     0
102
RTVSPropertyOp26
 70
     0
102
RTVSPropertyOp27
 70
     0
102
RTVSPropertyOp28
 70
     1
102
RTVSPropertyOp29
 70
     1
102
RTVSPropertyOp30
 70
     1
102
RTVSPropertyOp31
 70
     1
102
RTVSPropertyOp32
 70
     1
  0
XRECORD
  5
369
102
{ACAD_REACTORS
330
368
102
}
330
368
100
AcDbXrecord
280
     1
102
RTVSPropertyOp0
 70
     1
102
RTVSPropertyOp1
 70
     1
102
RTVSPropertyOp2
 70
     1
102
RTVSPropertyOp3
 70
     1
102
RTVSPropertyOp4
 70
     1
102
RTVSPropertyOp5
 70
     1
102
RTVSPropertyOp6
 70
     1
102
RTVSPropertyOp7
 70
     1
102
RTVSPropertyOp8
 70
     1
102
RTVSPropertyOp9
 70
     1
102
RTVSPropertyOp10
 70
     1
102
RTVSPropertyOp11
 70
     1
102
RTVSPropertyOp12
 70
     1
102
RTVSPropertyOp13
 70
     1
102
RTVSPropertyOp14
 70
     1
102
RTVSPropertyOp15
 70
     1
102
RTVSPropertyOp16
 70
     1
102
RTVSPropertyOp17
 70
     1
102
RTVSPropertyOp18
 70
     1
102
RTVSPropertyOp19
 70
     1
102
RTVSPropertyOp20
 70
     1
102
RTVSPropertyOp21
 70
     1
102
RTVSPropertyOp22
 70
     1
102
RTVSPropertyOp23
 70
     1
102
RTVSPropertyOp24
 70
     1
102
RTVSPropertyOp25
 70
     1
102
RTVSPropertyOp26
 70
     1
102
RTVSPropertyOp27
 70
     1
102
RTVSPropertyOp28
 70
     1
102
RTVSPropertyOp29
 70
     1
102
RTVSPropertyOp30
 70
     1
102
RTVSPropertyOp31
 70
     1
102
RTVSPropertyOp32
 70
     1
  0
XRECORD
  5
396
102
{ACAD_REACTORS
330
395
102
}
330
395
100
AcDbXrecord
280
     1
102
RTVSPropertyOp0
 70
     1
102
RTVSPropertyOp1
 70
     1
102
RTVSPropertyOp2
 70
     1
102
RTVSPropertyOp3
 70
     1
102
RTVSPropertyOp4
 70
     1
102
RTVSPropertyOp5
 70
     1
102
RTVSPropertyOp6
 70
     1
102
RTVSPropertyOp7
 70
     1
102
RTVSPropertyOp8
 70
     1
102
RTVSPropertyOp9
 70
     1
102
RTVSPropertyOp10
 70
     1
102
RTVSPropertyOp11
 70
     1
102
RTVSPropertyOp12
 70
     1
102
RTVSPropertyOp13
 70
     1
102
RTVSPropertyOp14
 70
     1
102
RTVSPropertyOp15
 70
     1
102
RTVSPropertyOp16
 70
     1
102
RTVSPropertyOp17
 70
     1
102
RTVSPropertyOp18
 70
     1
102
RTVSPropertyOp19
 70
     1
102
RTVSPropertyOp20
 70
     1
102
RTVSPropertyOp21
 70
     1
102
RTVSPropertyOp22
 70
     1
102
RTVSPropertyOp23
 70
     1
102
RTVSPropertyOp24
 70
     1
102
RTVSPropertyOp25
 70
     1
102
RTVSPropertyOp26
 70
     1
102
RTVSPropertyOp27
 70
     1
102
RTVSPropertyOp28
 70
     1
102
RTVSPropertyOp29
 70
     1
102
RTVSPropertyOp30
 70
     1
102
RTVSPropertyOp31
 70
     1
102
RTVSPropertyOp32
 70
     1
  0
XRECORD
  5
394
102
{ACAD_REACTORS
330
393
102
}
330
393
100
AcDbXrecord
280
     1
102
RTVSPropertyOp0
 70
     1
102
RTVSPropertyOp1
 70
     1
102
RTVSPropertyOp2
 70
     1
102
RTVSPropertyOp3
 70
     1
102
RTVSPropertyOp4
 70
     1
102
RTVSPropertyOp5
 70
     1
102
RTVSPropertyOp6
 70
     1
102
RTVSPropertyOp7
 70
     1
102
RTVSPropertyOp8
 70
     1
102
RTVSPropertyOp9
 70
     1
102
RTVSPropertyOp10
 70
     1
102
RTVSPropertyOp11
 70
     1
102
RTVSPropertyOp12
 70
     1
102
RTVSPropertyOp13
 70
     1
102
RTVSPropertyOp14
 70
     1
102
RTVSPropertyOp15
 70
     1
102
RTVSPropertyOp16
 70
     1
102
RTVSPropertyOp17
 70
     1
102
RTVSPropertyOp18
 70
     1
102
RTVSPropertyOp19
 70
     1
102
RTVSPropertyOp20
 70
     1
102
RTVSPropertyOp21
 70
     1
102
RTVSPropertyOp22
 70
     1
102
RTVSPropertyOp23
 70
     1
102
RTVSPropertyOp24
 70
     1
102
RTVSPropertyOp25
 70
     1
102
RTVSPropertyOp26
 70
     1
102
RTVSPropertyOp27
 70
     1
102
RTVSPropertyOp28
 70
     1
102
RTVSPropertyOp29
 70
     1
102
RTVSPropertyOp30
 70
     1
102
RTVSPropertyOp31
 70
     1
102
RTVSPropertyOp32
 70
     1
  0
XRECORD
  5
38E
102
{ACAD_REACTORS
330
38D
102
}
330
38D
100
AcDbXrecord
280
     1
102
RTVSPropertyOp0
 70
     1
102
RTVSPropertyOp1
 70
     1
102
RTVSPropertyOp2
 70
     1
102
RTVSPropertyOp3
 70
     1
102
RTVSPropertyOp4
 70
     1
102
RTVSPropertyOp5
 70
     1
102
RTVSPropertyOp6
 70
     1
102
RTVSPropertyOp7
 70
     1
102
RTVSPropertyOp8
 70
     1
102
RTVSPropertyOp9
 70
     1
102
RTVSPropertyOp10
 70
     1
102
RTVSPropertyOp11
 70
     1
102
RTVSPropertyOp12
 70
     1
102
RTVSPropertyOp13
 70
     1
102
RTVSPropertyOp14
 70
     1
102
RTVSPropertyOp15
 70
     1
102
RTVSPropertyOp16
 70
     1
102
RTVSPropertyOp17
 70
     1
102
RTVSPropertyOp18
 70
     1
102
RTVSPropertyOp19
 70
     1
102
RTVSPropertyOp20
 70
     1
102
RTVSPropertyOp21
 70
     1
102
RTVSPropertyOp22
 70
     1
102
RTVSPropertyOp23
 70
     1
102
RTVSPropertyOp24
 70
     1
102
RTVSPropertyOp25
 70
     1
102
RTVSPropertyOp26
 70
     1
102
RTVSPropertyOp27
 70
     1
102
RTVSPropertyOp28
 70
     1
102
RTVSPropertyOp29
 70
     1
102
RTVSPropertyOp30
 70
     1
102
RTVSPropertyOp31
 70
     1
102
RTVSPropertyOp32
 70
     1
  0
XRECORD
  5
390
102
{ACAD_REACTORS
330
38F
102
}
330
38F
100
AcDbXrecord
280
     1
102
RTVSPropertyOp0
 70
     1
102
RTVSPropertyOp1
 70
     1
102
RTVSPropertyOp2
 70
     1
102
RTVSPropertyOp3
 70
     1
102
RTVSPropertyOp4
 70
     1
102
RTVSPropertyOp5
 70
     1
102
RTVSPropertyOp6
 70
     1
102
RTVSPropertyOp7
 70
     1
102
RTVSPropertyOp8
 70
     1
102
RTVSPropertyOp9
 70
     1
102
RTVSPropertyOp10
 70
     1
102
RTVSPropertyOp11
 70
     1
102
RTVSPropertyOp12
 70
     1
102
RTVSPropertyOp13
 70
     1
102
RTVSPropertyOp14
 70
     1
102
RTVSPropertyOp15
 70
     1
102
RTVSPropertyOp16
 70
     1
102
RTVSPropertyOp17
 70
     1
102
RTVSPropertyOp18
 70
     1
102
RTVSPropertyOp19
 70
     1
102
RTVSPropertyOp20
 70
     1
102
RTVSPropertyOp21
 70
     1
102
RTVSPropertyOp22
 70
     1
102
RTVSPropertyOp23
 70
     1
102
RTVSPropertyOp24
 70
     1
102
RTVSPropertyOp25
 70
     1
102
RTVSPropertyOp26
 70
     1
102
RTVSPropertyOp27
 70
     1
102
RTVSPropertyOp28
 70
     1
102
RTVSPropertyOp29
 70
     1
102
RTVSPropertyOp30
 70
     1
102
RTVSPropertyOp31
 70
     1
102
RTVSPropertyOp32
 70
     1
  0
XRECORD
  5
36F
102
{ACAD_REACTORS
330
36E
102
}
330
36E
100
AcDbXrecord
280
     1
102
RTVSPropertyOp0
 70
     1
102
RTVSPropertyOp1
 70
     1
102
RTVSPropertyOp2
 70
     1
102
RTVSPropertyOp3
 70
     1
102
RTVSPropertyOp4
 70
     1
102
RTVSPropertyOp5
 70
     1
102
RTVSPropertyOp6
 70
     1
102
RTVSPropertyOp7
 70
     1
102
RTVSPropertyOp8
 70
     1
102
RTVSPropertyOp9
 70
     1
102
RTVSPropertyOp10
 70
     1
102
RTVSPropertyOp11
 70
     1
102
RTVSPropertyOp12
 70
     1
102
RTVSPropertyOp13
 70
     1
102
RTVSPropertyOp14
 70
     1
102
RTVSPropertyOp15
 70
     1
102
RTVSPropertyOp16
 70
     1
102
RTVSPropertyOp17
 70
     1
102
RTVSPropertyOp18
 70
     1
102
RTVSPropertyOp19
 70
     1
102
RTVSPropertyOp20
 70
     1
102
RTVSPropertyOp21
 70
     1
102
RTVSPropertyOp22
 70
     1
102
RTVSPropertyOp23
 70
     1
102
RTVSPropertyOp24
 70
     1
102
RTVSPropertyOp25
 70
     1
102
RTVSPropertyOp26
 70
     1
102
RTVSPropertyOp27
 70
     1
102
RTVSPropertyOp28
 70
     1
102
RTVSPropertyOp29
 70
     1
102
RTVSPropertyOp30
 70
     1
102
RTVSPropertyOp31
 70
     1
102
RTVSPropertyOp32
 70
     1
  0
XRECORD
  5
38A
102
{ACAD_REACTORS
330
389
102
}
330
389
100
AcDbXrecord
280
     1
102
RTVSPropertyOp0
 70
     1
102
RTVSPropertyOp1
 70
     1
102
RTVSPropertyOp2
 70
     1
102
RTVSPropertyOp3
 70
     1
102
RTVSPropertyOp4
 70
     1
102
RTVSPropertyOp5
 70
     1
102
RTVSPropertyOp6
 70
     1
102
RTVSPropertyOp7
 70
     1
102
RTVSPropertyOp8
 70
     1
102
RTVSPropertyOp9
 70
     1
102
RTVSPropertyOp10
 70
     1
102
RTVSPropertyOp11
 70
     1
102
RTVSPropertyOp12
 70
     1
102
RTVSPropertyOp13
 70
     1
102
RTVSPropertyOp14
 70
     1
102
RTVSPropertyOp15
 70
     1
102
RTVSPropertyOp16
 70
     1
102
RTVSPropertyOp17
 70
     1
102
RTVSPropertyOp18
 70
     1
102
RTVSPropertyOp19
 70
     1
102
RTVSPropertyOp20
 70
     1
102
RTVSPropertyOp21
 70
     1
102
RTVSPropertyOp22
 70
     1
102
RTVSPropertyOp23
 70
     1
102
RTVSPropertyOp24
 70
     1
102
RTVSPropertyOp25
 70
     1
102
RTVSPropertyOp26
 70
     1
102
RTVSPropertyOp27
 70
     1
102
RTVSPropertyOp28
 70
     1
102
RTVSPropertyOp29
 70
     1
102
RTVSPropertyOp30
 70
     1
102
RTVSPropertyOp31
 70
     1
102
RTVSPropertyOp32
 70
     1
  0
XRECORD
  5
392
102
{ACAD_REACTORS
330
391
102
}
330
391
100
AcDbXrecord
280
     1
102
RTVSPropertyOp0
 70
     1
102
RTVSPropertyOp1
 70
     1
102
RTVSPropertyOp2
 70
     1
102
RTVSPropertyOp3
 70
     1
102
RTVSPropertyOp4
 70
     1
102
RTVSPropertyOp5
 70
     1
102
RTVSPropertyOp6
 70
     1
102
RTVSPropertyOp7
 70
     1
102
RTVSPropertyOp8
 70
     1
102
RTVSPropertyOp9
 70
     1
102
RTVSPropertyOp10
 70
     1
102
RTVSPropertyOp11
 70
     1
102
RTVSPropertyOp12
 70
     1
102
RTVSPropertyOp13
 70
     1
102
RTVSPropertyOp14
 70
     1
102
RTVSPropertyOp15
 70
     1
102
RTVSPropertyOp16
 70
     1
102
RTVSPropertyOp17
 70
     1
102
RTVSPropertyOp18
 70
     1
102
RTVSPropertyOp19
 70
     1
102
RTVSPropertyOp20
 70
     1
102
RTVSPropertyOp21
 70
     1
102
RTVSPropertyOp22
 70
     1
102
RTVSPropertyOp23
 70
     1
102
RTVSPropertyOp24
 70
     1
102
RTVSPropertyOp25
 70
     1
102
RTVSPropertyOp26
 70
     1
102
RTVSPropertyOp27
 70
     1
102
RTVSPropertyOp28
 70
     1
102
RTVSPropertyOp29
 70
     1
102
RTVSPropertyOp30
 70
     1
102
RTVSPropertyOp31
 70
     1
102
RTVSPropertyOp32
 70
     1
  0
ENDSEC
  0
EOF
