  0
SECTION
  2
HEADER
  9
$ACADVER
  1
AC1015
  9
$ACADMAINTVER
 70
    20
  9
$DWGCODEPAGE
  3
ANSI_1252
  9
$INSBASE
 10
0.0
 20
0.0
 30
0.0
  9
$EXTMIN
 10
-21.67317869001909
 20
-19.98711155582697
 30
0.0
  9
$EXTMAX
 10
303.7056982284208
 20
287.6348267953136
 30
0.0
  9
$LIMMIN
 10
0.0
 20
0.0
  9
$LIMMAX
 10
210.0
 20
297.0
  9
$ORTHOMODE
 70
     0
  9
$REGENMODE
 70
     1
  9
$FILLMODE
 70
     1
  9
$QTEXTMODE
 70
     0
  9
$MIRRTEXT
 70
     1
  9
$LTSCALE
 40
25.4
  9
$ATTMODE
 70
     1
  9
$TEXTSIZE
 40
0.2
  9
$TRACEWID
 40
0.05
  9
$TEXTSTYLE
  7
Standard
  9
$CLAYER
  8
P-0000
  9
$CELTYPE
  6
CONTINUOUS
  9
$CECOLOR
 62
   256
  9
$CELTSCALE
 40
1.0
  9
$DISPSILH
 70
     0
  9
$DIMSCALE
 40
1.0
  9
$DIMASZ
 40
0.18
  9
$DIMEXO
 40
0.0625
  9
$DIMDLI
 40
0.38
  9
$DIMRND
 40
0.0
  9
$DIMDLE
 40
0.0
  9
$DIMEXE
 40
0.18
  9
$DIMTP
 40
0.0
  9
$DIMTM
 40
0.0
  9
$DIMTXT
 40
0.18
  9
$DIMCEN
 40
0.09
  9
$DIMTSZ
 40
0.0
  9
$DIMTOL
 70
     0
  9
$DIMLIM
 70
     0
  9
$DIMTIH
 70
     1
  9
$DIMTOH
 70
     1
  9
$DIMSE1
 70
     0
  9
$DIMSE2
 70
     0
  9
$DIMTAD
 70
     0
  9
$DIMZIN
 70
     0
  9
$DIMBLK
  1

  9
$DIMASO
 70
     1
  9
$DIMSHO
 70
     1
  9
$DIMPOST
  1

  9
$DIMAPOST
  1

  9
$DIMALT
 70
     0
  9
$DIMALTD
 70
     2
  9
$DIMALTF
 40
25.4
  9
$DIMLFAC
 40
1.0
  9
$DIMTOFL
 70
     0
  9
$DIMTVP
 40
0.0
  9
$DIMTIX
 70
     0
  9
$DIMSOXD
 70
     0
  9
$DIMSAH
 70
     0
  9
$DIMBLK1
  1

  9
$DIMBLK2
  1

  9
$DIMSTYLE
  2
Standard
  9
$DIMCLRD
 70
     0
  9
$DIMCLRE
 70
     0
  9
$DIMCLRT
 70
     0
  9
$DIMTFAC
 40
1.0
  9
$DIMGAP
 40
0.09
  9
$DIMJUST
 70
     0
  9
$DIMSD1
 70
     0
  9
$DIMSD2
 70
     0
  9
$DIMTOLJ
 70
     1
  9
$DIMTZIN
 70
     0
  9
$DIMALTZ
 70
     0
  9
$DIMALTTZ
 70
     0
  9
$DIMUPT
 70
     0
  9
$DIMDEC
 70
     4
  9
$DIMTDEC
 70
     4
  9
$DIMALTU
 70
     2
  9
$DIMALTTD
 70
     2
  9
$DIMTXSTY
  7
Standard
  9
$DIMAUNIT
 70
     0
  9
$DIMADEC
 70
     0
  9
$DIMALTRND
 40
0.0
  9
$DIMAZIN
 70
     0
  9
$DIMDSEP
 70
     0
  9
$DIMATFIT
 70
     3
  9
$DIMFRAC
 70
     0
  9
$DIMLDRBLK
  1

  9
$DIMLUNIT
 70
     2
  9
$DIMLWD
 70
     0
  9
$DIMLWE
 70
     0
  9
$DIMTMOVE
 70
     0
  9
$LUNITS
 70
     2
  9
$LUPREC
 70
     4
  9
$SKETCHINC
 40
0.1
  9
$FILLETRAD
 40
0.0
  9
$AUNITS
 70
     0
  9
$AUPREC
 70
     0
  9
$MENU
  1
acad
  9
$ELEVATION
 40
0.0
  9
$PELEVATION
 40
0.0
  9
$THICKNESS
 40
0.0
  9
$LIMCHECK
 70
     0
  9
$CHAMFERA
 40
0.0
  9
$CHAMFERB
 40
0.0
  9
$CHAMFERC
 40
0.0
  9
$CHAMFERD
 40
0.0
  9
$SKPOLY
 70
     0
  9
$TDCREATE
 40
2455561.590920255
  9
$TDUCREATE
 40
2455561.549253588
  9
$TDUPDATE
 40
2455637.659329942
  9
$TDUUPDATE
 40
2455637.617663275
  9
$TDINDWG
 40
0.0006917824
  9
$TDUSRTIMER
 40
0.0006917824
  9
$USRTIMER
 70
     1
  9
$ANGBASE
 50
0.0
  9
$ANGDIR
 70
     0
  9
$PDMODE
 70
     0
  9
$PDSIZE
 40
0.0
  9
$PLINEWID
 40
0.0
  9
$SPLFRAME
 70
     0
  9
$SPLINETYPE
 70
     6
  9
$SPLINESEGS
 70
     8
  9
$HANDSEED
  5
33F
  9
$SURFTAB1
 70
     6
  9
$SURFTAB2
 70
     6
  9
$SURFTYPE
 70
     6
  9
$SURFU
 70
     6
  9
$SURFV
 70
     6
  9
$UCSBASE
  2

  9
$UCSNAME
  2

  9
$UCSORG
 10
0.0
 20
0.0
 30
0.0
  9
$UCSXDIR
 10
1.0
 20
0.0
 30
0.0
  9
$UCSYDIR
 10
0.0
 20
1.0
 30
0.0
  9
$UCSORTHOREF
  2

  9
$UCSORTHOVIEW
 70
     0
  9
$UCSORGTOP
 10
0.0
 20
0.0
 30
0.0
  9
$UCSORGBOTTOM
 10
0.0
 20
0.0
 30
0.0
  9
$UCSORGLEFT
 10
0.0
 20
0.0
 30
0.0
  9
$UCSORGRIGHT
 10
0.0
 20
0.0
 30
0.0
  9
$UCSORGFRONT
 10
0.0
 20
0.0
 30
0.0
  9
$UCSORGBACK
 10
0.0
 20
0.0
 30
0.0
  9
$PUCSBASE
  2

  9
$PUCSNAME
  2

  9
$PUCSORG
 10
0.0
 20
0.0
 30
0.0
  9
$PUCSXDIR
 10
1.0
 20
0.0
 30
0.0
  9
$PUCSYDIR
 10
0.0
 20
1.0
 30
0.0
  9
$PUCSORTHOREF
  2

  9
$PUCSORTHOVIEW
 70
     0
  9
$PUCSORGTOP
 10
0.0
 20
0.0
 30
0.0
  9
$PUCSORGBOTTOM
 10
0.0
 20
0.0
 30
0.0
  9
$PUCSORGLEFT
 10
0.0
 20
0.0
 30
0.0
  9
$PUCSORGRIGHT
 10
0.0
 20
0.0
 30
0.0
  9
$PUCSORGFRONT
 10
0.0
 20
0.0
 30
0.0
  9
$PUCSORGBACK
 10
0.0
 20
0.0
 30
0.0
  9
$USERI1
 70
     0
  9
$USERI2
 70
     0
  9
$USERI3
 70
     0
  9
$USERI4
 70
     0
  9
$USERI5
 70
     0
  9
$USERR1
 40
0.0
  9
$USERR2
 40
0.0
  9
$USERR3
 40
0.0
  9
$USERR4
 40
0.0
  9
$USERR5
 40
0.0
  9
$WORLDVIEW
 70
     1
  9
$SHADEDGE
 70
     3
  9
$SHADEDIF
 70
    70
  9
$TILEMODE
 70
     1
  9
$MAXACTVP
 70
    16
  9
$PINSBASE
 10
0.0
 20
0.0
 30
0.0
  9
$PLIMCHECK
 70
     0
  9
$PEXTMIN
 10
1.000000000000000E+20
 20
1.000000000000000E+20
 30
1.000000000000000E+20
  9
$PEXTMAX
 10
-1.000000000000000E+20
 20
-1.000000000000000E+20
 30
-1.000000000000000E+20
  9
$PLIMMIN
 10
0.0
 20
0.0
  9
$PLIMMAX
 10
12.0
 20
9.0
  9
$UNITMODE
 70
     0
  9
$VISRETAIN
 70
     0
  9
$PLINEGEN
 70
     1
  9
$PSLTSCALE
 70
     0
  9
$TREEDEPTH
 70
  3020
  9
$CMLSTYLE
  2
Standard
  9
$CMLJUST
 70
     0
  9
$CMLSCALE
 40
1.0
  9
$PROXYGRAPHICS
 70
     0
  9
$MEASUREMENT
 70
     0
  9
$CELWEIGHT
370
     0
  9
$ENDCAPS
280
     0
  9
$JOINSTYLE
280
     0
  9
$LWDISPLAY
290
     0
  9
$INSUNITS
 70
     0
  9
$HYPERLINKBASE
  1

  9
$STYLESHEET
  1

  9
$XEDIT
290
     1
  9
$CEPSNTYPE
380
     0
  9
$PSTYLEMODE
290
     1
  9
$FINGERPRINTGUID
  2

  9
$VERSIONGUID
  2
{9783C115-0BDE-4B8C-BE45-76FDBBB6595A}
  9
$EXTNAMES
290
     1
  9
$PSVPSCALE
 40
0.0
  9
$OLESTARTUP
290
     0
  0
ENDSEC
  0
SECTION
  2
CLASSES
  0
CLASS
  1
LWPOLYLINE
  2
AcDbPolyline
  3
ObjectDBX Classes
 90
        0
280
     0
281
     1
  0
CLASS
  1
IMAGE
  2
AcDbRasterImage
  3
ISM
 90
    34943
280
     0
281
     1
  0
CLASS
  1
OLE2FRAME
  2
AcDbOle2Frame
  3
ObjectDBX Classes
 90
    32768
280
     0
281
     1
  0
CLASS
  1
HATCH
  2
AcDbHatch
  3
ObjectDBX Classes
 90
        0
280
     0
281
     1
  0
CLASS
  1
DICTIONARYVAR
  2
AcDbDictionaryVar
  3
ObjectDBX Classes
 90
        0
280
     0
281
     0
  0
CLASS
  1
RASTERVARIABLES
  2
AcDbRasterVariables
  3
ISM
 90
    32768
280
     0
281
     0
  0
CLASS
  1
IMAGEDEF
  2
AcDbRasterImageDef
  3
ISM
 90
    32768
280
     0
281
     0
  0
CLASS
  1
IMAGEDEF_REACTOR
  2
AcDbRasterImageDefReactor
  3
ISM
 90
    32769
280
     0
281
     0
  0
CLASS
  1
IDBUFFER
  2
AcDbIdBuffer
  3
ObjectDBX Classes
 90
    32768
280
     0
281
     0
  0
CLASS
  1
SPATIAL_FILTER
  2
AcDbSpatialFilter
  3
ObjectDBX Classes
 90
    32768
280
     0
281
     0
  0
CLASS
  1
XRECORD
  2
AcDbXrecord
  3
ObjectDBX Classes
 90
        0
280
     0
281
     0
  0
CLASS
  1
SORTENTSTABLE
  2
AcDbSortentsTable
  3
ObjectDBX Classes
 90
    32768
280
     0
281
     0
  0
CLASS
  1
LAYER_INDEX
  2
AcDbLayerIndex
  3
ObjectDBX Classes
 90
    32768
280
     0
281
     0
  0
CLASS
  1
SPATIAL_INDEX
  2
AcDbSpatialIndex
  3
ObjectDBX Classes
 90
    32768
280
     0
281
     0
  0
CLASS
  1
OBJECT_PTR
  2
CAseDLPNTableRecord
  3
ASE-LPNTableRecord
 90
    32769
280
     0
281
     0
  0
CLASS
  1
LAYOUT
  2
AcDbLayout
  3
ObjectDBX Classes
 90
        0
280
     0
281
     0
  0
CLASS
  1
PLOTSETTINGS
  2
AcDbPlotSettings
  3
ObjectDBX Classes
 90
        0
280
     0
281
     0
  0
CLASS
  1
ACDBDICTIONARYWDFLT
  2
AcDbDictionaryWithDefault
  3
ObjectDBX Classes
 90
        0
280
     0
281
     0
  0
CLASS
  1
ACDBPLACEHOLDER
  2
AcDbPlaceHolder
  3
ObjectDBX Classes
 90
        0
280
     0
281
     0
  0
CLASS
  1
VBA_PROJECT
  2
AcDbVbaProject
  3
acad
 90
    32768
280
     0
281
     0
  0
CLASS
  1
WIPEOUT
  2
AcDbWipeout
  3
"WipeOut|Product Desc: Object Enabler for WipeOut entity                        |Company: Autodesk, Inc.                        |WEB Address: www.autodesk.com"
 90
    34943
280
     0
281
     1
  0
CLASS
  1
WIPEOUTVARIABLES
  2
AcDbWipeoutVariables
  3
"WipeOut|Product Desc:     WipeOut Dbx Application|Company:          Autodesk, Inc.|WEB Address:      www.autodesk.com"
 90
        0
280
     0
281
     0
  0
CLASS
  1
RTEXT
  2
RText
  3
RText|AutoCAD Express Tool|expresstools@autodesk.com
 90
    35839
280
     0
281
     1
  0
CLASS
  1
ARCALIGNEDTEXT
  2
AcDbArcAlignedText
  3
ATEXT|AutoCAD Express Tool|expresstools@autodesk.com
 90
    32768
280
     0
281
     1
  0
CLASS
  1
MATERIAL
  2
AcDbMaterial
  3
ObjectDBX Classes
 90
     1153
280
     0
281
     0
  0
CLASS
  1
VISUALSTYLE
  2
AcDbVisualStyle
  3
ObjectDBX Classes
 90
     4095
280
     0
281
     0
  0
CLASS
  1
SCALE
  2
AcDbScale
  3
ObjectDBX Classes
 90
     1153
280
     0
281
     0
  0
CLASS
  1
TABLESTYLE
  2
AcDbTableStyle
  3
ObjectDBX Classes
 90
     4095
280
     0
281
     0
  0
CLASS
  1
MLEADERSTYLE
  2
AcDbMLeaderStyle
  3
ACDB_MLEADERSTYLE_CLASS
 90
     4095
280
     0
281
     0
  0
CLASS
  1
ACDBQSCATEGORY
  2
AcQsCategory
  3
categories
 90
     1024
280
     0
281
     0
  0
CLASS
  1
CELLSTYLEMAP
  2
AcDbCellStyleMap
  3
ObjectDBX Classes
 90
     1152
280
     0
281
     0
  0
ENDSEC
  0
SECTION
  2
TABLES
  0
TABLE
  2
VPORT
  5
7
102
{ACAD_XDICTIONARY
360
255
102
}
330
0
100
AcDbSymbolTable
 70
     1
  0
VPORT
  5
15
330
7
100
AcDbSymbolTableRecord
100
AcDbViewportTableRecord
  2
*ACTIVE
 70
     0
 10
0.0
 20
0.0
 11
1.0
 21
1.0
 12
215.7405341416158
 22
155.0126995991064
 13
0.0
 23
0.0
 14
1.0
 24
1.0
 15
0.0
 25
0.0
 16
0.0
 26
0.0
 36
1.0
 17
0.0
 27
0.0
 37
0.0
 40
310.0253991982128
 41
2.251225490196078
 42
50.0
 43
0.0
 44
0.0
 50
0.0
 51
0.0
 71
     0
 72
   100
 73
     1
 74
     1
 75
     0
 76
     0
 77
     0
 78
     0
281
     0
 65
     0
110
0.0
120
0.0
130
0.0
111
1.0
121
0.0
131
0.0
112
0.0
122
1.0
132
0.0
 79
     0
146
0.0
  0
ENDTAB
  0
TABLE
  2
LTYPE
  5
4
330
0
100
AcDbSymbolTable
 70
     9
  0
LTYPE
  5
11
330
4
100
AcDbSymbolTableRecord
100
AcDbLinetypeTableRecord
  2
ByBlock
 70
     0
  3

 72
    65
 73
     0
 40
0.0
  0
LTYPE
  5
12
330
4
100
AcDbSymbolTableRecord
100
AcDbLinetypeTableRecord
  2
ByLayer
 70
     0
  3

 72
    65
 73
     0
 40
0.0
  0
LTYPE
  5
13
330
4
100
AcDbSymbolTableRecord
100
AcDbLinetypeTableRecord
  2
CONTINUOUS
 70
     0
  3
Solid line
 72
    65
 73
     0
 40
0.0
  0
LTYPE
  5
28
330
4
100
AcDbSymbolTableRecord
100
AcDbLinetypeTableRecord
  2
HIDDEN2
 70
     0
  3
_ _ _ _ _ _ _ _ _ _ _ _ _ _ _ _ _ _ _ _ _ _ _ _
 72
    65
 73
     2
 40
0.1875
 49
0.125
 74
     0
 49
-0.0625
 74
     0
  0
LTYPE
  5
29
330
4
100
AcDbSymbolTableRecord
100
AcDbLinetypeTableRecord
  2
CENTER2
 70
     0
  3
___ _ ___ _ ___ _ ___ _ ___ _ ___ _ ___ _ ___ _
 72
    65
 73
     4
 40
1.125
 49
0.75
 74
     0
 49
-0.125
 74
     0
 49
0.125
 74
     0
 49
-0.125
 74
     0
  0
LTYPE
  5
2A
330
4
100
AcDbSymbolTableRecord
100
AcDbLinetypeTableRecord
  2
PHANTOM2
 70
     0
  3
___ _ _ ___ _ _ ___ _ _ ___ _ _ ___ _ _ ___ _ _
 72
    65
 73
     6
 40
1.25
 49
0.625
 74
     0
 49
-0.125
 74
     0
 49
0.125
 74
     0
 49
-0.125
 74
     0
 49
0.125
 74
     0
 49
-0.125
 74
     0
  0
LTYPE
  5
2B
330
4
100
AcDbSymbolTableRecord
100
AcDbLinetypeTableRecord
  2
DOT2
 70
     0
  3
...............................................
 72
    65
 73
     2
 40
0.125
 49
0.0
 74
     0
 49
-0.125
 74
     0
  0
LTYPE
  5
207
330
4
100
AcDbSymbolTableRecord
100
AcDbLinetypeTableRecord
  2
ASSI
 70
     0
  3
-.-.-.-.-.-.-.-.-.-.-.-.-.-.-.-.-.-.-.-.-.-.-.-
 72
    65
 73
     4
 40
16.0
 49
10.0
 74
     0
 49
-2.0
 74
     0
 49
2.0
 74
     0
 49
-2.0
 74
     0
  0
LTYPE
  5
208
330
4
100
AcDbSymbolTableRecord
100
AcDbLinetypeTableRecord
  2
INGOMBRI
 70
     0
  3
--..--..--..--..--..--..--..--..--..--..--..--
 72
    65
 73
     6
 40
20.0
 49
10.0
 74
     0
 49
-2.0
 74
     0
 49
2.0
 74
     0
 49
-2.0
 74
     0
 49
2.0
 74
     0
 49
-2.0
 74
     0
  0
LTYPE
  5
209
330
4
100
AcDbSymbolTableRecord
100
AcDbLinetypeTableRecord
  2
TRATTEGGIO
 70
     0
  3
- - - - - - - - - - - - - - - - - - - - - -
 72
    65
 73
     2
 40
5.5
 49
4.0
 74
     0
 49
-1.5
 74
     0
  0
LTYPE
  5
20A
330
4
100
AcDbSymbolTableRecord
100
AcDbLinetypeTableRecord
  2
PUNTO
 70
     0
  3
Punto . . . . . . . . . . . . . . . . . . . . .
 72
    65
 73
     2
 40
6.349999999999999
 49
0.0
 74
     0
 49
-6.349999999999999
 74
     0
  0
ENDTAB
  0
TABLE
  2
LAYER
  5
2
330
0
100
AcDbSymbolTable
 70
    18
  0
LAYER
  5
14
102
{ACAD_XDICTIONARY
360
226
102
}
330
2
100
AcDbSymbolTableRecord
100
AcDbLayerTableRecord
  2
0
 70
     0
 62
     7
  6
CONTINUOUS
370
    -3
390
1D
  0
LAYER
  5
2D
102
{ACAD_XDICTIONARY
360
228
102
}
330
2
100
AcDbSymbolTableRecord
100
AcDbLayerTableRecord
  2
1
 70
     0
 62
     7
  6
CONTINUOUS
370
    -3
390
1D
  0
LAYER
  5
2F
102
{ACAD_XDICTIONARY
360
22A
102
}
330
2
100
AcDbSymbolTableRecord
100
AcDbLayerTableRecord
  2
11
 70
     0
 62
     7
  6
CONTINUOUS
370
    -3
390
1D
  0
LAYER
  5
31
102
{ACAD_XDICTIONARY
360
22C
102
}
330
2
100
AcDbSymbolTableRecord
100
AcDbLayerTableRecord
  2
7
 70
     0
 62
     7
  6
CONTINUOUS
370
    -3
390
1D
  0
LAYER
  5
33
102
{ACAD_XDICTIONARY
360
22E
102
}
330
2
100
AcDbSymbolTableRecord
100
AcDbLayerTableRecord
  2
AM_0
 70
     0
 62
     7
  6
CONTINUOUS
370
    -3
390
1D
  0
LAYER
  5
35
102
{ACAD_XDICTIONARY
360
230
102
}
330
2
100
AcDbSymbolTableRecord
100
AcDbLayerTableRecord
  2
AM_1
 70
     0
 62
     7
  6
CONTINUOUS
370
    -3
390
1D
  0
LAYER
  5
37
102
{ACAD_XDICTIONARY
360
232
102
}
330
2
100
AcDbSymbolTableRecord
100
AcDbLayerTableRecord
  2
AM_5
 70
     0
 62
     7
  6
CONTINUOUS
370
    -3
390
1D
  0
LAYER
  5
39
102
{ACAD_XDICTIONARY
360
234
102
}
330
2
100
AcDbSymbolTableRecord
100
AcDbLayerTableRecord
  2
AM_6
 70
     0
 62
     7
  6
CONTINUOUS
370
    -3
390
1D
  0
LAYER
  5
3B
102
{ACAD_XDICTIONARY
360
236
102
}
330
2
100
AcDbSymbolTableRecord
100
AcDbLayerTableRecord
  2
AM_7
 70
     0
 62
     7
  6
CONTINUOUS
370
    -3
390
1D
  0
LAYER
  5
3D
102
{ACAD_XDICTIONARY
360
238
102
}
330
2
100
AcDbSymbolTableRecord
100
AcDbLayerTableRecord
  2
AM_8
 70
     0
 62
     7
  6
CONTINUOUS
370
    -3
390
1D
  0
LAYER
  5
3F
102
{ACAD_XDICTIONARY
360
23A
102
}
330
2
100
AcDbSymbolTableRecord
100
AcDbLayerTableRecord
  2
AM_BOR
 70
     0
 62
     7
  6
CONTINUOUS
370
    -3
390
1D
  0
LAYER
  5
41
102
{ACAD_XDICTIONARY
360
23C
102
}
330
2
100
AcDbSymbolTableRecord
100
AcDbLayerTableRecord
  2
DEFAULT
 70
     0
 62
     7
  6
CONTINUOUS
370
    -3
390
1D
  0
LAYER
  5
43
330
2
100
AcDbSymbolTableRecord
100
AcDbLayerTableRecord
  2
DEFPOINTS
 70
     0
 62
     7
  6
CONTINUOUS
290
     0
370
    -3
390
1D
  0
LAYER
  5
45
102
{ACAD_XDICTIONARY
360
23E
102
}
330
2
100
AcDbSymbolTableRecord
100
AcDbLayerTableRecord
  2
PREDEFINITO
 70
     0
 62
     7
  6
CONTINUOUS
370
    -3
390
1D
  0
LAYER
  5
47
102
{ACAD_XDICTIONARY
360
240
102
}
330
2
100
AcDbSymbolTableRecord
100
AcDbLayerTableRecord
  2
PROFILATI-IN-ALLUMINIO
 70
     0
 62
     7
  6
CONTINUOUS
370
    -3
390
1D
  0
LAYER
  5
49
102
{ACAD_XDICTIONARY
360
242
102
}
330
2
100
AcDbSymbolTableRecord
100
AcDbLayerTableRecord
  2
TESTI
 70
     0
 62
     7
  6
CONTINUOUS
370
    -3
390
1D
  0
LAYER
  5
4B
102
{ACAD_XDICTIONARY
360
244
102
}
330
2
100
AcDbSymbolTableRecord
100
AcDbLayerTableRecord
  2
VARI
 70
     0
 62
     7
  6
CONTINUOUS
370
    -3
390
1D
  0
LAYER
  5
1FF
102
{ACAD_XDICTIONARY
360
246
102
}
330
2
100
AcDbSymbolTableRecord
100
AcDbLayerTableRecord
  2
P-0000
 70
     0
 62
     7
  6
CONTINUOUS
370
    -3
390
1D
1001
AcAecLayerStandard
1000

1000
TOP
  0
ENDTAB
  0
TABLE
  2
STYLE
  5
3
330
0
100
AcDbSymbolTable
 70
     8
  0
STYLE
  5
17
330
3
100
AcDbSymbolTableRecord
100
AcDbTextStyleTableRecord
  2
Standard
 70
     0
 40
0.0
 41
1.0
 50
0.0
 71
     0
 42
0.2
  3
txt
  4

  0
STYLE
  5
5E
330
3
100
AcDbSymbolTableRecord
100
AcDbTextStyleTableRecord
  2
seansi_ttf
 70
     0
 40
0.0
 41
1.0
 50
0.0
 71
     0
 42
0.2
  3
STENCIL.TTF
  4

1001
ACAD
1000
Stencil
1071
        2
  0
STYLE
  5
60
330
3
100
AcDbSymbolTableRecord
100
AcDbTextStyleTableRecord
  2
arial_ttf
 70
     0
 40
0.0
 41
1.0
 50
0.0
 71
     0
 42
0.2
  3
arial.ttf
  4

1001
ACAD
1000
Arial
1071
        2
  0
STYLE
  5
C9
330
3
100
AcDbSymbolTableRecord
100
AcDbTextStyleTableRecord
  2
seiso_ttfB
 70
     0
 40
0.0
 41
1.0
 50
0.0
 71
     0
 42
0.2
  3

  4

1001
ACAD
1000
Solid Edge ISO
1071
 33554434
  0
STYLE
  5
20B
330
3
100
AcDbSymbolTableRecord
100
AcDbTextStyleTableRecord
  2
ROMANS
 70
     0
 40
0.0
 41
0.8
 50
0.0
 71
     0
 42
3.0
  3
ROMANS.shx
  4

  0
STYLE
  5
20C
330
3
100
AcDbSymbolTableRecord
100
AcDbTextStyleTableRecord
  2

 70
     1
 40
0.0
 41
1.0
 50
0.0
 71
     0
 42
0.2
  3
ltypeshp.shx
  4

  0
STYLE
  5
20D
330
3
100
AcDbSymbolTableRecord
100
AcDbTextStyleTableRecord
  2
Stile_Quota
 70
     0
 40
0.0
 41
1.0
 50
0.0
 71
     0
 42
3.0
  3
BOD_I.TTF
  4

1001
ACAD
1000
Bodoni MT
1071
 16777234
  0
STYLE
  5
20E
330
3
100
AcDbSymbolTableRecord
100
AcDbTextStyleTableRecord
  2
Stile_Quota_FISSO
 70
     0
 40
20.0
 41
1.0
 50
0.0
 71
     0
 42
3.0
  3
BOD_I.TTF
  4

1001
ACAD
1000
Bodoni MT
1071
 16777234
  0
ENDTAB
  0
TABLE
  2
VIEW
  5
5
330
0
100
AcDbSymbolTable
 70
     0
  0
ENDTAB
  0
TABLE
  2
UCS
  5
6
330
0
100
AcDbSymbolTable
 70
     0
  0
ENDTAB
  0
TABLE
  2
APPID
  5
8
330
0
100
AcDbSymbolTable
 70
    11
  0
APPID
  5
16
330
8
100
AcDbSymbolTableRecord
100
AcDbRegAppTableRecord
  2
ACAD
 70
     0
  0
APPID
  5
200
330
8
100
AcDbSymbolTableRecord
100
AcDbRegAppTableRecord
  2
AcAecLayerStandard
 70
     0
  0
APPID
  5
206
330
8
100
AcDbSymbolTableRecord
100
AcDbRegAppTableRecord
  2
TOP
 70
     0
  0
APPID
  5
212
330
8
100
AcDbSymbolTableRecord
100
AcDbRegAppTableRecord
  2
ACAD_MLEADERVER
 70
     0
  0
APPID
  5
213
330
8
100
AcDbSymbolTableRecord
100
AcDbRegAppTableRecord
  2
ACAD_DSTYLE_DIMJAG
 70
     0
  0
APPID
  5
214
330
8
100
AcDbSymbolTableRecord
100
AcDbRegAppTableRecord
  2
ACAD_DSTYLE_DIMTALN
 70
     0
  0
APPID
  5
215
330
8
100
AcDbSymbolTableRecord
100
AcDbRegAppTableRecord
  2
AcadAnnoPO
 70
     0
  0
APPID
  5
216
330
8
100
AcDbSymbolTableRecord
100
AcDbRegAppTableRecord
  2
ACAD_EXEMPT_FROM_CAD_STANDARDS
 70
     0
  0
APPID
  5
217
330
8
100
AcDbSymbolTableRecord
100
AcDbRegAppTableRecord
  2
ACAD_PSEXT
 70
     0
  0
APPID
  5
218
330
8
100
AcDbSymbolTableRecord
100
AcDbRegAppTableRecord
  2
ACAD_DSTYLE_DIMBREAK
 70
     0
  0
APPID
  5
24D
330
8
100
AcDbSymbolTableRecord
100
AcDbRegAppTableRecord
  2
DCO15
 70
     0
  0
ENDTAB
  0
TABLE
  2
DIMSTYLE
  5
9
330
0
100
AcDbSymbolTable
 70
     4
100
AcDbDimStyleTable
 71
     0
  0
DIMSTYLE
105
18
330
9
100
AcDbSymbolTableRecord
100
AcDbDimStyleTableRecord
  2
Standard
 70
     0
289
     0
340
17
  0
DIMSTYLE
105
20F
330
9
100
AcDbSymbolTableRecord
100
AcDbDimStyleTableRecord
  2
ACADTOP
 70
     0
 41
2.0
 42
1.0
 43
10.0
 44
1.5
 73
     0
 74
     0
 77
     1
 78
     8
 79
     2
140
2.0
141
2.0
146
0.6
147
1.0
172
     1
176
     2
177
     2
178
     1
179
     1
271
     2
272
     2
284
     8
289
     0
340
20D
1001
ACAD_DSTYLE_DIMJAG
1070
   388
1040
1.5
1001
ACAD_DSTYLE_DIMTALN
1070
   392
1070
     0
  0
DIMSTYLE
105
210
330
9
100
AcDbSymbolTableRecord
100
AcDbDimStyleTableRecord
  2
DIERRE_LUNG-ALT
 70
     0
 41
3.0
 42
1.0
 43
10.0
 44
1.5
 73
     0
 74
     0
 75
     1
 76
     1
 78
     8
 79
     2
140
20.0
141
2.0
146
0.6
147
1.0
172
     1
176
     3
177
     3
178
    30
179
     1
271
     1
272
     1
281
     1
282
     1
284
     8
340
20E
1001
ACAD_DSTYLE_DIMBREAK
1070
   391
1040
3.75
1001
ACAD_DSTYLE_DIMJAG
1070
   388
1040
1.5
1001
ACAD_DSTYLE_DIMTALN
1070
   392
1070
     0
  0
DIMSTYLE
105
211
330
9
100
AcDbSymbolTableRecord
100
AcDbDimStyleTableRecord
  2
DIERRE_LARG
 70
     0
 41
3.0
 42
1.0
 43
10.0
 44
1.5
 73
     0
 74
     0
 75
     1
 76
     1
 78
     8
 79
     2
140
20.0
141
2.0
146
0.6
147
1.0
172
     1
176
     4
177
     4
178
     4
179
     1
271
     1
272
     1
281
     1
282
     1
284
     8
340
20E
1001
ACAD_DSTYLE_DIMBREAK
1070
   391
1040
3.75
1001
ACAD_DSTYLE_DIMJAG
1070
   388
1040
1.5
1001
ACAD_DSTYLE_DIMTALN
1070
   392
1070
     0
  0
ENDTAB
  0
TABLE
  2
BLOCK_RECORD
  5
1
330
0
100
AcDbSymbolTable
 70
    11
  0
BLOCK_RECORD
  5
A
330
1
100
AcDbSymbolTableRecord
100
AcDbBlockTableRecord
  2
*MODEL_SPACE
340
20
  0
BLOCK_RECORD
  5
B
330
1
100
AcDbSymbolTableRecord
100
AcDbBlockTableRecord
  2
*PAPER_SPACE
340
21
  0
BLOCK_RECORD
  5
CB
330
1
100
AcDbSymbolTableRecord
100
AcDbBlockTableRecord
  2
SE0
340
0
  0
BLOCK_RECORD
  5
CD
330
1
100
AcDbSymbolTableRecord
100
AcDbBlockTableRecord
  2
SE1
340
0
  0
BLOCK_RECORD
  5
CF
330
1
100
AcDbSymbolTableRecord
100
AcDbBlockTableRecord
  2
SE2
340
0
  0
BLOCK_RECORD
  5
D1
330
1
100
AcDbSymbolTableRecord
100
AcDbBlockTableRecord
  2
SE3
340
0
  0
BLOCK_RECORD
  5
D3
330
1
100
AcDbSymbolTableRecord
100
AcDbBlockTableRecord
  2
SE4
340
0
  0
BLOCK_RECORD
  5
D5
330
1
100
AcDbSymbolTableRecord
100
AcDbBlockTableRecord
  2
SE5
340
0
  0
BLOCK_RECORD
  5
D7
330
1
100
AcDbSymbolTableRecord
100
AcDbBlockTableRecord
  2
SE6
340
0
  0
BLOCK_RECORD
  5
D9
330
1
100
AcDbSymbolTableRecord
100
AcDbBlockTableRecord
  2
SE7
340
0
  0
BLOCK_RECORD
  5
DB
330
1
100
AcDbSymbolTableRecord
100
AcDbBlockTableRecord
  2
SE8
340
0
  0
BLOCK_RECORD
  5
DD
330
1
100
AcDbSymbolTableRecord
100
AcDbBlockTableRecord
  2
SE9
340
0
  0
BLOCK_RECORD
  5
DF
330
1
100
AcDbSymbolTableRecord
100
AcDbBlockTableRecord
  2
SE10
340
0
  0
ENDTAB
  0
ENDSEC
  0
SECTION
  2
BLOCKS
  0
BLOCK
  5
D
330
A
100
AcDbEntity
  8
0
100
AcDbBlockBegin
  2
*MODEL_SPACE
 70
     0
 10
0.0
 20
0.0
 30
0.0
  3
*MODEL_SPACE
  1

  0
ENDBLK
  5
E
330
A
100
AcDbEntity
  8
0
100
AcDbBlockEnd
  0
BLOCK
  5
F
330
B
100
AcDbEntity
 67
     1
  8
0
100
AcDbBlockBegin
  2
*PAPER_SPACE
 70
     0
 10
0.0
 20
0.0
 30
0.0
  3
*PAPER_SPACE
  1

  0
ENDBLK
  5
10
330
B
100
AcDbEntity
 67
     1
  8
0
100
AcDbBlockEnd
  0
BLOCK
  5
E3
330
CB
100
AcDbEntity
  8
0
 62
     1
 48
0.0
370
     0
100
AcDbBlockBegin
  2
SE0
 70
     0
 10
0.0
 20
0.0
 30
0.0
  3
SE0
  1

  0
LINE
  5
E4
330
CB
100
AcDbEntity
  8
AM_5
  6
Continuous
 62
     7
370
     0
100
AcDbLine
 10
82.7327106868258
 20
61.22929673181324
 30
0.0
 11
82.7327106868258
 21
61.53707287348692
 31
0.0
  0
LINE
  5
E5
330
CB
100
AcDbEntity
  8
AM_5
  6
Continuous
 62
     7
370
     0
100
AcDbLine
 10
122.7327018068258
 20
63.37707246500692
 30
0.0
 11
122.7327018068258
 21
63.53707242948693
 31
0.0
  0
LINE
  5
E6
330
CB
100
AcDbEntity
  8
AM_5
  6
Continuous
 62
     7
370
     0
100
AcDbLine
 10
86.23270990982581
 20
62.53707265148691
 30
0.0
 11
119.2327025838258
 21
62.53707265148691
 31
0.0
  0
LINE
  5
E7
330
CB
100
AcDbEntity
  8
AM_0
  6
Continuous
 62
     7
370
     0
100
AcDbLine
 10
86.23270990982581
 20
63.41207245723693
 30
0.0
 11
82.7327106868258
 21
62.53707265148694
 31
0.0
  0
LINE
  5
E8
330
CB
100
AcDbEntity
  8
AM_0
  6
Continuous
 62
     7
370
     0
100
AcDbLine
 10
82.7327106868258
 20
62.53707265148691
 30
0.0
 11
86.23270990982581
 21
61.66207284573692
 31
0.0
  0
LINE
  5
E9
330
CB
100
AcDbEntity
  8
AM_0
  6
Continuous
 62
     7
370
     0
100
AcDbLine
 10
86.23270990982581
 20
63.41207245723693
 30
0.0
 11
86.23270990982581
 21
61.66207284573693
 31
0.0
  0
LINE
  5
EA
330
CB
100
AcDbEntity
  8
AM_0
  6
Continuous
 62
     7
370
     0
100
AcDbLine
 10
119.2327025838258
 20
61.66207284573693
 30
0.0
 11
122.7327018068258
 21
62.53707265148693
 31
0.0
  0
LINE
  5
EB
330
CB
100
AcDbEntity
  8
AM_0
  6
Continuous
 62
     7
370
     0
100
AcDbLine
 10
122.7327018068258
 20
62.53707265148691
 30
0.0
 11
119.2327025838258
 21
63.4120724572369
 31
0.0
  0
LINE
  5
EC
330
CB
100
AcDbEntity
  8
AM_0
  6
Continuous
 62
     7
370
     0
100
AcDbLine
 10
119.2327025838258
 20
61.66207284573693
 30
0.0
 11
119.2327025838258
 21
63.41207245723693
 31
0.0
  0
TEXT
  5
ED
330
CB
100
AcDbEntity
  8
AM_5
  6
Continuous
 62
     7
370
     0
100
AcDbText
 10
100.7761852188935
 20
63.36785256559455
 30
0.0
 40
2.499999445
  1
40
  7
arial_ttf
 11
100.7761852188935
 21
65.86785201059455
 31
0.0
100
AcDbText
 73
     3
  0
POINT
  5
EE
330
CB
100
AcDbEntity
  8
DEFPOINTS
  6
Continuous
 62
     7
370
     0
100
AcDbPoint
 10
82.7327106868258
 20
62.72929639881325
 30
0.0
  0
POINT
  5
EF
330
CB
100
AcDbEntity
  8
DEFPOINTS
  6
Continuous
 62
     7
370
     0
100
AcDbPoint
 10
122.7327018068258
 20
61.87707279800693
 30
0.0
  0
POINT
  5
F0
330
CB
100
AcDbEntity
  8
DEFPOINTS
  6
Continuous
 62
     7
370
     0
100
AcDbPoint
 10
122.7327018068258
 20
62.53707265148691
 30
0.0
  0
ENDBLK
  5
1E4
330
CB
100
AcDbEntity
  8
0
370
     0
100
AcDbBlockEnd
  0
BLOCK
  5
F2
330
CD
100
AcDbEntity
  8
0
 62
     1
 48
0.0
370
     0
100
AcDbBlockBegin
  2
SE1
 70
     0
 10
0.0
 20
0.0
 30
0.0
  3
SE1
  1

  0
LINE
  5
F3
330
CD
100
AcDbEntity
  8
AM_5
  6
Continuous
 62
     7
370
     0
100
AcDbLine
 10
141.9046374606551
 20
148.273674947957
 30
0.0
 11
164.3209179342398
 21
148.273674947957
 31
0.0
  0
LINE
  5
F4
330
CD
100
AcDbEntity
  8
AM_5
  6
Continuous
 62
     7
370
     0
100
AcDbLine
 10
141.2319024700023
 20
153.1950453054125
 30
0.0
 11
164.3209179342397
 21
153.1950453054125
 31
0.0
  0
LINE
  5
F5
330
CD
100
AcDbEntity
  8
AM_5
  6
Continuous
 62
     7
370
     0
100
AcDbLine
 10
163.3209181562398
 20
156.6950445284125
 30
0.0
 11
163.3209181562398
 21
160.1950437514125
 31
0.0
  0
LINE
  5
F6
330
CD
100
AcDbEntity
  8
AM_5
  6
Continuous
 62
     7
370
     0
100
AcDbLine
 10
163.3209181562398
 20
144.773675724957
 30
0.0
 11
163.3209181562398
 21
134.8224629244541
 31
0.0
  0
LINE
  5
F7
330
CD
100
AcDbEntity
  8
AM_5
  6
Continuous
 62
     7
370
     0
100
AcDbLine
 10
163.3209181562398
 20
153.1950453054125
 30
0.0
 11
163.3209181562398
 21
148.273674947957
 31
0.0
  0
LINE
  5
F8
330
CD
100
AcDbEntity
  8
AM_0
  6
Continuous
 62
     7
370
     0
100
AcDbLine
 10
162.4459183504898
 20
156.6950445284125
 30
0.0
 11
163.3209181562398
 21
153.1950453054125
 31
0.0
  0
LINE
  5
F9
330
CD
100
AcDbEntity
  8
AM_0
  6
Continuous
 62
     7
370
     0
100
AcDbLine
 10
163.3209181562398
 20
153.1950453054125
 30
0.0
 11
164.1959179619898
 21
156.6950445284125
 31
0.0
  0
LINE
  5
FA
330
CD
100
AcDbEntity
  8
AM_0
  6
Continuous
 62
     7
370
     0
100
AcDbLine
 10
162.4459183504898
 20
156.6950445284125
 30
0.0
 11
164.1959179619898
 21
156.6950445284125
 31
0.0
  0
LINE
  5
FB
330
CD
100
AcDbEntity
  8
AM_0
  6
Continuous
 62
     7
370
     0
100
AcDbLine
 10
164.1959179619898
 20
144.773675724957
 30
0.0
 11
163.3209181562398
 21
148.273674947957
 31
0.0
  0
LINE
  5
FC
330
CD
100
AcDbEntity
  8
AM_0
  6
Continuous
 62
     7
370
     0
100
AcDbLine
 10
163.3209181562398
 20
148.273674947957
 30
0.0
 11
162.4459183504898
 21
144.773675724957
 31
0.0
  0
LINE
  5
FD
330
CD
100
AcDbEntity
  8
AM_0
  6
Continuous
 62
     7
370
     0
100
AcDbLine
 10
164.1959179619898
 20
144.773675724957
 30
0.0
 11
162.4459183504898
 21
144.773675724957
 31
0.0
  0
TEXT
  5
FE
330
CD
100
AcDbEntity
  8
AM_5
  6
Continuous
 62
     7
370
     0
100
AcDbText
 10
162.4901382421321
 20
135.4554260865462
 30
0.0
 40
2.499999445
  1
4.9
 50
90.0
  7
arial_ttf
 11
159.9901387971321
 21
135.4554260865462
 31
0.0
100
AcDbText
 73
     3
  0
POINT
  5
FF
330
CD
100
AcDbEntity
  8
DEFPOINTS
  6
Continuous
 62
     7
370
     0
100
AcDbPoint
 10
140.4046377936551
 20
148.273674947957
 30
0.0
  0
POINT
  5
100
330
CD
100
AcDbEntity
  8
DEFPOINTS
  6
Continuous
 62
     7
370
     0
100
AcDbPoint
 10
139.7319028030023
 20
153.1950453054125
 30
0.0
  0
POINT
  5
101
330
CD
100
AcDbEntity
  8
DEFPOINTS
  6
Continuous
 62
     7
370
     0
100
AcDbPoint
 10
163.3209181562398
 20
153.1950453054125
 30
0.0
  0
ENDBLK
  5
1E5
330
CD
100
AcDbEntity
  8
0
370
     0
100
AcDbBlockEnd
  0
BLOCK
  5
103
330
CF
100
AcDbEntity
  8
0
 62
     1
 48
0.0
370
     0
100
AcDbBlockBegin
  2
SE2
 70
     0
 10
0.0
 20
0.0
 30
0.0
  3
SE2
  1

  0
LINE
  5
104
330
CF
100
AcDbEntity
  8
AM_5
  6
Continuous
 62
     7
370
     0
100
AcDbLine
 10
142.732696346826
 20
148.6950463144125
 30
0.0
 11
142.732696346826
 21
132.4051392907726
 31
0.0
  0
LINE
  5
105
330
CF
100
AcDbEntity
  8
AM_5
  6
Continuous
 62
     7
370
     0
100
AcDbLine
 10
139.165836938669
 20
146.773675280957
 30
0.0
 11
139.165836938669
 21
132.4051392907727
 31
0.0
  0
LINE
  5
106
330
CF
100
AcDbEntity
  8
AM_5
  6
Continuous
 62
     7
370
     0
100
AcDbLine
 10
135.665837715669
 20
133.4051390687727
 30
0.0
 11
132.165838492669
 21
133.4051390687727
 31
0.0
  0
LINE
  5
107
330
CF
100
AcDbEntity
  8
AM_5
  6
Continuous
 62
     7
370
     0
100
AcDbLine
 10
146.232695569826
 20
133.4051390687727
 30
0.0
 11
158.0913706998189
 21
133.4051390687727
 31
0.0
  0
LINE
  5
108
330
CF
100
AcDbEntity
  8
AM_5
  6
Continuous
 62
     7
370
     0
100
AcDbLine
 10
139.165836938669
 20
133.4051390687727
 30
0.0
 11
142.732696346826
 21
133.4051390687727
 31
0.0
  0
LINE
  5
109
330
CF
100
AcDbEntity
  8
AM_0
  6
Continuous
 62
     7
370
     0
100
AcDbLine
 10
135.665837715669
 20
132.5301392630227
 30
0.0
 11
139.1658369386689
 21
133.4051390687727
 31
0.0
  0
LINE
  5
10A
330
CF
100
AcDbEntity
  8
AM_0
  6
Continuous
 62
     7
370
     0
100
AcDbLine
 10
139.165836938669
 20
133.4051390687727
 30
0.0
 11
135.665837715669
 21
134.2801388745227
 31
0.0
  0
LINE
  5
10B
330
CF
100
AcDbEntity
  8
AM_0
  6
Continuous
 62
     7
370
     0
100
AcDbLine
 10
135.665837715669
 20
132.5301392630227
 30
0.0
 11
135.665837715669
 21
134.2801388745227
 31
0.0
  0
LINE
  5
10C
330
CF
100
AcDbEntity
  8
AM_0
  6
Continuous
 62
     7
370
     0
100
AcDbLine
 10
146.232695569826
 20
134.2801388745227
 30
0.0
 11
142.732696346826
 21
133.4051390687727
 31
0.0
  0
LINE
  5
10D
330
CF
100
AcDbEntity
  8
AM_0
  6
Continuous
 62
     7
370
     0
100
AcDbLine
 10
142.732696346826
 20
133.4051390687727
 30
0.0
 11
146.232695569826
 21
132.5301392630227
 31
0.0
  0
LINE
  5
10E
330
CF
100
AcDbEntity
  8
AM_0
  6
Continuous
 62
     7
370
     0
100
AcDbLine
 10
146.232695569826
 20
134.2801388745227
 30
0.0
 11
146.232695569826
 21
132.5301392630227
 31
0.0
  0
TEXT
  5
10F
330
CF
100
AcDbEntity
  8
AM_5
  6
Continuous
 62
     7
370
     0
100
AcDbText
 10
150.6713817378096
 20
134.2367716429911
 30
0.0
 40
2.499999445
  1
3.57
  7
arial_ttf
 11
150.6713817378096
 21
136.7367710879911
 31
0.0
100
AcDbText
 73
     3
  0
POINT
  5
110
330
CF
100
AcDbEntity
  8
DEFPOINTS
  6
Continuous
 62
     7
370
     0
100
AcDbPoint
 10
142.732696346826
 20
150.1950459814125
 30
0.0
  0
POINT
  5
111
330
CF
100
AcDbEntity
  8
DEFPOINTS
  6
Continuous
 62
     7
370
     0
100
AcDbPoint
 10
139.165836938669
 20
148.273674947957
 30
0.0
  0
POINT
  5
112
330
CF
100
AcDbEntity
  8
DEFPOINTS
  6
Continuous
 62
     7
370
     0
100
AcDbPoint
 10
139.165836938669
 20
133.4051390687727
 30
0.0
  0
ENDBLK
  5
1E6
330
CF
100
AcDbEntity
  8
0
370
     0
100
AcDbBlockEnd
  0
BLOCK
  5
114
330
D1
100
AcDbEntity
  8
0
 62
     1
 48
0.0
370
     0
100
AcDbBlockBegin
  2
SE3
 70
     0
 10
0.0
 20
0.0
 30
0.0
  3
SE3
  1

  0
LINE
  5
115
330
D1
100
AcDbEntity
  8
AM_5
  6
Continuous
 62
     7
370
     0
100
AcDbLine
 10
62.73271505682582
 20
69.77495504467667
 30
0.0
 11
62.73271505682582
 21
53.88693896181703
 31
0.0
  0
LINE
  5
116
330
D1
100
AcDbEntity
  8
AM_5
  6
Continuous
 62
     7
370
     0
100
AcDbLine
 10
142.732696346826
 20
69.77495504467667
 30
0.0
 11
142.732696346826
 21
53.88693896181703
 31
0.0
  0
LINE
  5
117
330
D1
100
AcDbEntity
  8
AM_5
  6
Continuous
 62
     7
370
     0
100
AcDbLine
 10
66.23271427982583
 20
54.88693873981703
 30
0.0
 11
139.232697123826
 21
54.88693873981703
 31
0.0
  0
LINE
  5
118
330
D1
100
AcDbEntity
  8
AM_0
  6
Continuous
 62
     7
370
     0
100
AcDbLine
 10
66.23271427982583
 20
55.76193854556703
 30
0.0
 11
62.73271505682583
 21
54.88693873981704
 31
0.0
  0
LINE
  5
119
330
D1
100
AcDbEntity
  8
AM_0
  6
Continuous
 62
     7
370
     0
100
AcDbLine
 10
62.73271505682582
 20
54.88693873981703
 30
0.0
 11
66.23271427982581
 21
54.01193893406703
 31
0.0
  0
LINE
  5
11A
330
D1
100
AcDbEntity
  8
AM_0
  6
Continuous
 62
     7
370
     0
100
AcDbLine
 10
66.23271427982583
 20
55.76193854556703
 30
0.0
 11
66.23271427982583
 21
54.01193893406703
 31
0.0
  0
LINE
  5
11B
330
D1
100
AcDbEntity
  8
AM_0
  6
Continuous
 62
     7
370
     0
100
AcDbLine
 10
139.232697123826
 20
54.01193893406702
 30
0.0
 11
142.732696346826
 21
54.88693873981702
 31
0.0
  0
LINE
  5
11C
330
D1
100
AcDbEntity
  8
AM_0
  6
Continuous
 62
     7
370
     0
100
AcDbLine
 10
142.732696346826
 20
54.88693873981703
 30
0.0
 11
139.232697123826
 21
55.76193854556703
 31
0.0
  0
LINE
  5
11D
330
D1
100
AcDbEntity
  8
AM_0
  6
Continuous
 62
     7
370
     0
100
AcDbLine
 10
139.232697123826
 20
54.01193893406702
 30
0.0
 11
139.232697123826
 21
55.76193854556703
 31
0.0
  0
TEXT
  5
11E
330
D1
100
AcDbEntity
  8
AM_5
  6
Continuous
 62
     7
370
     0
100
AcDbText
 10
100.7761846788936
 20
55.71771865392465
 30
0.0
 40
2.499999445
  1
80
  7
arial_ttf
 11
100.7761846788936
 21
58.21771809892465
 31
0.0
100
AcDbText
 73
     3
  0
POINT
  5
11F
330
D1
100
AcDbEntity
  8
DEFPOINTS
  6
Continuous
 62
     7
370
     0
100
AcDbPoint
 10
62.73271505682582
 20
71.27495471167669
 30
0.0
  0
POINT
  5
120
330
D1
100
AcDbEntity
  8
DEFPOINTS
  6
Continuous
 62
     7
370
     0
100
AcDbPoint
 10
142.732696346826
 20
71.27495471167669
 30
0.0
  0
POINT
  5
121
330
D1
100
AcDbEntity
  8
DEFPOINTS
  6
Continuous
 62
     7
370
     0
100
AcDbPoint
 10
142.732696346826
 20
54.88693873981703
 30
0.0
  0
ENDBLK
  5
1E7
330
D1
100
AcDbEntity
  8
0
370
     0
100
AcDbBlockEnd
  0
BLOCK
  5
123
330
D3
100
AcDbEntity
  8
0
 62
     1
 48
0.0
370
     0
100
AcDbBlockBegin
  2
SE4
 70
     0
 10
0.0
 20
0.0
 30
0.0
  3
SE4
  1

  0
LINE
  5
124
330
D3
100
AcDbEntity
  8
AM_5
  6
Continuous
 62
     7
370
     0
100
AcDbLine
 10
142.6257043905782
 20
87.2749473396775
 30
0.0
 11
157.0277554233222
 21
87.2749473396775
 31
0.0
  0
LINE
  5
125
330
D3
100
AcDbEntity
  8
AM_5
  6
Continuous
 62
     7
370
     0
100
AcDbLine
 10
142.2492031641615
 20
95.27494556367752
 30
0.0
 11
157.0277554233222
 21
95.27494556367752
 31
0.0
  0
LINE
  5
126
330
D3
100
AcDbEntity
  8
AM_5
  6
Continuous
 62
     7
370
     0
100
AcDbLine
 10
156.0277556453222
 20
98.77494478667754
 30
0.0
 11
156.0277556453222
 21
102.2749440096775
 31
0.0
  0
LINE
  5
127
330
D3
100
AcDbEntity
  8
AM_5
  6
Continuous
 62
     7
370
     0
100
AcDbLine
 10
156.0277556453222
 20
83.77494811667752
 30
0.0
 11
156.0277556453222
 21
77.12760989252337
 31
0.0
  0
LINE
  5
128
330
D3
100
AcDbEntity
  8
AM_5
  6
Continuous
 62
     7
370
     0
100
AcDbLine
 10
156.0277556453222
 20
95.27494556367752
 30
0.0
 11
156.0277556453222
 21
87.2749473396775
 31
0.0
  0
LINE
  5
129
330
D3
100
AcDbEntity
  8
AM_0
  6
Continuous
 62
     7
370
     0
100
AcDbLine
 10
155.1527558395722
 20
98.77494478667754
 30
0.0
 11
156.0277556453222
 21
95.27494556367752
 31
0.0
  0
LINE
  5
12A
330
D3
100
AcDbEntity
  8
AM_0
  6
Continuous
 62
     7
370
     0
100
AcDbLine
 10
156.0277556453222
 20
95.27494556367752
 30
0.0
 11
156.9027554510722
 21
98.77494478667754
 31
0.0
  0
LINE
  5
12B
330
D3
100
AcDbEntity
  8
AM_0
  6
Continuous
 62
     7
370
     0
100
AcDbLine
 10
155.1527558395722
 20
98.77494478667754
 30
0.0
 11
156.9027554510722
 21
98.77494478667754
 31
0.0
  0
LINE
  5
12C
330
D3
100
AcDbEntity
  8
AM_0
  6
Continuous
 62
     7
370
     0
100
AcDbLine
 10
156.9027554510722
 20
83.77494811667752
 30
0.0
 11
156.0277556453222
 21
87.27494733967752
 31
0.0
  0
LINE
  5
12D
330
D3
100
AcDbEntity
  8
AM_0
  6
Continuous
 62
     7
370
     0
100
AcDbLine
 10
156.0277556453222
 20
87.2749473396775
 30
0.0
 11
155.1527558395722
 21
83.7749481166775
 31
0.0
  0
LINE
  5
12E
330
D3
100
AcDbEntity
  8
AM_0
  6
Continuous
 62
     7
370
     0
100
AcDbLine
 10
156.9027554510722
 20
83.77494811667752
 30
0.0
 11
155.1527558395722
 21
83.77494811667752
 31
0.0
  0
TEXT
  5
12F
330
D3
100
AcDbEntity
  8
AM_5
  6
Continuous
 62
     7
370
     0
100
AcDbText
 10
155.1969757312146
 20
77.7230189375595
 30
0.0
 40
2.499999445
  1
8
 50
90.0
  7
arial_ttf
 11
152.6969762862146
 21
77.7230189375595
 31
0.0
100
AcDbText
 73
     3
  0
POINT
  5
130
330
D3
100
AcDbEntity
  8
DEFPOINTS
  6
Continuous
 62
     7
370
     0
100
AcDbPoint
 10
141.1257047235782
 20
87.2749473396775
 30
0.0
  0
POINT
  5
131
330
D3
100
AcDbEntity
  8
DEFPOINTS
  6
Continuous
 62
     7
370
     0
100
AcDbPoint
 10
140.7492034971615
 20
95.27494556367752
 30
0.0
  0
POINT
  5
132
330
D3
100
AcDbEntity
  8
DEFPOINTS
  6
Continuous
 62
     7
370
     0
100
AcDbPoint
 10
156.0277556453222
 20
95.27494556367752
 30
0.0
  0
ENDBLK
  5
1E8
330
D3
100
AcDbEntity
  8
0
370
     0
100
AcDbBlockEnd
  0
BLOCK
  5
134
330
D5
100
AcDbEntity
  8
0
 62
     1
 48
0.0
370
     0
100
AcDbBlockBegin
  2
SE5
 70
     0
 10
0.0
 20
0.0
 30
0.0
  3
SE5
  1

  0
LINE
  5
135
330
D5
100
AcDbEntity
  8
AM_5
  6
Continuous
 62
     7
370
     0
100
AcDbLine
 10
144.232696013826
 20
111.2749458316766
 30
0.0
 11
157.0277554233222
 21
111.2749458316766
 31
0.0
  0
LINE
  5
136
330
D5
100
AcDbEntity
  8
AM_5
  6
Continuous
 62
     7
370
     0
100
AcDbLine
 10
144.2326807538294
 20
95.27494556367752
 30
0.0
 11
157.0277554233222
 21
95.27494556367752
 31
0.0
  0
LINE
  5
137
330
D5
100
AcDbEntity
  8
AM_5
  6
Continuous
 62
     7
370
     0
100
AcDbLine
 10
156.0277556453222
 20
107.7749466086767
 30
0.0
 11
156.0277556453222
 21
98.77494478667751
 31
0.0
  0
LINE
  5
138
330
D5
100
AcDbEntity
  8
AM_0
  6
Continuous
 62
     7
370
     0
100
AcDbLine
 10
156.9027554510722
 20
107.7749466086766
 30
0.0
 11
156.0277556453222
 21
111.2749458316766
 31
0.0
  0
LINE
  5
139
330
D5
100
AcDbEntity
  8
AM_0
  6
Continuous
 62
     7
370
     0
100
AcDbLine
 10
156.0277556453222
 20
111.2749458316766
 30
0.0
 11
155.1527558395722
 21
107.7749466086766
 31
0.0
  0
LINE
  5
13A
330
D5
100
AcDbEntity
  8
AM_0
  6
Continuous
 62
     7
370
     0
100
AcDbLine
 10
156.9027554510722
 20
107.7749466086766
 30
0.0
 11
155.1527558395722
 21
107.7749466086766
 31
0.0
  0
LINE
  5
13B
330
D5
100
AcDbEntity
  8
AM_0
  6
Continuous
 62
     7
370
     0
100
AcDbLine
 10
155.1527558395722
 20
98.77494478667754
 30
0.0
 11
156.0277556453222
 21
95.27494556367752
 31
0.0
  0
LINE
  5
13C
330
D5
100
AcDbEntity
  8
AM_0
  6
Continuous
 62
     7
370
     0
100
AcDbLine
 10
156.0277556453222
 20
95.27494556367752
 30
0.0
 11
156.9027554510722
 21
98.77494478667754
 31
0.0
  0
LINE
  5
13D
330
D5
100
AcDbEntity
  8
AM_0
  6
Continuous
 62
     7
370
     0
100
AcDbLine
 10
155.1527558395722
 20
98.77494478667754
 30
0.0
 11
156.9027554510722
 21
98.77494478667754
 31
0.0
  0
TEXT
  5
13E
330
D5
100
AcDbEntity
  8
AM_5
  6
Continuous
 62
     7
370
     0
100
AcDbText
 10
155.1969757312146
 20
101.3184246697448
 30
0.0
 40
2.499999445
  1
15
 50
90.0
  7
arial_ttf
 11
152.6969762862146
 21
101.3184246697448
 31
0.0
100
AcDbText
 73
     3
  0
POINT
  5
13F
330
D5
100
AcDbEntity
  8
DEFPOINTS
  6
Continuous
 62
     7
370
     0
100
AcDbPoint
 10
142.732696346826
 20
111.2749458316766
 30
0.0
  0
POINT
  5
140
330
D5
100
AcDbEntity
  8
DEFPOINTS
  6
Continuous
 62
     7
370
     0
100
AcDbPoint
 10
142.7326810868294
 20
95.27494556367752
 30
0.0
  0
POINT
  5
141
330
D5
100
AcDbEntity
  8
DEFPOINTS
  6
Continuous
 62
     7
370
     0
100
AcDbPoint
 10
156.0277556453222
 20
95.27494556367752
 30
0.0
  0
ENDBLK
  5
1E9
330
D5
100
AcDbEntity
  8
0
370
     0
100
AcDbBlockEnd
  0
BLOCK
  5
143
330
D7
100
AcDbEntity
  8
0
 62
     1
 48
0.0
370
     0
100
AcDbBlockBegin
  2
SE6
 70
     0
 10
0.0
 20
0.0
 30
0.0
  3
SE6
  1

  0
LINE
  5
144
330
D7
100
AcDbEntity
  8
AM_5
  6
Continuous
 62
     7
370
     0
100
AcDbLine
 10
70.73271335082582
 20
202.7701956297267
 30
0.0
 11
70.73271335082582
 21
241.2441041285171
 31
0.0
  0
LINE
  5
145
330
D7
100
AcDbEntity
  8
AM_5
  6
Continuous
 62
     7
370
     0
100
AcDbLine
 10
62.73271512682581
 20
199.0128371438605
 30
0.0
 11
62.73271512682581
 21
241.2441041285171
 31
0.0
  0
LINE
  5
146
330
D7
100
AcDbEntity
  8
AM_5
  6
Continuous
 62
     7
370
     0
100
AcDbLine
 10
59.23271590382581
 20
240.2441043505171
 30
0.0
 11
55.73271668082581
 21
240.2441043505171
 31
0.0
  0
LINE
  5
147
330
D7
100
AcDbEntity
  8
AM_5
  6
Continuous
 62
     7
370
     0
100
AcDbLine
 10
74.2327125738258
 20
240.2441043505171
 30
0.0
 11
80.88005079797994
 21
240.2441043505171
 31
0.0
  0
LINE
  5
148
330
D7
100
AcDbEntity
  8
AM_5
  6
Continuous
 62
     7
370
     0
100
AcDbLine
 10
62.73271512682581
 20
240.2441043505171
 30
0.0
 11
70.7327133508258
 21
240.2441043505171
 31
0.0
  0
LINE
  5
149
330
D7
100
AcDbEntity
  8
AM_0
  6
Continuous
 62
     7
370
     0
100
AcDbLine
 10
59.23271590382581
 20
239.3691045447671
 30
0.0
 11
62.73271512682581
 21
240.2441043505171
 31
0.0
  0
LINE
  5
14A
330
D7
100
AcDbEntity
  8
AM_0
  6
Continuous
 62
     7
370
     0
100
AcDbLine
 10
62.73271512682581
 20
240.2441043505171
 30
0.0
 11
59.23271590382581
 21
241.1191041562671
 31
0.0
  0
LINE
  5
14B
330
D7
100
AcDbEntity
  8
AM_0
  6
Continuous
 62
     7
370
     0
100
AcDbLine
 10
59.23271590382581
 20
239.3691045447671
 30
0.0
 11
59.23271590382581
 21
241.1191041562671
 31
0.0
  0
LINE
  5
14C
330
D7
100
AcDbEntity
  8
AM_0
  6
Continuous
 62
     7
370
     0
100
AcDbLine
 10
74.23271257382579
 20
241.1191041562671
 30
0.0
 11
70.73271335082579
 21
240.2441043505171
 31
0.0
  0
LINE
  5
14D
330
D7
100
AcDbEntity
  8
AM_0
  6
Continuous
 62
     7
370
     0
100
AcDbLine
 10
70.73271335082582
 20
240.2441043505171
 30
0.0
 11
74.23271257382582
 21
239.3691045447671
 31
0.0
  0
LINE
  5
14E
330
D7
100
AcDbEntity
  8
AM_0
  6
Continuous
 62
     7
370
     0
100
AcDbLine
 10
74.23271257382579
 20
241.1191041562671
 30
0.0
 11
74.23271257382579
 21
239.3691045447671
 31
0.0
  0
TEXT
  5
14F
330
D7
100
AcDbEntity
  8
AM_5
  6
Continuous
 62
     7
370
     0
100
AcDbText
 10
78.32812084186193
 20
241.0748842646248
 30
0.0
 40
2.499999445
  1
8
  7
arial_ttf
 11
78.32812084186193
 21
243.5748837096248
 31
0.0
100
AcDbText
 73
     3
  0
POINT
  5
150
330
D7
100
AcDbEntity
  8
DEFPOINTS
  6
Continuous
 62
     7
370
     0
100
AcDbPoint
 10
70.73271335082582
 20
201.2701959627267
 30
0.0
  0
POINT
  5
151
330
D7
100
AcDbEntity
  8
DEFPOINTS
  6
Continuous
 62
     7
370
     0
100
AcDbPoint
 10
62.73271512682581
 20
197.5128374768604
 30
0.0
  0
POINT
  5
152
330
D7
100
AcDbEntity
  8
DEFPOINTS
  6
Continuous
 62
     7
370
     0
100
AcDbPoint
 10
62.73271512682581
 20
240.2441043505171
 30
0.0
  0
ENDBLK
  5
1EA
330
D7
100
AcDbEntity
  8
0
370
     0
100
AcDbBlockEnd
  0
BLOCK
  5
154
330
D9
100
AcDbEntity
  8
0
 62
     1
 48
0.0
370
     0
100
AcDbBlockBegin
  2
SE7
 70
     0
 10
0.0
 20
0.0
 30
0.0
  3
SE7
  1

  0
LINE
  5
155
330
D9
100
AcDbEntity
  8
AM_5
  6
Continuous
 62
     7
370
     0
100
AcDbLine
 10
69.23271266382602
 20
111.2749458316766
 30
0.0
 11
50.59764968181095
 21
111.2749458316767
 31
0.0
  0
LINE
  5
156
330
D9
100
AcDbEntity
  8
AM_5
  6
Continuous
 62
     7
370
     0
100
AcDbLine
 10
69.23271266382602
 20
71.27495471167669
 30
0.0
 11
50.59764968181093
 21
71.27495471167669
 31
0.0
  0
LINE
  5
157
330
D9
100
AcDbEntity
  8
AM_5
  6
Continuous
 62
     7
370
     0
100
AcDbLine
 10
51.59764945981095
 20
107.7749466086767
 30
0.0
 11
51.59764945981094
 21
74.77495393467669
 31
0.0
  0
LINE
  5
158
330
D9
100
AcDbEntity
  8
AM_0
  6
Continuous
 62
     7
370
     0
100
AcDbLine
 10
52.47264926556095
 20
107.7749466086767
 30
0.0
 11
51.59764945981095
 21
111.2749458316767
 31
0.0
  0
LINE
  5
159
330
D9
100
AcDbEntity
  8
AM_0
  6
Continuous
 62
     7
370
     0
100
AcDbLine
 10
51.59764945981095
 20
111.2749458316767
 30
0.0
 11
50.72264965406095
 21
107.7749466086767
 31
0.0
  0
LINE
  5
15A
330
D9
100
AcDbEntity
  8
AM_0
  6
Continuous
 62
     7
370
     0
100
AcDbLine
 10
52.47264926556095
 20
107.7749466086767
 30
0.0
 11
50.72264965406095
 21
107.7749466086767
 31
0.0
  0
LINE
  5
15B
330
D9
100
AcDbEntity
  8
AM_0
  6
Continuous
 62
     7
370
     0
100
AcDbLine
 10
50.72264965406094
 20
74.7749539346767
 30
0.0
 11
51.59764945981094
 21
71.27495471167669
 31
0.0
  0
LINE
  5
15C
330
D9
100
AcDbEntity
  8
AM_0
  6
Continuous
 62
     7
370
     0
100
AcDbLine
 10
51.59764945981094
 20
71.27495471167669
 30
0.0
 11
52.47264926556094
 21
74.77495393467669
 31
0.0
  0
LINE
  5
15D
330
D9
100
AcDbEntity
  8
AM_0
  6
Continuous
 62
     7
370
     0
100
AcDbLine
 10
50.72264965406094
 20
74.7749539346767
 30
0.0
 11
52.47264926556094
 21
74.7749539346767
 31
0.0
  0
TEXT
  5
15E
330
D9
100
AcDbEntity
  8
AM_5
  6
Continuous
 62
     7
370
     0
100
AcDbText
 10
50.76601688559247
 20
89.31842639124504
 30
0.0
 40
2.499999445
  1
38
 50
90.0
  7
arial_ttf
 11
48.26601744059247
 21
89.31842639124504
 31
0.0
100
AcDbText
 73
     3
  0
POINT
  5
15F
330
D9
100
AcDbEntity
  8
DEFPOINTS
  6
Continuous
 62
     7
370
     0
100
AcDbPoint
 10
70.73271233082603
 20
111.2749458316766
 30
0.0
  0
POINT
  5
160
330
D9
100
AcDbEntity
  8
DEFPOINTS
  6
Continuous
 62
     7
370
     0
100
AcDbPoint
 10
70.73271233082603
 20
71.27495471167669
 30
0.0
  0
POINT
  5
161
330
D9
100
AcDbEntity
  8
DEFPOINTS
  6
Continuous
 62
     7
370
     0
100
AcDbPoint
 10
51.59764945981094
 20
71.27495471167669
 30
0.0
  0
ENDBLK
  5
1EB
330
D9
100
AcDbEntity
  8
0
370
     0
100
AcDbBlockEnd
  0
BLOCK
  5
163
330
DB
100
AcDbEntity
  8
0
 62
     1
 48
0.0
370
     0
100
AcDbBlockBegin
  2
SE8
 70
     0
 10
0.0
 20
0.0
 30
0.0
  3
SE8
  1

  0
LINE
  5
164
330
DB
100
AcDbEntity
  8
AM_5
  6
Continuous
 62
     7
370
     0
100
AcDbLine
 10
61.23271545982581
 20
229.1957789932459
 30
0.0
 11
44.19558376206992
 21
229.1957789932459
 31
0.0
  0
LINE
  5
165
330
DB
100
AcDbEntity
  8
AM_5
  6
Continuous
 62
     7
370
     0
100
AcDbLine
 10
65.34013432797862
 20
149.1957967532459
 30
0.0
 11
44.1955837620699
 21
149.1957967532459
 31
0.0
  0
LINE
  5
166
330
DB
100
AcDbEntity
  8
AM_5
  6
Continuous
 62
     7
370
     0
100
AcDbLine
 10
45.19558354006991
 20
225.6957797702459
 30
0.0
 11
45.1955835400699
 21
152.6957959762459
 31
0.0
  0
LINE
  5
167
330
DB
100
AcDbEntity
  8
AM_0
  6
Continuous
 62
     7
370
     0
100
AcDbLine
 10
46.07058334581991
 20
225.6957797702459
 30
0.0
 11
45.19558354006992
 21
229.1957789932459
 31
0.0
  0
LINE
  5
168
330
DB
100
AcDbEntity
  8
AM_0
  6
Continuous
 62
     7
370
     0
100
AcDbLine
 10
45.19558354006991
 20
229.1957789932459
 30
0.0
 11
44.32058373431991
 21
225.6957797702459
 31
0.0
  0
LINE
  5
169
330
DB
100
AcDbEntity
  8
AM_0
  6
Continuous
 62
     7
370
     0
100
AcDbLine
 10
46.07058334581991
 20
225.6957797702459
 30
0.0
 11
44.32058373431991
 21
225.6957797702459
 31
0.0
  0
LINE
  5
16A
330
DB
100
AcDbEntity
  8
AM_0
  6
Continuous
 62
     7
370
     0
100
AcDbLine
 10
44.3205837343199
 20
152.6957959762459
 30
0.0
 11
45.1955835400699
 21
149.1957967532459
 31
0.0
  0
LINE
  5
16B
330
DB
100
AcDbEntity
  8
AM_0
  6
Continuous
 62
     7
370
     0
100
AcDbLine
 10
45.1955835400699
 20
149.1957967532459
 30
0.0
 11
46.0705833458199
 21
152.6957959762459
 31
0.0
  0
LINE
  5
16C
330
DB
100
AcDbEntity
  8
AM_0
  6
Continuous
 62
     7
370
     0
100
AcDbLine
 10
44.3205837343199
 20
152.6957959762459
 30
0.0
 11
46.0705833458199
 21
152.6957959762459
 31
0.0
  0
TEXT
  5
16D
330
DB
100
AcDbEntity
  8
AM_5
  6
Continuous
 62
     7
370
     0
100
AcDbText
 10
44.36480362596227
 20
187.2392666953136
 30
0.0
 40
2.499999445
  1
80
 50
90.0
  7
arial_ttf
 11
41.86480418096227
 21
187.2392666953136
 31
0.0
100
AcDbText
 73
     3
  0
POINT
  5
16E
330
DB
100
AcDbEntity
  8
DEFPOINTS
  6
Continuous
 62
     7
370
     0
100
AcDbPoint
 10
62.73271512682581
 20
229.1957789932459
 30
0.0
  0
POINT
  5
16F
330
DB
100
AcDbEntity
  8
DEFPOINTS
  6
Continuous
 62
     7
370
     0
100
AcDbPoint
 10
66.84013399497863
 20
149.1957967532459
 30
0.0
  0
POINT
  5
170
330
DB
100
AcDbEntity
  8
DEFPOINTS
  6
Continuous
 62
     7
370
     0
100
AcDbPoint
 10
45.1955835400699
 20
149.1957967532459
 30
0.0
  0
ENDBLK
  5
1EC
330
DB
100
AcDbEntity
  8
0
370
     0
100
AcDbBlockEnd
  0
BLOCK
  5
172
330
DD
100
AcDbEntity
  8
0
 62
     1
 48
0.0
370
     0
100
AcDbBlockBegin
  2
SE9
 70
     0
 10
0.0
 20
0.0
 30
0.0
  3
SE9
  1

  0
LINE
  5
173
330
DD
100
AcDbEntity
  8
AM_5
  6
Continuous
 62
     7
370
     0
100
AcDbLine
 10
69.23271368382581
 20
213.4457824897459
 30
0.0
 11
80.58185934431495
 21
213.4457824897459
 31
0.0
  0
LINE
  5
174
330
DD
100
AcDbEntity
  8
AM_5
  6
Continuous
 62
     7
370
     0
100
AcDbLine
 10
69.23271368382581
 20
204.9457843767459
 30
0.0
 11
80.58185934431495
 21
204.9457843767459
 31
0.0
  0
LINE
  5
175
330
DD
100
AcDbEntity
  8
AM_5
  6
Continuous
 62
     7
370
     0
100
AcDbLine
 10
79.58185956631495
 20
208.4457835997459
 30
0.0
 11
79.58185956631495
 21
209.9457832667459
 31
0.0
  0
LINE
  5
176
330
DD
100
AcDbEntity
  8
AM_5
  6
Continuous
 62
     7
370
     0
100
AcDbLine
 10
79.58185956631495
 20
213.4457824897459
 30
0.0
 11
79.58185956631496
 21
230.678665157906
 31
0.0
  0
LINE
  5
177
330
DD
100
AcDbEntity
  8
AM_0
  6
Continuous
 62
     7
370
     0
100
AcDbLine
 10
78.70685976056494
 20
208.4457835997459
 30
0.0
 11
79.58185956631493
 21
204.9457843767459
 31
0.0
  0
LINE
  5
178
330
DD
100
AcDbEntity
  8
AM_0
  6
Continuous
 62
     7
370
     0
100
AcDbLine
 10
79.58185956631495
 20
204.9457843767459
 30
0.0
 11
80.45685937206494
 21
208.4457835997459
 31
0.0
  0
LINE
  5
179
330
DD
100
AcDbEntity
  8
AM_0
  6
Continuous
 62
     7
370
     0
100
AcDbLine
 10
78.70685976056494
 20
208.4457835997459
 30
0.0
 11
80.45685937206492
 21
208.4457835997459
 31
0.0
  0
LINE
  5
17A
330
DD
100
AcDbEntity
  8
AM_0
  6
Continuous
 62
     7
370
     0
100
AcDbLine
 10
80.45685937206494
 20
209.9457832667459
 30
0.0
 11
79.58185956631495
 21
213.4457824897459
 31
0.0
  0
LINE
  5
17B
330
DD
100
AcDbEntity
  8
AM_0
  6
Continuous
 62
     7
370
     0
100
AcDbLine
 10
79.58185956631495
 20
213.4457824897459
 30
0.0
 11
78.70685976056496
 21
209.9457832667459
 31
0.0
  0
LINE
  5
17C
330
DD
100
AcDbEntity
  8
AM_0
  6
Continuous
 62
     7
370
     0
100
AcDbLine
 10
80.45685937206494
 20
209.9457832667459
 30
0.0
 11
78.70685976056496
 21
209.9457832667459
 31
0.0
  0
TEXT
  5
17D
330
DD
100
AcDbEntity
  8
AM_5
  6
Continuous
 62
     7
370
     0
100
AcDbText
 10
78.68116152311792
 20
221.5049026366017
 30
0.0
 40
2.499999445
  1
Ø 8.5
 50
90.0
  7
arial_ttf
 11
76.18116207811792
 21
221.5049026366017
 31
0.0
100
AcDbText
 73
     3
  0
POINT
  5
17E
330
DD
100
AcDbEntity
  8
DEFPOINTS
  6
Continuous
 62
     7
370
     0
100
AcDbPoint
 10
67.73271401682581
 20
213.4457824897459
 30
0.0
  0
POINT
  5
17F
330
DD
100
AcDbEntity
  8
DEFPOINTS
  6
Continuous
 62
     7
370
     0
100
AcDbPoint
 10
67.73271401682581
 20
204.9457843767459
 30
0.0
  0
POINT
  5
180
330
DD
100
AcDbEntity
  8
DEFPOINTS
  6
Continuous
 62
     7
370
     0
100
AcDbPoint
 10
79.58185956631495
 20
204.9457843767459
 30
0.0
  0
ENDBLK
  5
1ED
330
DD
100
AcDbEntity
  8
0
370
     0
100
AcDbBlockEnd
  0
BLOCK
  5
182
330
DF
100
AcDbEntity
  8
0
 62
     1
 48
0.0
370
     0
100
AcDbBlockBegin
  2
SE10
 70
     0
 10
0.0
 20
0.0
 30
0.0
  3
SE10
  1

  0
LINE
  5
183
330
DF
100
AcDbEntity
  8
AM_5
  6
Continuous
 62
     7
370
     0
100
AcDbLine
 10
86.98270974332581
 20
147.6957970862458
 30
0.0
 11
86.98270974332581
 21
137.2524803146627
 31
0.0
  0
LINE
  5
184
330
DF
100
AcDbEntity
  8
AM_5
  6
Continuous
 62
     7
370
     0
100
AcDbLine
 10
78.48271163032579
 20
147.6957970862458
 30
0.0
 11
78.48271163032579
 21
137.2524803146627
 31
0.0
  0
LINE
  5
185
330
DF
100
AcDbEntity
  8
AM_5
  6
Continuous
 62
     7
370
     0
100
AcDbLine
 10
81.98271085332581
 20
138.2524800926627
 30
0.0
 11
83.48271052032581
 21
138.2524800926627
 31
0.0
  0
LINE
  5
186
330
DF
100
AcDbEntity
  8
AM_5
  6
Continuous
 62
     7
370
     0
100
AcDbLine
 10
86.98270974332581
 20
138.2524800926627
 30
0.0
 11
104.2155924114859
 21
138.2524800926627
 31
0.0
  0
LINE
  5
187
330
DF
100
AcDbEntity
  8
AM_0
  6
Continuous
 62
     7
370
     0
100
AcDbLine
 10
81.98271085332581
 20
139.1274798984127
 30
0.0
 11
78.48271163032581
 21
138.2524800926627
 31
0.0
  0
LINE
  5
188
330
DF
100
AcDbEntity
  8
AM_0
  6
Continuous
 62
     7
370
     0
100
AcDbLine
 10
78.48271163032579
 20
138.2524800926627
 30
0.0
 11
81.9827108533258
 21
137.3774802869127
 31
0.0
  0
LINE
  5
189
330
DF
100
AcDbEntity
  8
AM_0
  6
Continuous
 62
     7
370
     0
100
AcDbLine
 10
81.98271085332581
 20
139.1274798984127
 30
0.0
 11
81.98271085332581
 21
137.3774802869127
 31
0.0
  0
LINE
  5
18A
330
DF
100
AcDbEntity
  8
AM_0
  6
Continuous
 62
     7
370
     0
100
AcDbLine
 10
83.48271052032581
 20
137.3774802869127
 30
0.0
 11
86.98270974332581
 21
138.2524800926627
 31
0.0
  0
LINE
  5
18B
330
DF
100
AcDbEntity
  8
AM_0
  6
Continuous
 62
     7
370
     0
100
AcDbLine
 10
86.98270974332581
 20
138.2524800926627
 30
0.0
 11
83.48271052032581
 21
139.1274798984127
 31
0.0
  0
LINE
  5
18C
330
DF
100
AcDbEntity
  8
AM_0
  6
Continuous
 62
     7
370
     0
100
AcDbLine
 10
83.48271052032581
 20
137.3774802869127
 30
0.0
 11
83.48271052032581
 21
139.1274798984127
 31
0.0
  0
TEXT
  5
18D
330
DF
100
AcDbEntity
  8
AM_5
  6
Continuous
 62
     7
370
     0
100
AcDbText
 10
95.04182989018158
 20
139.1531781358597
 30
0.0
 40
2.499999445
  1
Ø 8.5
  7
arial_ttf
 11
95.04182989018158
 21
141.6531775808597
 31
0.0
100
AcDbText
 73
     3
  0
POINT
  5
18E
330
DF
100
AcDbEntity
  8
DEFPOINTS
  6
Continuous
 62
     7
370
     0
100
AcDbPoint
 10
86.98270974332581
 20
149.1957967532459
 30
0.0
  0
POINT
  5
18F
330
DF
100
AcDbEntity
  8
DEFPOINTS
  6
Continuous
 62
     7
370
     0
100
AcDbPoint
 10
78.48271163032579
 20
149.1957967532459
 30
0.0
  0
POINT
  5
190
330
DF
100
AcDbEntity
  8
DEFPOINTS
  6
Continuous
 62
     7
370
     0
100
AcDbPoint
 10
78.48271163032579
 20
138.2524800926627
 30
0.0
  0
ENDBLK
  5
1EE
330
DF
100
AcDbEntity
  8
0
370
     0
100
AcDbBlockEnd
  0
ENDSEC
  0
SECTION
  2
ENTITIES
  0
LINE
  5
6E
330
A
100
AcDbEntity
  8
AM_8
  6
Continuous
 62
     7
370
     0
100
AcDbLine
 10
-17.4681511735354
 20
122.1837162222422
 30
0.0
 11
-15.67317805201952
 21
123.9786893337581
 31
0.0
  0
LINE
  5
6F
330
A
100
AcDbEntity
  8
AM_8
  6
Continuous
 62
     7
370
     0
100
AcDbLine
 10
-14.9681517285354
 20
124.6837156672422
 30
0.0
 11
-13.40607974531545
 21
126.2457876504622
 31
0.0
  0
LINE
  5
70
330
A
100
AcDbEntity
  8
AM_8
  6
Continuous
 62
     7
370
     0
100
AcDbLine
 10
-14.95529710138913
 20
128.9392100325222
 30
0.0
 11
-20.67317694201953
 21
123.2213301918918
 31
0.0
  0
LINE
  5
71
330
A
100
AcDbEntity
  8
AM_8
  6
Continuous
 62
     7
370
     0
100
AcDbLine
 10
-20.67317694201952
 20
127.4639699400256
 30
0.0
 11
-16.30041328277326
 21
131.8367335992719
 31
0.0
  0
LINE
  5
72
330
A
100
AcDbEntity
  8
AM_8
  6
Continuous
 62
     7
370
     0
100
AcDbLine
 10
-17.23293324575378
 20
135.1468533844252
 30
0.0
 11
-20.67317694201951
 21
131.7066096881594
 31
0.0
  0
LINE
  5
73
330
A
100
AcDbEntity
  8
AM_8
  6
Continuous
 62
     7
370
     0
100
AcDbLine
 10
-20.67317694201952
 20
135.9492494262932
 30
0.0
 11
-19.01721241964373
 21
137.605213948669
 31
0.0
  0
LINE
  5
74
330
A
100
AcDbEntity
  8
AM_8
  6
Continuous
 62
     7
370
     0
100
AcDbLine
 10
-8.29910564906396
 20
84.68372454724221
 30
0.0
 11
-7.423179883519509
 21
85.55965031278663
 31
0.0
  0
LINE
  5
75
330
A
100
AcDbEntity
  8
AM_8
  6
Continuous
 62
     7
370
     0
100
AcDbLine
 10
-7.423179883519523
 20
89.80229005092045
 30
0.0
 11
-12.54174539719773
 21
84.68372454724221
 31
0.0
  0
LINE
  5
76
330
A
100
AcDbEntity
  8
AM_8
  6
Continuous
 62
     7
370
     0
100
AcDbLine
 10
-19.2843845903315
 20
82.18372510224222
 30
0.0
 11
-8.10378340242552
 21
93.36432628014819
 31
0.0
  0
LINE
  5
77
330
A
100
AcDbEntity
  8
AM_8
  6
Continuous
 62
     7
370
     0
100
AcDbLine
 10
-10.2251032714924
 20
95.48564615921511
 30
0.0
 11
-20.67317694201954
 21
85.03757248868803
 31
0.0
  0
LINE
  5
78
330
A
100
AcDbEntity
  8
AM_8
  6
Continuous
 62
     7
370
     0
100
AcDbLine
 10
-20.67317694201952
 20
89.28021222682176
 30
0.0
 11
-12.11780879131169
 21
97.83558038752964
 31
0.0
  0
LINE
  5
79
330
A
100
AcDbEntity
  8
AM_8
  6
Continuous
 62
     7
370
     0
100
AcDbLine
 10
-12.67317871801951
 20
101.5228501989555
 30
0.0
 11
-20.67317694201952
 21
93.52285197495556
 31
0.0
  0
LINE
  5
7A
330
A
100
AcDbEntity
  8
AM_8
  6
Continuous
 62
     7
370
     0
100
AcDbLine
 10
-20.67317694201952
 20
97.7654917230893
 30
0.0
 11
-12.67317871801951
 21
105.7654899470893
 31
0.0
  0
LINE
  5
7B
330
A
100
AcDbEntity
  8
AM_8
  6
Continuous
 62
     7
370
     0
100
AcDbLine
 10
-12.67317871801951
 20
110.008129695223
 30
0.0
 11
-20.67317694201952
 21
102.008131471223
 31
0.0
  0
LINE
  5
7C
330
A
100
AcDbEntity
  8
AM_8
  6
Continuous
 62
     7
370
     0
100
AcDbLine
 10
-20.67317694201952
 20
106.2507712093568
 30
0.0
 11
-15.67317805201952
 21
111.2507700993568
 31
0.0
  0
LINE
  5
7D
330
A
100
AcDbEntity
  8
AM_8
  6
Continuous
 62
     7
370
     0
100
AcDbLine
 10
-17.48286980026786
 20
113.6837181092422
 30
0.0
 11
-20.67317694201951
 21
110.4934109574906
 31
0.0
  0
LINE
  5
7E
330
A
100
AcDbEntity
  8
AM_8
  6
Continuous
 62
     7
370
     0
100
AcDbLine
 10
-5.350621493627585
 20
57.93373048574224
 30
0.0
 11
-4.923180438519509
 21
58.3611715408503
 31
0.0
  0
LINE
  5
7F
330
A
100
AcDbEntity
  8
AM_8
  6
Continuous
 62
     7
370
     0
100
AcDbLine
 10
-4.923180438519537
 20
62.60381127898409
 30
0.0
 11
-9.593261241761368
 21
57.93373048574224
 31
0.0
  0
LINE
  5
80
330
A
100
AcDbEntity
  8
AM_8
  6
Continuous
 62
     7
370
     0
100
AcDbLine
 10
-13.83590098989512
 20
57.93373048574224
 30
0.0
 11
-7.423179883519523
 21
64.34645158211785
 31
0.0
  0
LINE
  5
81
330
A
100
AcDbEntity
  8
AM_8
  6
Continuous
 62
     7
370
     0
100
AcDbLine
 10
-7.423179883519523
 20
68.58909133025162
 30
0.0
 11
-18.07854072802889
 21
57.93373048574224
 31
0.0
  0
LINE
  5
82
330
A
100
AcDbEntity
  8
AM_8
  6
Continuous
 62
     7
370
     0
100
AcDbLine
 10
-20.67317694201952
 20
59.58173400988536
 30
0.0
 11
-9.071183417662652
 21
71.18372754424223
 31
0.0
  0
LINE
  5
83
330
A
100
AcDbEntity
  8
AM_8
  6
Continuous
 62
     7
370
     0
100
AcDbLine
 10
-13.31382316579642
 20
71.18372754424223
 30
0.0
 11
-20.67317694201952
 21
63.82437375801917
 31
0.0
  0
LINE
  5
84
330
A
100
AcDbEntity
  8
AM_8
  6
Continuous
 62
     7
370
     0
100
AcDbLine
 10
-20.67317694201952
 20
68.06701350615293
 30
0.0
 11
-15.67317805201952
 21
73.06701239615293
 31
0.0
  0
LINE
  5
85
330
A
100
AcDbEntity
  8
AM_8
  6
Continuous
 62
     7
370
     0
100
AcDbLine
 10
-19.29910320706396
 20
73.68372698924222
 30
0.0
 11
-20.67317694201952
 21
72.30965325428667
 31
0.0
  0
LINE
  5
86
330
A
100
AcDbEntity
  8
AM_8
  6
Continuous
 62
     7
370
     0
100
AcDbLine
 10
32.83313620957631
 20
57.93373048574224
 30
0.0
 11
35.07681068148047
 21
60.17740494764641
 31
0.0
  0
LINE
  5
87
330
A
100
AcDbEntity
  8
AM_8
  6
Continuous
 62
     7
370
     0
100
AcDbLine
 10
33.59049536144255
 20
62.93372937574225
 30
0.0
 11
28.59049647144255
 21
57.93373048574224
 31
0.0
  0
LINE
  5
88
330
A
100
AcDbEntity
  8
AM_8
  6
Continuous
 62
     7
370
     0
100
AcDbLine
 10
24.34785672330878
 20
57.93373048574224
 30
0.0
 11
32.34785494730878
 21
65.93372870974224
 31
0.0
  0
LINE
  5
89
330
A
100
AcDbEntity
  8
AM_8
  6
Continuous
 62
     7
370
     0
100
AcDbLine
 10
28.10521519917502
 20
65.93372870974224
 30
0.0
 11
20.10521697517501
 21
57.93373048574224
 31
0.0
  0
LINE
  5
8A
330
A
100
AcDbEntity
  8
AM_8
  6
Continuous
 62
     7
370
     0
100
AcDbLine
 10
15.86257722704124
 20
57.93373048574224
 30
0.0
 11
23.86257545104124
 21
65.93372870974227
 31
0.0
  0
LINE
  5
8B
330
A
100
AcDbEntity
  8
AM_8
  6
Continuous
 62
     7
370
     0
100
AcDbLine
 10
19.73757915679063
 20
66.05137215362538
 30
0.0
 11
11.61993748890748
 21
57.93373048574221
 31
0.0
  0
LINE
  5
8C
330
A
100
AcDbEntity
  8
AM_8
  6
Continuous
 62
     7
370
     0
100
AcDbLine
 10
7.377297740773713
 20
57.93373048574224
 30
0.0
 11
17.35205506637709
 21
67.90848781134562
 31
0.0
  0
LINE
  5
8D
330
A
100
AcDbEntity
  8
AM_8
  6
Continuous
 62
     7
370
     0
100
AcDbLine
 10
15.23073519731019
 20
70.02980768041251
 30
0.0
 11
3.576817674480466
 21
58.37589015758277
 31
0.0
  0
LINE
  5
8E
330
A
100
AcDbEntity
  8
AM_8
  6
Continuous
 62
     7
370
     0
100
AcDbLine
 10
3.57681767448048
 20
62.61852990571654
 30
0.0
 11
3.892017144506183
 21
62.93372937574227
 31
0.0
  0
LINE
  5
8F
330
A
100
AcDbEntity
  8
AM_8
  6
Continuous
 62
     7
370
     0
100
AcDbLine
 10
6.07681711948048
 20
65.11852935071653
 30
0.0
 11
12.14201530300619
 21
71.18372754424226
 31
0.0
  0
LINE
  5
90
330
A
100
AcDbEntity
  8
AM_8
  6
Continuous
 62
     7
370
     0
100
AcDbLine
 10
7.899375564872414
 20
71.18372754424223
 30
0.0
 11
6.07681711948048
 21
69.36116909885029
 31
0.0
  0
LINE
  5
91
330
A
100
AcDbEntity
  8
AM_8
  6
Continuous
 62
     7
370
     0
100
AcDbLine
 10
57.56450543921113
 20
61.45190098470823
 30
0.0
 11
54.04633494024515
 21
57.93373048574224
 31
0.0
  0
LINE
  5
92
330
A
100
AcDbEntity
  8
AM_8
  6
Continuous
 62
     7
370
     0
100
AcDbLine
 10
49.80369519211137
 20
57.93373048574224
 30
0.0
 11
53.80504706381109
 21
61.93508234744192
 31
0.0
  0
LINE
  5
93
330
A
100
AcDbEntity
  8
AM_8
  6
Continuous
 62
     7
370
     0
100
AcDbLine
 10
50.93226931156789
 20
63.30494434333252
 30
0.0
 11
45.56105544397766
 21
57.93373048574228
 31
0.0
  0
LINE
  5
94
330
A
100
AcDbEntity
  8
AM_8
  6
Continuous
 62
     7
370
     0
100
AcDbLine
 10
43.57680879448047
 20
60.19212357437888
 30
0.0
 11
48.17982455261077
 21
64.79513933250917
 31
0.0
  0
LINE
  5
A2
330
A
100
AcDbEntity
  8
PROFILATI-IN-ALLUMINIO
  6
Continuous
 62
     7
370
     0
100
AcDbLine
 10
43.57680879448047
 20
62.93372937574225
 30
0.0
 11
43.57680879448047
 21
57.93373048574224
 31
0.0
  0
LINE
  5
A3
330
A
100
AcDbEntity
  8
PROFILATI-IN-ALLUMINIO
  6
Continuous
 62
     7
370
     0
100
AcDbLine
 10
35.07681068148047
 20
62.93372937574225
 30
0.0
 11
35.07681068148047
 21
57.93373048574224
 31
0.0
  0
LINE
  5
A5
330
A
100
AcDbEntity
  8
PROFILATI-IN-ALLUMINIO
  6
Continuous
 62
     7
370
     0
100
AcDbLine
 10
-15.67317805201952
 20
113.6837181092422
 30
0.0
 11
-20.67317694201951
 21
113.6837181092422
 31
0.0
  0
LINE
  5
A6
330
A
100
AcDbEntity
  8
PROFILATI-IN-ALLUMINIO
  6
Continuous
 62
     7
370
     0
100
AcDbLine
 10
-15.67317805201952
 20
122.1837162222422
 30
0.0
 11
-20.67317694201951
 21
122.1837162222422
 31
0.0
  0
LINE
  5
A9
330
A
100
AcDbEntity
  8
PROFILATI-IN-ALLUMINIO
  6
Continuous
 62
     7
370
     0
100
AcDbLine
 10
-15.67317805201952
 20
82.18372510224222
 30
0.0
 11
-20.67317694201951
 21
82.18372510224222
 31
0.0
  0
LINE
  5
AA
330
A
100
AcDbEntity
  8
PROFILATI-IN-ALLUMINIO
  6
Continuous
 62
     7
370
     0
100
AcDbLine
 10
-15.67317812201951
 20
-4.23711505232697
 30
0.0
 11
-20.6731770120195
 21
-4.23711505232697
 31
0.0
  0
LINE
  5
AD
330
A
100
AcDbEntity
  8
PROFILATI-IN-ALLUMINIO
  6
Continuous
 62
     7
370
     0
100
AcDbLine
 10
-15.67317805201952
 20
4.262883390672939
 30
0.0
 11
-20.67317694201951
 21
4.262883390672939
 31
0.0
  0
LINE
  5
AE
330
A
100
AcDbEntity
  8
PROFILATI-IN-ALLUMINIO
  6
Continuous
 62
     7
370
     0
100
AcDbLine
 10
-15.67317805201952
 20
73.68372698924222
 30
0.0
 11
-20.67317694201951
 21
73.68372698924222
 31
0.0
  0
LINE
  5
B1
330
A
100
AcDbEntity
  8
PROFILATI-IN-ALLUMINIO
  6
Continuous
 62
     7
370
     0
100
AcDbLine
 10
3.57681767448048
 20
62.93372937574225
 30
0.0
 11
3.57681767448048
 21
57.93373048574224
 31
0.0
  0
LINE
  5
B2
330
A
100
AcDbEntity
  8
PROFILATI-IN-ALLUMINIO
  6
Continuous
 62
     7
370
     0
100
AcDbLine
 10
-4.923180438519537
 20
62.93372937574225
 30
0.0
 11
-4.923180438519537
 21
57.93373048574224
 31
0.0
  0
LINE
  5
B6
330
A
100
AcDbEntity
  8
AM_BOR
  6
Continuous
 62
     7
370
     0
100
AcDbLine
 10
55.4473898092109
 20
20.01287989417294
 30
0.0
 11
55.4473898092109
 21
-19.98711122582705
 31
0.0
  0
CIRCLE
  5
B7
330
A
100
AcDbEntity
  8
PROFILATI-IN-ALLUMINIO
  6
Continuous
 62
     7
370
     0
100
AcDbCircle
 10
39.32680973798047
 20
0.0128843341729379
 30
0.0
 40
6.749998501499999
  0
LINE
  5
BB
330
A
100
AcDbEntity
  8
AM_BOR
  6
Continuous
 62
     7
370
     0
100
AcDbLine
 10
46.99480631568483
 20
20.01287989417294
 30
0.0
 11
46.99480631568483
 21
-19.98711122582705
 31
0.0
  0
LINE
  5
BC
330
A
100
AcDbEntity
  8
AM_BOR
  6
Continuous
 62
     7
370
     0
100
AcDbLine
 10
-16.55259420678909
 20
20.01287989417294
 30
0.0
 11
-16.55259420678909
 21
-19.98711122582705
 31
0.0
  0
LINE
  5
BD
330
A
100
AcDbEntity
  8
PROFILATI-IN-ALLUMINIO
  6
Continuous
 62
     7
370
     0
100
AcDbLine
 10
-12.67317871801951
 20
20.01287989417294
 30
0.0
 11
-12.67317871801951
 21
-19.98711122582705
 31
0.0
  0
CIRCLE
  5
C0
330
A
100
AcDbEntity
  8
PROFILATI-IN-ALLUMINIO
  6
Continuous
 62
     7
370
     0
100
AcDbCircle
 10
39.32680973798047
 20
0.0128843341729379
 30
0.0
 40
4.2499990565
  0
CIRCLE
  5
C1
330
A
100
AcDbEntity
  8
PROFILATI-IN-ALLUMINIO
  6
Continuous
 62
     7
370
     0
100
AcDbCircle
 10
-0.6731813820195214
 20
0.0128843341729379
 30
0.0
 40
4.2499990565
  0
LINE
  5
C2
330
A
100
AcDbEntity
  8
AM_BOR
  6
Continuous
 62
     7
370
     0
100
AcDbLine
 10
23.68778298984517
 20
13.78510794673863
 30
0.0
 11
23.68778298984517
 21
-12.28962497466938
 31
0.0
  0
LINE
  5
C3
330
A
100
AcDbEntity
  8
PROFILATI-IN-ALLUMINIO
  6
Continuous
 62
     7
370
     0
100
AcDbLine
 10
21.18915897453984
 20
20.01287989417294
 30
0.0
 11
21.18915897453984
 21
-19.98711122582705
 31
0.0
  0
LINE
  5
2A9
330
A
100
AcDbEntity
  8
PROFILATI-IN-ALLUMINIO
  6
Continuous
 62
     7
370
     0
100
AcDbLine
 10
7.019094180294914
 20
-0.5160718683987398
 30
0.0
 11
3.273334291853799
 21
5.488968138482064
 31
0.0
  0
ARC
  5
2AA
330
A
100
AcDbEntity
  8
PROFILATI-IN-ALLUMINIO
  6
Continuous
 62
     7
370
     0
100
AcDbCircle
 10
-0.6731813873171007
 20
0.0128843375526202
 30
0.0
 40
6.749998503758621
100
AcDbArc
 50
54.22038176704134
 51
297.9121612133018
  0
LINE
  5
2AB
330
A
100
AcDbEntity
  8
PROFILATI-IN-ALLUMINIO
  6
Continuous
 62
     7
370
     0
100
AcDbLine
 10
2.486610266506559
 20
-5.951861801653123
 30
0.0
 11
7.019094180294914
 21
-0.516071868398754
 31
0.0
  0
LINE
  5
2AC
330
A
100
AcDbEntity
  8
PROFILATI-IN-ALLUMINIO
  6
Continuous
 62
     7
370
     0
100
AcDbLine
 10
7.019094180294914
 20
-0.516071868398754
 30
0.0
 11
7.019094180294914
 21
-0.5160718683987398
 31
0.0
  0
LINE
  5
2AD
330
A
100
AcDbEntity
  8
PROFILATI-IN-ALLUMINIO
  6
Continuous
 62
     7
370
     0
100
AcDbLine
 10
-20.67317701201952
 20
132.9336804457496
 30
0.0
 11
-21.67317774001931
 21
134.3668466375867
 31
0.0
  0
LINE
  5
2AE
330
A
100
AcDbEntity
  8
PROFILATI-IN-ALLUMINIO
  6
Continuous
 62
     7
370
     0
100
AcDbLine
 10
-21.67317774001931
 20
134.3668466375867
 30
0.0
 11
-21.67317774001931
 21
137.9337098557428
 31
0.0
  0
LINE
  5
2AF
330
A
100
AcDbEntity
  8
PROFILATI-IN-ALLUMINIO
  6
Continuous
 62
     7
370
     0
100
AcDbLine
 10
-21.67317774001931
 20
137.9337098557428
 30
0.0
 11
-19.67392395385373
 21
137.9337098557428
 31
0.0
  0
ARC
  5
2B0
330
A
100
AcDbEntity
  8
PROFILATI-IN-ALLUMINIO
  6
Continuous
 62
     7
370
     0
100
AcDbCircle
 10
-19.67392439268897
 20
134.9337109496299
 30
0.0
 40
2.99999890611301
100
AcDbArc
 50
359.9857121896301
 51
89.99999161886123
  0
LINE
  5
2B1
330
A
100
AcDbEntity
  8
PROFILATI-IN-ALLUMINIO
  6
Continuous
 62
     7
370
     0
100
AcDbLine
 10
-16.67392557985351
 20
134.9329628419088
 30
0.0
 11
-16.67402094983235
 21
134.5470910375724
 31
0.0
  0
ARC
  5
2B2
330
A
100
AcDbEntity
  8
PROFILATI-IN-ALLUMINIO
  6
Continuous
 62
     7
370
     0
100
AcDbCircle
 10
-6.674021759413108
 20
134.5445987027553
 30
0.0
 40
9.999999501005907
100
AcDbArc
 50
179.9857199725235
 51
226.1920805019859
  0
ARC
  5
2B3
330
A
100
AcDbEntity
  8
PROFILATI-IN-ALLUMINIO
  6
Continuous
 62
     7
370
     0
100
AcDbCircle
 10
-15.67317820317083
 20
125.162960763628
 30
0.0
 40
2.999998465151529
100
AcDbArc
 50
0.0
 51
46.19208677712058
  0
LINE
  5
2B4
330
A
100
AcDbEntity
  8
PROFILATI-IN-ALLUMINIO
  6
Continuous
 62
     7
370
     0
100
AcDbLine
 10
-12.6731797380193
 20
125.162960763628
 30
0.0
 11
-12.6731797380193
 21
99.1763560998773
 31
0.0
  0
ARC
  5
2B5
330
A
100
AcDbEntity
  8
PROFILATI-IN-ALLUMINIO
  6
Continuous
 62
     7
370
     0
100
AcDbCircle
 10
-9.673182195042045
 20
99.17636030513376
 30
0.0
 40
2.999997542980202
100
AcDbArc
 50
180.0000803145477
 51
225.0000037310994
  0
LINE
  5
2B6
330
A
100
AcDbEntity
  8
PROFILATI-IN-ALLUMINIO
  6
Continuous
 62
     7
370
     0
100
AcDbLine
 10
-11.7945006630861
 20
97.05504156080927
 30
0.0
 11
3.32681670998069
 21
81.93372228774288
 31
0.0
  0
LINE
  5
2B7
330
A
100
AcDbEntity
  8
PROFILATI-IN-ALLUMINIO
  6
Continuous
 62
     7
370
     0
100
AcDbLine
 10
3.32681670998069
 20
81.93372228774288
 30
0.0
 11
18.44813407304751
 21
66.81240301467653
 31
0.0
  0
ARC
  5
2B8
330
A
100
AcDbEntity
  8
PROFILATI-IN-ALLUMINIO
  6
Continuous
 62
     7
370
     0
100
AcDbCircle
 10
20.56945205638861
 20
68.93372613256293
 30
0.0
 40
3.000000292820917
100
AcDbArc
 50
225.0000693407166
 51
270.0000434631548
  0
LINE
  5
2B9
330
A
100
AcDbEntity
  8
PROFILATI-IN-ALLUMINIO
  6
Continuous
 62
     7
370
     0
100
AcDbLine
 10
20.5694543321143
 20
65.93372583974286
 30
0.0
 11
46.55605897308681
 21
65.93372583974286
 31
0.0
  0
ARC
  5
2BA
330
A
100
AcDbEntity
  8
PROFILATI-IN-ALLUMINIO
  6
Continuous
 62
     7
370
     0
100
AcDbCircle
 10
46.55605865529241
 20
62.93372655252793
 30
0.0
 40
2.99999928721495
100
AcDbArc
 50
43.80791991832642
 51
89.99999393057263
  0
ARC
  5
2BB
330
A
100
AcDbEntity
  8
PROFILATI-IN-ALLUMINIO
  6
Continuous
 62
     7
370
     0
100
AcDbCircle
 10
55.93769984649298
 20
71.93287516083083
 30
0.0
 40
9.999995601813754
100
AcDbArc
 50
223.8078721924923
 51
270.0142415216679
  0
LINE
  5
2BC
330
A
100
AcDbEntity
  8
PROFILATI-IN-ALLUMINIO
  6
Continuous
 62
     7
370
     0
100
AcDbLine
 10
55.94018545981024
 20
61.93287986793089
 30
0.0
 11
56.3260572641467
 21
61.9329790479089
 31
0.0
  0
ARC
  5
2BD
330
A
100
AcDbEntity
  8
PROFILATI-IN-ALLUMINIO
  6
Continuous
 62
     7
370
     0
100
AcDbCircle
 10
56.32680489198745
 20
58.93297975507351
 30
0.0
 40
2.999999385993302
100
AcDbArc
 50
0.0000000000008142
 51
90.01427864304416
  0
LINE
  5
2BE
330
A
100
AcDbEntity
  8
PROFILATI-IN-ALLUMINIO
  6
Continuous
 62
     7
370
     0
100
AcDbLine
 10
59.32680427798072
 20
58.93297975507355
 30
0.0
 11
59.32680427798067
 21
57.93372761574286
 31
0.0
  0
LINE
  5
2BF
330
A
100
AcDbEntity
  8
PROFILATI-IN-ALLUMINIO
  6
Continuous
 62
     7
370
     0
100
AcDbLine
 10
59.32680427798067
 20
57.93372761574286
 30
0.0
 11
59.32680045798156
 21
57.01160868045334
 31
0.0
  0
LINE
  5
2C0
330
A
100
AcDbEntity
  8
PROFILATI-IN-ALLUMINIO
  6
Continuous
 62
     7
370
     0
100
AcDbLine
 10
59.32680045798156
 20
57.01160868045334
 30
0.0
 11
55.7599448698237
 21
57.01160868045334
 31
0.0
  0
LINE
  5
2C1
330
A
100
AcDbEntity
  8
PROFILATI-IN-ALLUMINIO
  6
Continuous
 62
     7
370
     0
100
AcDbLine
 10
55.7599448698237
 20
57.01160868045334
 30
0.0
 11
54.43841959320235
 21
57.93372761574286
 31
0.0
  0
LINE
  5
2C2
330
A
100
AcDbEntity
  8
PROFILATI-IN-ALLUMINIO
  6
Continuous
 62
     7
370
     0
100
AcDbLine
 10
54.43841959320235
 20
57.93372761574286
 30
0.0
 11
-20.67317701201952
 21
57.93372761574286
 31
0.0
  0
LINE
  5
2C3
330
A
100
AcDbEntity
  8
PROFILATI-IN-ALLUMINIO
  6
Continuous
 62
     7
370
     0
100
AcDbLine
 10
-20.67317701201952
 20
57.93372761574286
 30
0.0
 11
-20.67317701201952
 21
132.9336804457496
 31
0.0
  0
LINE
  5
2C4
330
A
100
AcDbEntity
  8
PROFILATI-IN-ALLUMINIO
  6
Continuous
 62
     7
370
     0
100
AcDbLine
 10
-20.67317701201952
 20
132.9336804457496
 30
0.0
 11
-20.67317701201952
 21
132.9336804457496
 31
0.0
  0
LINE
  5
2C5
330
A
100
AcDbEntity
  8
PROFILATI-IN-ALLUMINIO
  6
Continuous
 62
     7
370
     0
100
AcDbLine
 10
59.32680427798067
 20
20.01287956417302
 30
0.0
 11
-20.67317701201952
 21
20.01287956417302
 31
0.0
  0
LINE
  5
2C6
330
A
100
AcDbEntity
  8
PROFILATI-IN-ALLUMINIO
  6
Continuous
 62
     7
370
     0
100
AcDbLine
 10
-20.67317701201952
 20
20.01287956417302
 30
0.0
 11
-20.67317701201952
 21
4.012883116173014
 31
0.0
  0
LINE
  5
2C7
330
A
100
AcDbEntity
  8
PROFILATI-IN-ALLUMINIO
  6
Continuous
 62
     7
370
     0
100
AcDbLine
 10
-20.67317701201952
 20
4.012883116173014
 30
0.0
 11
-21.67317869001909
 21
4.012879296173863
 31
0.0
  0
LINE
  5
2C8
330
A
100
AcDbEntity
  8
PROFILATI-IN-ALLUMINIO
  6
Continuous
 62
     7
370
     0
100
AcDbLine
 10
-21.67317869001909
 20
4.012879296173863
 30
0.0
 11
-21.67317869001909
 21
-3.98711510782698
 31
0.0
  0
LINE
  5
2C9
330
A
100
AcDbEntity
  8
PROFILATI-IN-ALLUMINIO
  6
Continuous
 62
     7
370
     0
100
AcDbLine
 10
-21.67317869001909
 20
-3.98711510782698
 30
0.0
 11
-20.67317891201909
 21
-3.98711510782698
 31
0.0
  0
LINE
  5
2CA
330
A
100
AcDbEntity
  8
PROFILATI-IN-ALLUMINIO
  6
Continuous
 62
     7
370
     0
100
AcDbLine
 10
-20.67317891201909
 20
-3.98711510782698
 30
0.0
 11
-20.67317701201952
 21
-19.98711155582697
 31
0.0
  0
LINE
  5
2CB
330
A
100
AcDbEntity
  8
PROFILATI-IN-ALLUMINIO
  6
Continuous
 62
     7
370
     0
100
AcDbLine
 10
-20.67317701201952
 20
-19.98711155582697
 30
0.0
 11
59.32680427798067
 21
-19.98711155582697
 31
0.0
  0
LINE
  5
2CC
330
A
100
AcDbEntity
  8
PROFILATI-IN-ALLUMINIO
  6
Continuous
 62
     7
370
     0
100
AcDbLine
 10
59.32680427798067
 20
-19.98711155582697
 30
0.0
 11
59.32678520798493
 21
-3.987118927826145
 31
0.0
  0
LINE
  5
2CD
330
A
100
AcDbEntity
  8
PROFILATI-IN-ALLUMINIO
  6
Continuous
 62
     7
370
     0
100
AcDbLine
 10
59.32678520798493
 20
-3.987118927826145
 30
0.0
 11
55.32678609598491
 21
-3.987118927826145
 31
0.0
  0
LINE
  5
2CE
330
A
100
AcDbEntity
  8
PROFILATI-IN-ALLUMINIO
  6
Continuous
 62
     7
370
     0
100
AcDbLine
 10
55.32678609598491
 20
-3.987118927826145
 30
0.0
 11
55.32678609598491
 21
4.012879296173863
 31
0.0
  0
LINE
  5
2CF
330
A
100
AcDbEntity
  8
PROFILATI-IN-ALLUMINIO
  6
Continuous
 62
     7
370
     0
100
AcDbLine
 10
55.32678609598491
 20
4.012879296173863
 30
0.0
 11
59.32678901798408
 21
4.012879296173863
 31
0.0
  0
LINE
  5
2D0
330
A
100
AcDbEntity
  8
PROFILATI-IN-ALLUMINIO
  6
Continuous
 62
     7
370
     0
100
AcDbLine
 10
59.32678901798408
 20
4.012879296173863
 30
0.0
 11
59.32678901798408
 21
3.69649218641183
 31
0.0
  0
LINE
  5
2D1
330
A
100
AcDbEntity
  8
PROFILATI-IN-ALLUMINIO
  6
Continuous
 62
     7
370
     0
100
AcDbLine
 10
59.32678901798408
 20
3.69649218641183
 30
0.0
 11
59.32678520798493
 21
-4.303506037588178
 31
0.0
  0
LINE
  5
2D2
330
A
100
AcDbEntity
  8
PROFILATI-IN-ALLUMINIO
  6
Continuous
 62
     7
370
     0
100
AcDbLine
 10
59.32678520798493
 20
-4.303506037588178
 30
0.0
 11
59.32680427798067
 21
20.01287956417302
 31
0.0
  0
LINE
  5
2D3
330
A
100
AcDbEntity
  8
PROFILATI-IN-ALLUMINIO
  6
Continuous
 62
     7
370
     0
100
AcDbLine
 10
59.32680427798067
 20
20.01287956417302
 30
0.0
 11
59.32680427798067
 21
20.01287956417302
 31
0.0
  0
LINE
  5
2D4
330
A
100
AcDbEntity
  8
PROFILATI-IN-ALLUMINIO
  6
Continuous
 62
     7
370
     0
100
AcDbLine
 10
55.32678609598491
 20
-3.987118927826145
 30
0.0
 11
54.43841577320319
 21
-3.987122737825274
 31
0.0
  0
LINE
  5
2D5
330
A
100
AcDbEntity
  8
PROFILATI-IN-ALLUMINIO
  6
Continuous
 62
     7
370
     0
100
AcDbLine
 10
54.43841577320319
 20
-3.987122737825274
 30
0.0
 11
54.438411963204
 21
4.012875486174721
 31
0.0
  0
LINE
  5
2D6
330
A
100
AcDbEntity
  8
PROFILATI-IN-ALLUMINIO
  6
Continuous
 62
     7
370
     0
100
AcDbLine
 10
54.438411963204
 20
4.012875486174721
 30
0.0
 11
55.32678609598491
 21
4.012879296173863
 31
0.0
  0
LINE
  5
2D7
330
A
100
AcDbEntity
  8
PROFILATI-IN-ALLUMINIO
  6
Continuous
 62
     7
370
     0
100
AcDbLine
 10
-7.423179883519523
 20
92.68372277124219
 30
0.0
 11
-7.423179883519523
 21
84.68372454724221
 31
0.0
  0
LINE
  5
2D8
330
A
100
AcDbEntity
  8
PROFILATI-IN-ALLUMINIO
  6
Continuous
 62
     7
370
     0
100
AcDbLine
 10
-7.423179883519523
 20
84.68372454724221
 30
0.0
 11
-15.67317805201952
 21
84.68372454724221
 31
0.0
  0
LINE
  5
2D9
330
A
100
AcDbEntity
  8
PROFILATI-IN-ALLUMINIO
  6
Continuous
 62
     7
370
     0
100
AcDbLine
 10
-15.67317805201952
 20
84.68372454724221
 30
0.0
 11
-15.67317805201952
 21
71.18372754424223
 31
0.0
  0
LINE
  5
2DA
330
A
100
AcDbEntity
  8
PROFILATI-IN-ALLUMINIO
  6
Continuous
 62
     7
370
     0
100
AcDbLine
 10
-15.67317805201952
 20
71.18372754424223
 30
0.0
 11
-7.423179883519523
 21
71.18372754424223
 31
0.0
  0
LINE
  5
2DB
330
A
100
AcDbEntity
  8
PROFILATI-IN-ALLUMINIO
  6
Continuous
 62
     7
370
     0
100
AcDbLine
 10
-7.423179883519523
 20
71.18372754424223
 30
0.0
 11
-7.423179883519523
 21
62.93372937574225
 31
0.0
  0
LINE
  5
2DC
330
A
100
AcDbEntity
  8
PROFILATI-IN-ALLUMINIO
  6
Continuous
 62
     7
370
     0
100
AcDbLine
 10
-7.423179883519523
 20
62.93372937574225
 30
0.0
 11
6.07681711948048
 21
62.93372937574225
 31
0.0
  0
LINE
  5
2DD
330
A
100
AcDbEntity
  8
PROFILATI-IN-ALLUMINIO
  6
Continuous
 62
     7
370
     0
100
AcDbLine
 10
6.07681711948048
 20
62.93372937574225
 30
0.0
 11
6.07681711948048
 21
71.18372754424223
 31
0.0
  0
LINE
  5
2DE
330
A
100
AcDbEntity
  8
PROFILATI-IN-ALLUMINIO
  6
Continuous
 62
     7
370
     0
100
AcDbLine
 10
6.07681711948048
 20
71.18372754424223
 30
0.0
 11
14.07681534348046
 21
71.18372754424223
 31
0.0
  0
LINE
  5
2DF
330
A
100
AcDbEntity
  8
PROFILATI-IN-ALLUMINIO
  6
HIDDEN2
 62
     7
370
     0
100
AcDbLine
 10
-15.67317812201951
 20
0.3852441515090561
 30
0.0
 11
-15.67317812201951
 21
6.762882505673019
 31
0.0
  0
LINE
  5
2E0
330
A
100
AcDbEntity
  8
PROFILATI-IN-ALLUMINIO
  6
HIDDEN2
 62
     7
370
     0
100
AcDbLine
 10
-15.67317812201951
 20
6.762882505673019
 30
0.0
 11
-0.6731824020193074
 21
6.762882505673019
 31
0.0
  0
LINE
  5
2E1
330
A
100
AcDbEntity
  8
PROFILATI-IN-ALLUMINIO
  6
HIDDEN2
 62
     7
370
     0
100
AcDbLine
 10
-15.67317812201951
 20
0.3852441515090561
 30
0.0
 11
-15.67317812201951
 21
-6.737114497326984
 31
0.0
  0
LINE
  5
2E2
330
A
100
AcDbEntity
  8
PROFILATI-IN-ALLUMINIO
  6
HIDDEN2
 62
     7
370
     0
100
AcDbLine
 10
-15.67317812201951
 20
-6.737114497326984
 30
0.0
 11
-0.6731824020193074
 21
-6.737114497326984
 31
0.0
  0
LINE
  5
2E3
330
A
100
AcDbEntity
  8
PROFILATI-IN-ALLUMINIO
  6
Continuous
 62
     7
370
     0
100
AcDbLine
 10
-12.67317871801951
 20
124.6837156672422
 30
0.0
 11
-15.67317805201952
 21
124.6837156672422
 31
0.0
  0
LINE
  5
2E4
330
A
100
AcDbEntity
  8
PROFILATI-IN-ALLUMINIO
  6
Continuous
 62
     7
370
     0
100
AcDbLine
 10
-15.67317805201952
 20
124.6837156672422
 30
0.0
 11
-15.67317805201952
 21
111.1837186642422
 31
0.0
  0
LINE
  5
2E5
330
A
100
AcDbEntity
  8
PROFILATI-IN-ALLUMINIO
  6
Continuous
 62
     7
370
     0
100
AcDbLine
 10
-15.67317805201952
 20
111.1837186642422
 30
0.0
 11
-12.67317871801951
 21
111.1837186642422
 31
0.0
  0
LINE
  5
2E6
330
A
100
AcDbEntity
  8
PROFILATI-IN-ALLUMINIO
  6
Continuous
 62
     7
370
     0
100
AcDbLine
 10
32.57681123648047
 20
65.93372870974224
 30
0.0
 11
32.57681123648047
 21
62.93372937574225
 31
0.0
  0
LINE
  5
2E7
330
A
100
AcDbEntity
  8
PROFILATI-IN-ALLUMINIO
  6
Continuous
 62
     7
370
     0
100
AcDbLine
 10
32.57681123648047
 20
62.93372937574225
 30
0.0
 11
46.07680823948046
 21
62.93372937574225
 31
0.0
  0
LINE
  5
2E8
330
A
100
AcDbEntity
  8
PROFILATI-IN-ALLUMINIO
  6
Continuous
 62
     7
370
     0
100
AcDbLine
 10
46.07680823948046
 20
62.93372937574225
 30
0.0
 11
46.07680823948046
 21
65.93372870974224
 31
0.0
  0
LINE
  5
2E9
330
A
100
AcDbEntity
  8
PROFILATI-IN-ALLUMINIO
  6
Continuous
 62
     7
370
     0
100
AcDbLine
 10
-17.67317957801909
 20
4.012883116173014
 30
0.0
 11
-17.67317957801909
 21
-3.987111297827823
 31
0.0
  0
LINE
  5
2EA
330
A
100
AcDbEntity
  8
PROFILATI-IN-ALLUMINIO
  6
Continuous
 62
     7
370
     0
100
AcDbLine
 10
-17.67317957801909
 20
-3.987111297827823
 30
0.0
 11
-16.6731798000191
 21
-3.987111297827823
 31
0.0
  0
LINE
  5
2EB
330
A
100
AcDbEntity
  8
PROFILATI-IN-ALLUMINIO
  6
Continuous
 62
     7
370
     0
100
AcDbLine
 10
-16.6731798000191
 20
-3.987111297827823
 30
0.0
 11
-16.6731798000191
 21
4.012886926172171
 31
0.0
  0
LINE
  5
2EC
330
A
100
AcDbEntity
  8
PROFILATI-IN-ALLUMINIO
  6
Continuous
 62
     7
370
     0
100
AcDbLine
 10
-16.6731798000191
 20
4.012886926172171
 30
0.0
 11
-17.67317957801909
 21
4.012883116173014
 31
0.0
  0
LINE
  5
2ED
330
A
100
AcDbEntity
  8
PROFILATI-IN-ALLUMINIO
  6
Continuous
 62
     7
370
     0
100
AcDbLine
 10
-17.67317957801909
 20
4.012883116173014
 30
0.0
 11
-17.67317957801909
 21
4.012883116173014
 31
0.0
  0
LINE
  5
2EE
330
A
100
AcDbEntity
  8
PROFILATI-IN-ALLUMINIO
  6
Continuous
 62
     7
370
     0
100
AcDbLine
 10
-20.67317701201952
 20
4.012883116173014
 30
0.0
 11
-16.6731798000191
 21
4.012886926172171
 31
0.0
  0
LINE
  5
2EF
330
A
100
AcDbEntity
  8
PROFILATI-IN-ALLUMINIO
  6
Continuous
 62
     7
370
     0
100
AcDbLine
 10
-16.6731798000191
 20
4.012886926172171
 30
0.0
 11
-16.6731798000191
 21
-3.987111297827823
 31
0.0
  0
LINE
  5
2F0
330
A
100
AcDbEntity
  8
PROFILATI-IN-ALLUMINIO
  6
Continuous
 62
     7
370
     0
100
AcDbLine
 10
-16.6731798000191
 20
-3.987111297827823
 30
0.0
 11
-20.67317701201952
 21
-3.98711510782698
 31
0.0
  0
ENDSEC
  0
SECTION
  2
OBJECTS
  0
DICTIONARY
  5
19
330
0
100
AcDbDictionary
281
     1
  3
ACAD_COLOR
350
1C1
  3
ACAD_GROUP
350
1A
  3
ACAD_LAYOUT
350
1E
  3
ACAD_MATERIAL
350
194
  3
ACAD_MLEADERSTYLE
350
1F5
  3
ACAD_MLINESTYLE
350
1B
  3
ACAD_PLOTSETTINGS
350
22
  3
ACAD_PLOTSTYLENAME
350
1F
  3
ACAD_SCALELIST
350
1C2
  3
ACAD_TABLESTYLE
350
1EF
  3
ACAD_VISUALSTYLE
350
1AD
  3
ACAD_WIPEOUT_VARS
350
23
  3
ACDB_RECOMPOSE_DATA
350
2F5
  3
AcDbVariableDictionary
350
192
  3
AEC_PROPERTY_SET_DEFS
350
225
  3
ASE_INDEX_DICTIONARY
350
24C
  3
DWGPROPS
350
2F6
  3
qs_topprt_diz
350
1FD
  3
QSCATDICT
350
1FA
  3
QsPallStyleDict
350
1FC
  3
QsTop499
350
248
  3
TopSpotLight
350
204
  0
DICTIONARY
  5
255
330
7
100
AcDbDictionary
280
     1
281
     1
  0
DICTIONARY
  5
226
330
14
100
AcDbDictionary
280
     1
281
     1
  3
ADSK_XREC_LAYER_RECONCILED
360
227
  0
DICTIONARY
  5
228
330
2D
100
AcDbDictionary
280
     1
281
     1
  3
ADSK_XREC_LAYER_RECONCILED
360
229
  0
DICTIONARY
  5
22A
330
2F
100
AcDbDictionary
280
     1
281
     1
  3
ADSK_XREC_LAYER_RECONCILED
360
22B
  0
DICTIONARY
  5
22C
330
31
100
AcDbDictionary
280
     1
281
     1
  3
ADSK_XREC_LAYER_RECONCILED
360
22D
  0
DICTIONARY
  5
22E
330
33
100
AcDbDictionary
280
     1
281
     1
  3
ADSK_XREC_LAYER_RECONCILED
360
22F
  0
DICTIONARY
  5
230
330
35
100
AcDbDictionary
280
     1
281
     1
  3
ADSK_XREC_LAYER_RECONCILED
360
231
  0
DICTIONARY
  5
232
330
37
100
AcDbDictionary
280
     1
281
     1
  3
ADSK_XREC_LAYER_RECONCILED
360
233
  0
DICTIONARY
  5
234
330
39
100
AcDbDictionary
280
     1
281
     1
  3
ADSK_XREC_LAYER_RECONCILED
360
235
  0
DICTIONARY
  5
236
330
3B
100
AcDbDictionary
280
     1
281
     1
  3
ADSK_XREC_LAYER_RECONCILED
360
237
  0
DICTIONARY
  5
238
330
3D
100
AcDbDictionary
280
     1
281
     1
  3
ADSK_XREC_LAYER_RECONCILED
360
239
  0
DICTIONARY
  5
23A
330
3F
100
AcDbDictionary
280
     1
281
     1
  3
ADSK_XREC_LAYER_RECONCILED
360
23B
  0
DICTIONARY
  5
23C
330
41
100
AcDbDictionary
280
     1
281
     1
  3
ADSK_XREC_LAYER_RECONCILED
360
23D
  0
DICTIONARY
  5
23E
330
45
100
AcDbDictionary
280
     1
281
     1
  3
ADSK_XREC_LAYER_RECONCILED
360
23F
  0
DICTIONARY
  5
240
330
47
100
AcDbDictionary
280
     1
281
     1
  3
ADSK_XREC_LAYER_RECONCILED
360
241
  0
DICTIONARY
  5
242
330
49
100
AcDbDictionary
280
     1
281
     1
  3
ADSK_XREC_LAYER_RECONCILED
360
243
  0
DICTIONARY
  5
244
330
4B
100
AcDbDictionary
280
     1
281
     1
  3
ADSK_XREC_LAYER_RECONCILED
360
245
  0
DICTIONARY
  5
246
330
1FF
100
AcDbDictionary
280
     1
281
     1
  3
ADSK_XREC_LAYER_RECONCILED
360
247
  0
DICTIONARY
  5
1C1
102
{ACAD_REACTORS
330
19
102
}
330
19
100
AcDbDictionary
281
     1
  0
DICTIONARY
  5
1A
102
{ACAD_REACTORS
330
19
102
}
330
19
100
AcDbDictionary
281
     1
  0
DICTIONARY
  5
1E
102
{ACAD_REACTORS
330
19
102
}
330
19
100
AcDbDictionary
281
     1
  3
Layout1
350
21
  3
Model
350
20
  0
DICTIONARY
  5
194
102
{ACAD_REACTORS
330
19
102
}
330
19
100
AcDbDictionary
281
     1
  3
ByBlock
350
19D
  3
ByLayer
350
195
  3
Global
350
1A5
  0
DICTIONARY
  5
1F5
102
{ACAD_REACTORS
330
19
102
}
330
19
100
AcDbDictionary
281
     1
  3
Standard
350
1F6
  0
DICTIONARY
  5
1B
102
{ACAD_REACTORS
330
19
102
}
330
19
100
AcDbDictionary
281
     1
  3
Standard
350
1C
  0
DICTIONARY
  5
22
102
{ACAD_REACTORS
330
19
102
}
330
19
100
AcDbDictionary
281
     1
  3
Kyocera_1010 OR
350
219
  3
Kyocera_1010 VER
350
21A
  3
Olivetti_200 A3
350
21B
  3
Olivetti_200 A4
350
21C
  3
PLOTTER
350
21D
  0
ACDBDICTIONARYWDFLT
  5
1F
102
{ACAD_REACTORS
330
19
102
}
330
19
100
AcDbDictionary
281
     1
  3
Normal
350
1D
100
AcDbDictionaryWithDefault
340
1D
  0
DICTIONARY
  5
1C2
102
{ACAD_REACTORS
330
19
102
}
330
19
100
AcDbDictionary
281
     1
  3
A0
350
1C3
  3
A1
350
1C4
  3
A2
350
1C5
  3
A3
350
1C6
  3
A4
350
1C7
  3
A5
350
1C8
  3
A6
350
1C9
  3
A7
350
1CA
  3
A8
350
1CB
  3
A9
350
1CC
  3
B0
350
1CD
  3
B1
350
1CE
  3
B2
350
1CF
  3
B3
350
1D0
  3
B4
350
1D1
  3
B5
350
1D2
  3
B6
350
1D3
  3
B7
350
1D4
  3
B8
350
1D5
  3
B9
350
1D6
  3
C0
350
1D7
  3
C1
350
1D8
  3
C2
350
1D9
  3
C3
350
1DA
  3
C4
350
1DB
  3
C5
350
1DC
  3
C6
350
1DD
  3
C7
350
1DE
  3
C8
350
1DF
  3
C9
350
1E0
  3
D0
350
1E1
  3
D1
350
1E2
  3
D2
350
1E3
  0
DICTIONARY
  5
1EF
102
{ACAD_REACTORS
330
19
102
}
330
19
100
AcDbDictionary
281
     1
  3
QSTABFORI
350
21E
  3
QSTABREGION
350
220
  3
Standard
350
1F0
  0
DICTIONARY
  5
1AD
102
{ACAD_REACTORS
330
19
102
}
330
19
100
AcDbDictionary
281
     1
  3
2dWireframe
350
1B3
  3
3D Hidden
350
1B5
  3
3dWireframe
350
1B4
  3
Basic
350
1B2
  3
Brighten
350
1B9
  3
ColorChange
350
1BD
  3
Conceptual
350
1B6
  3
Dim
350
1B8
  3
EdgeColorOff
350
1C0
  3
Facepattern
350
1BC
  3
Flat
350
1AE
  3
FlatWithEdges
350
1AF
  3
Gouraud
350
1B0
  3
GouraudWithEdges
350
1B1
  3
Hidden
350
29A
  3
JitterOff
350
1BE
  3
Linepattern
350
1BB
  3
OverhangOff
350
1BF
  3
Realistic
350
1B7
  3
Shaded
350
29F
  3
Shaded with edges
350
29E
  3
Shades of Gray
350
29B
  3
Sketchy
350
29C
  3
Thicken
350
1BA
  3
Wireframe
350
299
  3
X-Ray
350
29D
  0
WIPEOUTVARIABLES
  5
23
330
19
100
AcDbWipeoutVariables
 70
     1
  0
XRECORD
  5
2F5
102
{ACAD_REACTORS
330
19
102
}
330
19
100
AcDbXrecord
280
     1
 90
        1
330
1F0
330
21E
330
220
  0
DICTIONARY
  5
192
330
19
100
AcDbDictionary
281
     0
  3
CANNOSCALE
350
294
  3
CMLEADERSTYLE
350
292
  3
CTABLESTYLE
350
291
  3
DIMASSOC
350
193
  3
DRAWORDERCTL
350
293
  3
INDEXCTL
350
296
  3
SORTENTS
350
295
  3
XCLIPFRAME
350
2F1
  0
DICTIONARY
  5
225
102
{ACAD_REACTORS
330
19
102
}
330
19
100
AcDbDictionary
281
     1
  0
DICTIONARY
  5
24C
102
{ACAD_REACTORS
330
19
102
}
330
19
100
AcDbDictionary
281
     1
  3
ASEBlockHierarchyIndexRecord
350
24E
1001
DCO15
1040
1707123961.395
  0
XRECORD
  5
2F6
102
{ACAD_REACTORS
330
19
102
}
330
19
100
AcDbXrecord
280
     1
  1
DWGPROPS COOKIE
  2

  3

  4

  6

  7

  8
mpistoia
  9

300
=
301
=
302
=
303
=
304
=
305
=
306
=
307
=
308
=
309
=
 40
0.0006914236111111
 41
2455561.590920255
 42
2455637.659329942
  1

 90
        0
  0
DICTIONARY
  5
1FD
102
{ACAD_REACTORS
330
19
102
}
330
19
100
AcDbDictionary
281
     1
  3
UCNT
350
1FE
  0
DICTIONARY
  5
1FA
102
{ACAD_REACTORS
330
19
102
}
330
19
100
AcDbDictionary
281
     1
  3
DEFAULT
350
1FB
  0
DICTIONARY
  5
1FC
102
{ACAD_REACTORS
330
19
102
}
330
19
100
AcDbDictionary
281
     1
  0
DICTIONARY
  5
248
102
{ACAD_REACTORS
330
19
102
}
330
19
100
AcDbDictionary
281
     1
  3
TOP
350
24A
  3
X485b
350
249
  0
DICTIONARY
  5
204
102
{ACAD_REACTORS
330
19
102
}
330
19
100
AcDbDictionary
281
     1
  3
colors
350
205
  0
XRECORD
  5
227
102
{ACAD_REACTORS
330
226
102
}
330
226
100
AcDbXrecord
280
     1
290
     1
  0
XRECORD
  5
229
102
{ACAD_REACTORS
330
228
102
}
330
228
100
AcDbXrecord
280
     1
290
     1
  0
XRECORD
  5
22B
102
{ACAD_REACTORS
330
22A
102
}
330
22A
100
AcDbXrecord
280
     1
290
     1
  0
XRECORD
  5
22D
102
{ACAD_REACTORS
330
22C
102
}
330
22C
100
AcDbXrecord
280
     1
290
     1
  0
XRECORD
  5
22F
102
{ACAD_REACTORS
330
22E
102
}
330
22E
100
AcDbXrecord
280
     1
290
     1
  0
XRECORD
  5
231
102
{ACAD_REACTORS
330
230
102
}
330
230
100
AcDbXrecord
280
     1
290
     1
  0
XRECORD
  5
233
102
{ACAD_REACTORS
330
232
102
}
330
232
100
AcDbXrecord
280
     1
290
     1
  0
XRECORD
  5
235
102
{ACAD_REACTORS
330
234
102
}
330
234
100
AcDbXrecord
280
     1
290
     1
  0
XRECORD
  5
237
102
{ACAD_REACTORS
330
236
102
}
330
236
100
AcDbXrecord
280
     1
290
     1
  0
XRECORD
  5
239
102
{ACAD_REACTORS
330
238
102
}
330
238
100
AcDbXrecord
280
     1
290
     1
  0
XRECORD
  5
23B
102
{ACAD_REACTORS
330
23A
102
}
330
23A
100
AcDbXrecord
280
     1
290
     1
  0
XRECORD
  5
23D
102
{ACAD_REACTORS
330
23C
102
}
330
23C
100
AcDbXrecord
280
     1
290
     1
  0
XRECORD
  5
23F
102
{ACAD_REACTORS
330
23E
102
}
330
23E
100
AcDbXrecord
280
     1
290
     1
  0
XRECORD
  5
241
102
{ACAD_REACTORS
330
240
102
}
330
240
100
AcDbXrecord
280
     1
290
     1
  0
XRECORD
  5
243
102
{ACAD_REACTORS
330
242
102
}
330
242
100
AcDbXrecord
280
     1
290
     1
  0
XRECORD
  5
245
102
{ACAD_REACTORS
330
244
102
}
330
244
100
AcDbXrecord
280
     1
290
     1
  0
XRECORD
  5
247
102
{ACAD_REACTORS
330
246
102
}
330
246
100
AcDbXrecord
280
     1
290
     1
  0
LAYOUT
  5
21
102
{ACAD_XDICTIONARY
360
2F9
102
}
102
{ACAD_REACTORS
330
1E
102
}
330
1E
100
AcDbPlotSettings
  1

  2

  4

  6

 40
0.0
 41
0.0
 42
0.0
 43
0.0
 44
0.0
 45
0.0
 46
0.0
 47
0.0
 48
0.0
 49
0.0
140
0.0
141
0.0
142
1.0
143
1.0
 70
     0
 72
     0
 73
     0
 74
     0
  7

 75
     0
147
1.0
148
0.0
149
0.0
100
AcDbLayout
  1
Layout1
 70
     0
 71
     1
 10
0.0
 20
0.0
 11
12.0
 21
9.0
 12
0.0
 22
0.0
 32
0.0
 14
1.000000000000000E+20
 24
1.000000000000000E+20
 34
1.000000000000000E+20
 15
-1.000000000000000E+20
 25
-1.000000000000000E+20
 35
-1.000000000000000E+20
146
0.0
 13
0.0
 23
0.0
 33
0.0
 16
1.0
 26
0.0
 36
0.0
 17
0.0
 27
1.0
 37
0.0
 76
     0
330
B
  0
LAYOUT
  5
20
102
{ACAD_XDICTIONARY
360
2F7
102
}
102
{ACAD_REACTORS
330
1E
102
}
330
1E
100
AcDbPlotSettings
  1

  2

  4

  6

 40
0.0
 41
0.0
 42
0.0
 43
0.0
 44
0.0
 45
0.0
 46
0.0
 47
0.0
 48
0.0
 49
0.0
140
0.0
141
0.0
142
1.0
143
1.0
 70
  1024
 72
     0
 73
     0
 74
     0
  7

 75
     0
147
1.0
148
0.0
149
0.0
100
AcDbLayout
  1
Model
 70
     0
 71
     0
 10
0.0
 20
0.0
 11
0.0
 21
0.0
 12
0.0
 22
0.0
 32
0.0
 14
0.0
 24
0.0
 34
0.0
 15
0.0
 25
0.0
 35
0.0
146
0.0
 13
0.0
 23
0.0
 33
0.0
 16
0.0
 26
0.0
 36
0.0
 17
0.0
 27
0.0
 37
0.0
 76
     0
330
A
331
15
  0
MATERIAL
  5
19D
102
{ACAD_XDICTIONARY
360
19E
102
}
102
{ACAD_REACTORS
330
194
102
}
330
194
100
AcDbMaterial
  1
ByBlock
 72
     0
 43
0.0208333333333333
 43
0.0
 43
0.0
 43
0.0
 43
0.0
 43
0.0208333333333333
 43
0.0
 43
0.0
 43
0.0
 43
0.0
 43
1.0
 43
0.0
 43
0.0
 43
0.0
 43
0.0
 43
1.0
 77
     0
 47
0.0208333333333333
 47
0.0
 47
0.0
 47
0.0
 47
0.0
 47
0.0208333333333333
 47
0.0
 47
0.0
 47
0.0
 47
0.0
 47
1.0
 47
0.0
 47
0.0
 47
0.0
 47
0.0
 47
1.0
171
     0
 49
0.0208333333333333
 49
0.0
 49
0.0
 49
0.0
 49
0.0
 49
0.0208333333333333
 49
0.0
 49
0.0
 49
0.0
 49
0.0
 49
1.0
 49
0.0
 49
0.0
 49
0.0
 49
0.0
 49
1.0
175
     0
142
0.0208333333333333
142
0.0
142
0.0
142
0.0
142
0.0
142
0.0208333333333333
142
0.0
142
0.0
142
0.0
142
0.0
142
1.0
142
0.0
142
0.0
142
0.0
142
0.0
142
1.0
179
     0
144
0.0208333333333333
144
0.0
144
0.0
144
0.0
144
0.0
144
0.0208333333333333
144
0.0
144
0.0
144
0.0
144
0.0
144
1.0
144
0.0
144
0.0
144
0.0
144
0.0
144
1.0
147
0.0208333333333333
147
0.0
147
0.0
147
0.0
147
0.0
147
0.0208333333333333
147
0.0
147
0.0
147
0.0
147
0.0
147
1.0
147
0.0
147
0.0
147
0.0
147
0.0
147
1.0
  0
MATERIAL
  5
195
102
{ACAD_XDICTIONARY
360
196
102
}
102
{ACAD_REACTORS
330
194
102
}
330
194
100
AcDbMaterial
  1
ByLayer
 72
     0
 43
0.0208333333333333
 43
0.0
 43
0.0
 43
0.0
 43
0.0
 43
0.0208333333333333
 43
0.0
 43
0.0
 43
0.0
 43
0.0
 43
1.0
 43
0.0
 43
0.0
 43
0.0
 43
0.0
 43
1.0
 77
     0
 47
0.0208333333333333
 47
0.0
 47
0.0
 47
0.0
 47
0.0
 47
0.0208333333333333
 47
0.0
 47
0.0
 47
0.0
 47
0.0
 47
1.0
 47
0.0
 47
0.0
 47
0.0
 47
0.0
 47
1.0
171
     0
 49
0.0208333333333333
 49
0.0
 49
0.0
 49
0.0
 49
0.0
 49
0.0208333333333333
 49
0.0
 49
0.0
 49
0.0
 49
0.0
 49
1.0
 49
0.0
 49
0.0
 49
0.0
 49
0.0
 49
1.0
175
     0
142
0.0208333333333333
142
0.0
142
0.0
142
0.0
142
0.0
142
0.0208333333333333
142
0.0
142
0.0
142
0.0
142
0.0
142
1.0
142
0.0
142
0.0
142
0.0
142
0.0
142
1.0
179
     0
144
0.0208333333333333
144
0.0
144
0.0
144
0.0
144
0.0
144
0.0208333333333333
144
0.0
144
0.0
144
0.0
144
0.0
144
1.0
144
0.0
144
0.0
144
0.0
144
0.0
144
1.0
147
0.0208333333333333
147
0.0
147
0.0
147
0.0
147
0.0
147
0.0208333333333333
147
0.0
147
0.0
147
0.0
147
0.0
147
1.0
147
0.0
147
0.0
147
0.0
147
0.0
147
1.0
  0
MATERIAL
  5
1A5
102
{ACAD_XDICTIONARY
360
1A6
102
}
102
{ACAD_REACTORS
330
194
102
}
330
194
100
AcDbMaterial
  1
Global
 72
     0
 43
0.0208333333333333
 43
0.0
 43
0.0
 43
0.0
 43
0.0
 43
0.0208333333333333
 43
0.0
 43
0.0
 43
0.0
 43
0.0
 43
1.0
 43
0.0
 43
0.0
 43
0.0
 43
0.0
 43
1.0
 77
     0
 47
0.0208333333333333
 47
0.0
 47
0.0
 47
0.0
 47
0.0
 47
0.0208333333333333
 47
0.0
 47
0.0
 47
0.0
 47
0.0
 47
1.0
 47
0.0
 47
0.0
 47
0.0
 47
0.0
 47
1.0
171
     0
 49
0.0208333333333333
 49
0.0
 49
0.0
 49
0.0
 49
0.0
 49
0.0208333333333333
 49
0.0
 49
0.0
 49
0.0
 49
0.0
 49
1.0
 49
0.0
 49
0.0
 49
0.0
 49
0.0
 49
1.0
175
     0
142
0.0208333333333333
142
0.0
142
0.0
142
0.0
142
0.0
142
0.0208333333333333
142
0.0
142
0.0
142
0.0
142
0.0
142
1.0
142
0.0
142
0.0
142
0.0
142
0.0
142
1.0
179
     0
144
0.0208333333333333
144
0.0
144
0.0
144
0.0
144
0.0
144
0.0208333333333333
144
0.0
144
0.0
144
0.0
144
0.0
144
1.0
144
0.0
144
0.0
144
0.0
144
0.0
144
1.0
147
0.0208333333333333
147
0.0
147
0.0
147
0.0
147
0.0
147
0.0208333333333333
147
0.0
147
0.0
147
0.0
147
0.0
147
1.0
147
0.0
147
0.0
147
0.0
147
0.0
147
1.0
  0
MLEADERSTYLE
  5
1F6
102
{ACAD_REACTORS
330
1F5
102
}
330
1F5
100
AcDbMLeaderStyle
170
     2
171
     1
172
     0
 90
        2
 40
0.0
 41
0.0
173
     1
 91
-1056964608
340
11
 92
       -2
290
     1
 42
0.09
291
     1
 43
0.36
  3
Standard
 44
0.18
300

342
17
174
     1
178
     6
175
     1
176
     0
 93
-1056964608
 45
0.18
292
     0
297
     0
 46
0.18
 94
-1056964608
 47
1.0
 49
1.0
140
1.0
293
     1
141
0.0
294
     1
177
     0
142
1.0
295
     0
296
     0
143
0.125
1001
ACAD_MLEADERVER
1070
     2
  0
MLINESTYLE
  5
1C
102
{ACAD_REACTORS
330
1B
102
}
330
1B
100
AcDbMlineStyle
  2
STANDARD
 70
     0
  3

 62
     0
 51
90.0
 52
90.0
 71
     2
 49
0.5
 62
   256
  6
BYLAYER
 49
-0.5
 62
   256
  6
BYLAYER
  0
PLOTSETTINGS
  5
219
102
{ACAD_XDICTIONARY
360
325
102
}
102
{ACAD_REACTORS
330
22
102
}
330
22
100
AcDbPlotSettings
  1
Kyocera_1010 OR
  2
Kyocera_1010.pc3
  4
A4
  6

 40
4.984749794006347
 41
5.154074668884277
 42
5.111740112304687
 43
4.9847412109375
 44
210.0156707763672
 45
297.0106506347656
 46
0.0
 47
109.7870247470818
 48
0.0
 49
0.0
140
0.0
141
0.0
142
1.0
143
0.6770771918566143
 70
 11956
 72
     1
 73
     1
 74
     1
  7
DIERRE BN.ctb
 75
     0
147
1.476936473458659
148
-222.4649060220283
149
-239.0808115236937
1001
ACAD_PSEXT
1000
Kyocera_1010.pc3
1000
Kyocera Mita FS-1010 KX
1000
\\PC5
1000

1070
     0
  0
PLOTSETTINGS
  5
21A
102
{ACAD_XDICTIONARY
360
327
102
}
102
{ACAD_REACTORS
330
22
102
}
330
22
100
AcDbPlotSettings
  1
Kyocera_1010 VER
  2
Kyocera_1010.pc3
  4
A4
  6

 40
4.984749794006347
 41
5.154074668884277
 42
5.111740112304687
 43
4.9847412109375
 44
210.0156707763672
 45
297.0106506347656
 46
51.67548120477697
 47
0.0
 48
0.0
 49
0.0
140
0.0
141
0.0
142
1.0
143
0.4718508448115938
 70
 11956
 72
     1
 73
     0
 74
     1
  7
DIERRE BN.ctb
 75
     0
147
2.119313785268927
148
-222.4649060220283
149
-239.0808115236937
1001
ACAD_PSEXT
1000
Kyocera_1010.pc3
1000
Kyocera Mita FS-1010 KX
1000
\\PC5
1000

1070
     0
  0
PLOTSETTINGS
  5
21B
102
{ACAD_XDICTIONARY
360
329
102
}
102
{ACAD_REACTORS
330
22
102
}
330
22
100
AcDbPlotSettings
  1
Olivetti_200 A3
  2
Olivetti_200.pc3
  4
A3
  6

 40
4.984749794006347
 41
5.111746788024902
 42
5.154083251953125
 43
4.9847412109375
 44
297.0106506347656
 45
419.9889831542968
 46
0.0
 47
156.6621412366913
 48
0.0
 49
0.0
140
0.0
141
0.0
142
1.0
143
0.4718508730467012
 70
 11956
 72
     1
 73
     1
 74
     1
  7
DIERRE BN.ctb
 75
     0
147
2.119313658451206
148
-222.4649060220283
149
-239.0808115236937
1001
ACAD_PSEXT
1000
Olivetti_200.pc3
1000
Olivetti d-Copia 200MF KX
1000
IP_192.168.1.151
1000

1070
     0
  0
PLOTSETTINGS
  5
21C
102
{ACAD_XDICTIONARY
360
32B
102
}
102
{ACAD_REACTORS
330
22
102
}
330
22
100
AcDbPlotSettings
  1
Olivetti_200 A4
  2
Olivetti_200.pc3
  4
A4
  6

 40
4.984749794006347
 41
5.154074668884277
 42
5.111740112304687
 43
4.9847412109375
 44
210.0156707763672
 45
297.0106506347656
 46
51.67548120477697
 47
0.0
 48
0.0
 49
0.0
140
0.0
141
0.0
142
1.0
143
0.4718508448115938
 70
 11956
 72
     1
 73
     0
 74
     1
  7
DIERRE BN.ctb
 75
     0
147
2.119313785268927
148
-222.4649060220283
149
-239.0808115236937
1001
ACAD_PSEXT
1000
Olivetti_200.pc3
1000
Olivetti d-Copia 200MF KX
1000
IP_192.168.1.151
1000

1070
     0
  0
PLOTSETTINGS
  5
21D
102
{ACAD_XDICTIONARY
360
32D
102
}
102
{ACAD_REACTORS
330
22
102
}
330
22
100
AcDbPlotSettings
  1
PLOTTER
  2
PLOTTER.pc3
  4
User622
  6

 40
0.0
 41
0.0
 42
0.0
 43
0.0
 44
841.0
 45
1189.0
 46
0.0
 47
0.0
 48
0.0
 49
0.0
140
0.0
141
0.0
142
1.0
143
1.0
 70
 11936
 72
     1
 73
     0
 74
     1
  7
DIERRE BN.ctb
 75
     0
147
2.194137304425714
148
-222.4649060220283
149
-239.0808115236937
1001
ACAD_PSEXT
1000
PLOTTER.pc3
1000
HP DesignJet 430 (E/A0) by HP
1000
\\SERVER2003
1000

1070
     0
  0
ACDBPLACEHOLDER
  5
1D
102
{ACAD_REACTORS
330
1F
102
}
330
1F
  0
SCALE
  5
1C3
102
{ACAD_REACTORS
330
1C2
102
}
330
1C2
100
AcDbScale
 70
     0
300
1:1
140
1.0
141
1.0
290
     1
  0
SCALE
  5
1C4
102
{ACAD_REACTORS
330
1C2
102
}
330
1C2
100
AcDbScale
 70
     0
300
1:2
140
1.0
141
2.0
290
     0
  0
SCALE
  5
1C5
102
{ACAD_REACTORS
330
1C2
102
}
330
1C2
100
AcDbScale
 70
     0
300
1:4
140
1.0
141
4.0
290
     0
  0
SCALE
  5
1C6
102
{ACAD_REACTORS
330
1C2
102
}
330
1C2
100
AcDbScale
 70
     0
300
1:5
140
1.0
141
5.0
290
     0
  0
SCALE
  5
1C7
102
{ACAD_REACTORS
330
1C2
102
}
330
1C2
100
AcDbScale
 70
     0
300
1:8
140
1.0
141
8.0
290
     0
  0
SCALE
  5
1C8
102
{ACAD_REACTORS
330
1C2
102
}
330
1C2
100
AcDbScale
 70
     0
300
1:10
140
1.0
141
10.0
290
     0
  0
SCALE
  5
1C9
102
{ACAD_REACTORS
330
1C2
102
}
330
1C2
100
AcDbScale
 70
     0
300
1:16
140
1.0
141
16.0
290
     0
  0
SCALE
  5
1CA
102
{ACAD_REACTORS
330
1C2
102
}
330
1C2
100
AcDbScale
 70
     0
300
1:20
140
1.0
141
20.0
290
     0
  0
SCALE
  5
1CB
102
{ACAD_REACTORS
330
1C2
102
}
330
1C2
100
AcDbScale
 70
     0
300
1:30
140
1.0
141
30.0
290
     0
  0
SCALE
  5
1CC
102
{ACAD_REACTORS
330
1C2
102
}
330
1C2
100
AcDbScale
 70
     0
300
1:40
140
1.0
141
40.0
290
     0
  0
SCALE
  5
1CD
102
{ACAD_REACTORS
330
1C2
102
}
330
1C2
100
AcDbScale
 70
     0
300
1:50
140
1.0
141
50.0
290
     0
  0
SCALE
  5
1CE
102
{ACAD_REACTORS
330
1C2
102
}
330
1C2
100
AcDbScale
 70
     0
300
1:100
140
1.0
141
100.0
290
     0
  0
SCALE
  5
1CF
102
{ACAD_REACTORS
330
1C2
102
}
330
1C2
100
AcDbScale
 70
     0
300
2:1
140
2.0
141
1.0
290
     0
  0
SCALE
  5
1D0
102
{ACAD_REACTORS
330
1C2
102
}
330
1C2
100
AcDbScale
 70
     0
300
4:1
140
4.0
141
1.0
290
     0
  0
SCALE
  5
1D1
102
{ACAD_REACTORS
330
1C2
102
}
330
1C2
100
AcDbScale
 70
     0
300
8:1
140
8.0
141
1.0
290
     0
  0
SCALE
  5
1D2
102
{ACAD_REACTORS
330
1C2
102
}
330
1C2
100
AcDbScale
 70
     0
300
10:1
140
10.0
141
1.0
290
     0
  0
SCALE
  5
1D3
102
{ACAD_REACTORS
330
1C2
102
}
330
1C2
100
AcDbScale
 70
     0
300
100:1
140
100.0
141
1.0
290
     0
  0
SCALE
  5
1D4
102
{ACAD_REACTORS
330
1C2
102
}
330
1C2
100
AcDbScale
 70
     0
300
1/128" = 1'-0"
140
0.0078125
141
12.0
290
     0
  0
SCALE
  5
1D5
102
{ACAD_REACTORS
330
1C2
102
}
330
1C2
100
AcDbScale
 70
     0
300
1/64" = 1'-0"
140
0.015625
141
12.0
290
     0
  0
SCALE
  5
1D6
102
{ACAD_REACTORS
330
1C2
102
}
330
1C2
100
AcDbScale
 70
     0
300
1/32" = 1'-0"
140
0.03125
141
12.0
290
     0
  0
SCALE
  5
1D7
102
{ACAD_REACTORS
330
1C2
102
}
330
1C2
100
AcDbScale
 70
     0
300
1/16" = 1'-0"
140
0.0625
141
12.0
290
     0
  0
SCALE
  5
1D8
102
{ACAD_REACTORS
330
1C2
102
}
330
1C2
100
AcDbScale
 70
     0
300
3/32" = 1'-0"
140
0.09375
141
12.0
290
     0
  0
SCALE
  5
1D9
102
{ACAD_REACTORS
330
1C2
102
}
330
1C2
100
AcDbScale
 70
     0
300
1/8" = 1'-0"
140
0.125
141
12.0
290
     0
  0
SCALE
  5
1DA
102
{ACAD_REACTORS
330
1C2
102
}
330
1C2
100
AcDbScale
 70
     0
300
3/16" = 1'-0"
140
0.1875
141
12.0
290
     0
  0
SCALE
  5
1DB
102
{ACAD_REACTORS
330
1C2
102
}
330
1C2
100
AcDbScale
 70
     0
300
1/4" = 1'-0"
140
0.25
141
12.0
290
     0
  0
SCALE
  5
1DC
102
{ACAD_REACTORS
330
1C2
102
}
330
1C2
100
AcDbScale
 70
     0
300
3/8" = 1'-0"
140
0.375
141
12.0
290
     0
  0
SCALE
  5
1DD
102
{ACAD_REACTORS
330
1C2
102
}
330
1C2
100
AcDbScale
 70
     0
300
1/2" = 1'-0"
140
0.5
141
12.0
290
     0
  0
SCALE
  5
1DE
102
{ACAD_REACTORS
330
1C2
102
}
330
1C2
100
AcDbScale
 70
     0
300
3/4" = 1'-0"
140
0.75
141
12.0
290
     0
  0
SCALE
  5
1DF
102
{ACAD_REACTORS
330
1C2
102
}
330
1C2
100
AcDbScale
 70
     0
300
1" = 1'-0"
140
1.0
141
12.0
290
     0
  0
SCALE
  5
1E0
102
{ACAD_REACTORS
330
1C2
102
}
330
1C2
100
AcDbScale
 70
     0
300
1-1/2" = 1'-0"
140
1.5
141
12.0
290
     0
  0
SCALE
  5
1E1
102
{ACAD_REACTORS
330
1C2
102
}
330
1C2
100
AcDbScale
 70
     0
300
3" = 1'-0"
140
3.0
141
12.0
290
     0
  0
SCALE
  5
1E2
102
{ACAD_REACTORS
330
1C2
102
}
330
1C2
100
AcDbScale
 70
     0
300
6" = 1'-0"
140
6.0
141
12.0
290
     0
  0
SCALE
  5
1E3
102
{ACAD_REACTORS
330
1C2
102
}
330
1C2
100
AcDbScale
 70
     0
300
1'-0" = 1'-0"
140
12.0
141
12.0
290
     0
  0
TABLESTYLE
  5
21E
102
{ACAD_XDICTIONARY
360
21F
102
}
102
{ACAD_REACTORS
330
1EF
102
}
330
1EF
100
AcDbTableStyle
  3
Standard
 70
     1
 71
     0
 40
1.5
 41
1.5
280
     1
281
     0
  7
ROMANS
140
3.0
170
     5
 62
     7
 63
     7
283
     0
274
    -2
284
     1
 64
     0
275
    -2
285
     1
 65
     0
276
    -2
286
     1
 66
     0
277
    -2
287
     1
 67
     0
278
    -2
288
     1
 68
     0
279
    -2
289
     1
 69
     0
  7
ROMANS
140
6.0
170
     5
 62
     1
 63
     7
283
     0
274
    -2
284
     1
 64
     0
275
    -2
285
     1
 65
     0
276
    -2
286
     1
 66
     0
277
    -2
287
     1
 67
     0
278
    -2
288
     1
 68
     0
279
    -2
289
     1
 69
     0
  7
ROMANS
140
3.5
170
     5
 62
     3
 63
     7
283
     0
274
    -2
284
     1
 64
     0
275
    -2
285
     1
 65
     0
276
    -2
286
     1
 66
     0
277
    -2
287
     1
 67
     0
278
    -2
288
     1
 68
     0
279
    -2
289
     1
 69
     0
  0
TABLESTYLE
  5
220
102
{ACAD_XDICTIONARY
360
221
102
}
102
{ACAD_REACTORS
330
1EF
102
}
330
1EF
100
AcDbTableStyle
  3
Standard
 70
     0
 71
     0
 40
1.5
 41
1.5
280
     0
281
     0
  7
ROMANS
140
4.5
170
     5
 62
     7
 63
     7
283
     0
274
    -2
284
     1
 64
     0
275
    -2
285
     1
 65
     0
276
    -2
286
     1
 66
     0
277
    -2
287
     1
 67
     0
278
    -2
288
     1
 68
     0
279
    -2
289
     1
 69
     0
  7
ROMANS
140
6.0
170
     5
 62
     1
 63
     7
283
     0
274
    -2
284
     1
 64
     0
275
    -2
285
     1
 65
     0
276
    -2
286
     1
 66
     0
277
    -2
287
     1
 67
     0
278
    -2
288
     1
 68
     0
279
    -2
289
     1
 69
     0
  7
ROMANS
140
5.0
170
     5
 62
     3
 63
     7
283
     0
274
    -2
284
     1
 64
     0
275
    -2
285
     1
 65
     0
276
    -2
286
     1
 66
     0
277
    -2
287
     1
 67
     0
278
    -2
288
     1
 68
     0
279
    -2
289
     1
 69
     0
  0
TABLESTYLE
  5
1F0
102
{ACAD_XDICTIONARY
360
24F
102
}
102
{ACAD_REACTORS
330
1EF
102
}
330
1EF
100
AcDbTableStyle
  3
Standard
 70
     0
 71
     0
 40
0.06
 41
0.06
280
     0
281
     0
  7
Standard
140
0.18
170
     2
 62
     0
 63
     7
283
     0
274
    -2
284
     1
 64
     0
275
    -2
285
     1
 65
     0
276
    -2
286
     1
 66
     0
277
    -2
287
     1
 67
     0
278
    -2
288
     1
 68
     0
279
    -2
289
     1
 69
     0
  7
Standard
140
0.25
170
     5
 62
     0
 63
     7
283
     0
274
    -2
284
     1
 64
     0
275
    -2
285
     1
 65
     0
276
    -2
286
     1
 66
     0
277
    -2
287
     1
 67
     0
278
    -2
288
     1
 68
     0
279
    -2
289
     1
 69
     0
  7
Standard
140
0.18
170
     5
 62
     0
 63
     7
283
     0
274
    -2
284
     1
 64
     0
275
    -2
285
     1
 65
     0
276
    -2
286
     1
 66
     0
277
    -2
287
     1
 67
     0
278
    -2
288
     1
 68
     0
279
    -2
289
     1
 69
     0
  0
VISUALSTYLE
  5
1B3
102
{ACAD_XDICTIONARY
360
308
102
}
102
{ACAD_REACTORS
330
1AD
102
}
330
1AD
100
AcDbVisualStyle
  2
2dWireframe
 70
     4
 71
     0
 72
     2
 73
     0
 90
        0
 40
-0.6
 41
-30.0
 62
     5
 63
     7
 74
     1
 91
        4
 64
     7
 65
   257
 75
     1
175
     1
 42
1.0
 92
        0
 66
   257
 43
1.0
 76
     1
 77
     6
 78
     2
 67
     7
 79
     5
170
     0
171
     0
290
     0
174
     0
 93
        1
 44
0.0
173
     0
291
     0
 45
0.0
1001
ACAD
1000
AcDbSavedByObjectVersion
1070
     0
  0
VISUALSTYLE
  5
1B5
102
{ACAD_XDICTIONARY
360
30C
102
}
102
{ACAD_REACTORS
330
1AD
102
}
330
1AD
100
AcDbVisualStyle
  2
3D Hidden
 70
     6
 71
     1
 72
     2
 73
     2
 90
        0
 40
-0.6
 41
-30.0
 62
     5
 63
     7
 74
     2
 91
        2
 64
     7
 65
   257
 75
     2
175
     1
 42
179.0
 92
        0
 66
   257
 43
1.0
 76
     1
 77
     6
 78
     2
 67
     7
 79
     3
170
     0
171
     0
290
     0
174
     0
 93
        1
 44
0.0
173
     0
291
     0
 45
0.0
1001
ACAD
1000
AcDbSavedByObjectVersion
1070
     0
  0
VISUALSTYLE
  5
1B4
102
{ACAD_XDICTIONARY
360
30A
102
}
102
{ACAD_REACTORS
330
1AD
102
}
330
1AD
100
AcDbVisualStyle
  2
3dWireframe
 70
     5
 71
     0
 72
     2
 73
     0
 90
        0
 40
-0.6
 41
-30.0
 62
     5
 63
     7
 74
     1
 91
        4
 64
     7
 65
   257
 75
     1
175
     1
 42
1.0
 92
        0
 66
   257
 43
1.0
 76
     1
 77
     6
 78
     2
 67
     7
 79
     5
170
     0
171
     0
290
     0
174
     0
 93
        1
 44
0.0
173
     0
291
     0
 45
0.0
1001
ACAD
1000
AcDbSavedByObjectVersion
1070
     0
  0
VISUALSTYLE
  5
1B2
102
{ACAD_XDICTIONARY
360
306
102
}
102
{ACAD_REACTORS
330
1AD
102
}
330
1AD
100
AcDbVisualStyle
  2
Basic
 70
     7
 71
     1
 72
     0
 73
     1
 90
        0
 40
-0.6
 41
-30.0
 62
     5
 63
     7
 74
     0
 91
        4
 64
     7
 65
   257
 75
     1
175
     1
 42
1.0
 92
        8
 66
     7
 43
1.0
 76
     1
 77
     6
 78
     2
 67
     7
 79
     5
170
     0
171
     0
290
     0
174
     0
 93
        1
 44
0.0
173
     0
291
     1
 45
0.0
1001
ACAD
1000
AcDbSavedByObjectVersion
1070
     0
  0
VISUALSTYLE
  5
1B9
102
{ACAD_XDICTIONARY
360
314
102
}
102
{ACAD_REACTORS
330
1AD
102
}
330
1AD
100
AcDbVisualStyle
  2
Brighten
 70
    12
 71
     2
 72
     2
 73
     0
 90
        0
 40
-0.6
 41
-30.0
 62
     5
 63
     7
 74
     1
 91
        4
 64
     7
 65
   257
 75
     1
175
     1
 42
1.0
 92
        8
 66
     7
 43
1.0
 76
     1
 77
     6
 78
     2
 67
     7
 79
     5
170
     0
171
     0
290
     0
174
     0
 93
        1
 44
50.0
173
     0
291
     1
 45
0.0
1001
ACAD
1000
AcDbSavedByObjectVersion
1070
     0
  0
VISUALSTYLE
  5
1BD
102
{ACAD_XDICTIONARY
360
31C
102
}
102
{ACAD_REACTORS
330
1AD
102
}
330
1AD
100
AcDbVisualStyle
  2
ColorChange
 70
    16
 71
     2
 72
     2
 73
     3
 90
        0
 40
-0.6
 41
-30.0
 62
     5
 63
     8
 74
     1
 91
        4
 64
     7
 65
   257
 75
     1
175
     1
 42
1.0
 92
        8
 66
     8
 43
1.0
 76
     1
 77
     6
 78
     2
 67
     7
 79
     5
170
     0
171
     0
290
     0
174
     0
 93
        1
 44
0.0
173
     0
291
     1
 45
0.0
1001
ACAD
1000
AcDbSavedByObjectVersion
1070
     0
  0
VISUALSTYLE
  5
1B6
102
{ACAD_XDICTIONARY
360
30E
102
}
102
{ACAD_REACTORS
330
1AD
102
}
330
1AD
100
AcDbVisualStyle
  2
Conceptual
 70
     9
 71
     3
 72
     2
 73
     0
 90
        0
 40
-0.6
 41
-30.0
 62
     5
 63
     7
 74
     2
 91
        2
 64
     7
 65
   257
 75
     1
175
     1
 42
179.0
 92
        8
 66
     7
 43
1.0
 76
     1
 77
     6
 78
     2
 67
     7
 79
     3
170
     0
171
     0
290
     0
174
     0
 93
        1
 44
0.0
173
     0
291
     0
 45
0.0
1001
ACAD
1000
AcDbSavedByObjectVersion
1070
     0
  0
VISUALSTYLE
  5
1B8
102
{ACAD_XDICTIONARY
360
312
102
}
102
{ACAD_REACTORS
330
1AD
102
}
330
1AD
100
AcDbVisualStyle
  2
Dim
 70
    11
 71
     2
 72
     2
 73
     0
 90
        0
 40
-0.6
 41
-30.0
 62
     5
 63
     7
 74
     1
 91
        4
 64
     7
 65
   257
 75
     1
175
     1
 42
1.0
 92
        8
 66
     7
 43
1.0
 76
     1
 77
     6
 78
     2
 67
     7
 79
     5
170
     0
171
     0
290
     0
174
     0
 93
        1
 44
-50.0
173
     0
291
     1
 45
0.0
1001
ACAD
1000
AcDbSavedByObjectVersion
1070
     0
  0
VISUALSTYLE
  5
1C0
102
{ACAD_XDICTIONARY
360
322
102
}
102
{ACAD_REACTORS
330
1AD
102
}
330
1AD
100
AcDbVisualStyle
  2
EdgeColorOff
 70
    22
 71
     2
 72
     2
 73
     0
 90
        0
 40
-0.6
 41
-30.0
 62
     5
 63
     7
 74
     1
 91
        4
 64
     7
 65
   257
 75
     1
175
     1
 42
1.0
 92
        8
 66
     7
 43
1.0
 76
     1
 77
     6
 78
     2
 67
     7
 79
     5
170
     0
171
     0
290
     0
174
     0
 93
        1
 44
0.0
173
     0
291
     1
 45
0.0
1001
ACAD
1000
AcDbSavedByObjectVersion
1070
     0
  0
VISUALSTYLE
  5
1BC
102
{ACAD_XDICTIONARY
360
31A
102
}
102
{ACAD_REACTORS
330
1AD
102
}
330
1AD
100
AcDbVisualStyle
  2
Facepattern
 70
    15
 71
     2
 72
     2
 73
     0
 90
        0
 40
-0.6
 41
-30.0
 62
     5
 63
     7
 74
     1
 91
        4
 64
     7
 65
   257
 75
     1
175
     1
 42
1.0
 92
        8
 66
     7
 43
1.0
 76
     1
 77
     6
 78
     2
 67
     7
 79
     5
170
     0
171
     0
290
     0
174
     0
 93
        1
 44
0.0
173
     0
291
     1
 45
0.0
1001
ACAD
1000
AcDbSavedByObjectVersion
1070
     0
  0
VISUALSTYLE
  5
1AE
102
{ACAD_XDICTIONARY
360
2FE
102
}
102
{ACAD_REACTORS
330
1AD
102
}
330
1AD
100
AcDbVisualStyle
  2
Flat
 70
     0
 71
     2
 72
     1
 73
     1
 90
        2
 40
-0.6
 41
30.0
 62
     5
 63
     7
 74
     0
 91
        4
 64
     7
 65
   257
 75
     1
175
     1
 42
1.0
 92
        8
 66
     7
 43
1.0
 76
     1
 77
     6
 78
     2
 67
     7
 79
     5
170
     0
171
     0
290
     0
174
     0
 93
       13
 44
0.0
173
     0
291
     1
 45
0.0
1001
ACAD
1000
AcDbSavedByObjectVersion
1070
     0
  0
VISUALSTYLE
  5
1AF
102
{ACAD_XDICTIONARY
360
300
102
}
102
{ACAD_REACTORS
330
1AD
102
}
330
1AD
100
AcDbVisualStyle
  2
FlatWithEdges
 70
     1
 71
     2
 72
     1
 73
     1
 90
        2
 40
-0.6
 41
30.0
 62
     5
 63
     7
 74
     1
 91
        4
 64
     7
 65
   257
 75
     1
175
     1
 42
1.0
 92
        0
 66
   257
 43
1.0
 76
     1
 77
     6
 78
     2
 67
     7
 79
     5
170
     0
171
     0
290
     0
174
     0
 93
       13
 44
0.0
173
     0
291
     1
 45
0.0
1001
ACAD
1000
AcDbSavedByObjectVersion
1070
     0
  0
VISUALSTYLE
  5
1B0
102
{ACAD_XDICTIONARY
360
302
102
}
102
{ACAD_REACTORS
330
1AD
102
}
330
1AD
100
AcDbVisualStyle
  2
Gouraud
 70
     2
 71
     2
 72
     2
 73
     1
 90
        2
 40
-0.6
 41
30.0
 62
     5
 63
     7
 74
     0
 91
        4
 64
     7
 65
   257
 75
     1
175
     1
 42
1.0
 92
        0
 66
     7
 43
1.0
 76
     1
 77
     6
 78
     2
 67
     7
 79
     5
170
     0
171
     0
290
     0
174
     0
 93
       13
 44
0.0
173
     0
291
     1
 45
0.0
1001
ACAD
1000
AcDbSavedByObjectVersion
1070
     0
  0
VISUALSTYLE
  5
1B1
102
{ACAD_XDICTIONARY
360
304
102
}
102
{ACAD_REACTORS
330
1AD
102
}
330
1AD
100
AcDbVisualStyle
  2
GouraudWithEdges
 70
     3
 71
     2
 72
     2
 73
     1
 90
        2
 40
-0.6
 41
30.0
 62
     5
 63
     7
 74
     1
 91
        4
 64
     7
 65
   257
 75
     1
175
     1
 42
1.0
 92
        0
 66
   257
 43
1.0
 76
     1
 77
     6
 78
     2
 67
     7
 79
     5
170
     0
171
     0
290
     0
174
     0
 93
       13
 44
0.0
173
     0
291
     1
 45
0.0
1001
ACAD
1000
AcDbSavedByObjectVersion
1070
     0
  0
VISUALSTYLE
  5
29A
102
{ACAD_XDICTIONARY
360
333
102
}
102
{ACAD_REACTORS
330
1AD
102
}
330
1AD
100
AcDbVisualStyle
  2
Hidden
 70
     6
 71
     1
 72
     2
 73
     2
 90
        0
 40
-0.6
 41
-30.0
 62
     5
 63
     7
 74
     2
 91
        2
 64
     7
 65
   257
 75
     2
175
     1
 42
40.0
 92
        0
 66
   257
 43
1.0
 76
     1
 77
     6
 78
     2
 67
     7
 79
     3
170
     0
171
     0
290
     0
174
     0
 93
        1
 44
0.0
173
     0
291
     0
 45
0.0
1001
ACAD
1000
AcDbSavedByObjectVersion
1070
     0
  0
VISUALSTYLE
  5
1BE
102
{ACAD_XDICTIONARY
360
31E
102
}
102
{ACAD_REACTORS
330
1AD
102
}
330
1AD
100
AcDbVisualStyle
  2
JitterOff
 70
    20
 71
     2
 72
     2
 73
     0
 90
        0
 40
-0.6
 41
-30.0
 62
     5
 63
     7
 74
     1
 91
        4
 64
     7
 65
   257
 75
     1
175
     1
 42
1.0
 92
       10
 66
     7
 43
1.0
 76
     1
 77
     6
 78
     2
 67
     7
 79
     5
170
     0
171
     0
290
     0
174
     0
 93
        1
 44
0.0
173
     0
291
     1
 45
0.0
1001
ACAD
1000
AcDbSavedByObjectVersion
1070
     0
  0
VISUALSTYLE
  5
1BB
102
{ACAD_XDICTIONARY
360
318
102
}
102
{ACAD_REACTORS
330
1AD
102
}
330
1AD
100
AcDbVisualStyle
  2
Linepattern
 70
    14
 71
     2
 72
     2
 73
     0
 90
        0
 40
-0.6
 41
-30.0
 62
     5
 63
     7
 74
     1
 91
        4
 64
     7
 65
   257
 75
     7
175
     7
 42
1.0
 92
        8
 66
     7
 43
1.0
 76
     1
 77
     6
 78
     2
 67
     7
 79
     5
170
     0
171
     0
290
     0
174
     0
 93
        1
 44
0.0
173
     0
291
     1
 45
0.0
1001
ACAD
1000
AcDbSavedByObjectVersion
1070
     0
  0
VISUALSTYLE
  5
1BF
102
{ACAD_XDICTIONARY
360
320
102
}
102
{ACAD_REACTORS
330
1AD
102
}
330
1AD
100
AcDbVisualStyle
  2
OverhangOff
 70
    21
 71
     2
 72
     2
 73
     0
 90
        0
 40
-0.6
 41
-30.0
 62
     5
 63
     7
 74
     1
 91
        4
 64
     7
 65
   257
 75
     1
175
     1
 42
1.0
 92
        9
 66
     7
 43
1.0
 76
     1
 77
     6
 78
     2
 67
     7
 79
     5
170
     0
171
     0
290
     0
174
     0
 93
        1
 44
0.0
173
     0
291
     1
 45
0.0
1001
ACAD
1000
AcDbSavedByObjectVersion
1070
     0
  0
VISUALSTYLE
  5
1B7
102
{ACAD_XDICTIONARY
360
310
102
}
102
{ACAD_REACTORS
330
1AD
102
}
330
1AD
100
AcDbVisualStyle
  2
Realistic
 70
     8
 71
     2
 72
     2
 73
     0
 90
        0
 40
-0.6
 41
-30.0
 62
     5
 63
     7
 74
     1
 91
        0
 64
     7
 65
   257
 75
     1
175
     1
 42
1.0
 92
        8
 66
     8
 43
1.0
 76
     1
 77
     6
 78
     2
 67
     7
 79
     5
170
     0
171
     0
290
     0
174
     0
 93
       13
 44
0.0
173
     0
291
     0
 45
0.0
1001
ACAD
1000
AcDbSavedByObjectVersion
1070
     0
  0
VISUALSTYLE
  5
29F
102
{ACAD_XDICTIONARY
360
33D
102
}
102
{ACAD_REACTORS
330
1AD
102
}
330
1AD
100
AcDbVisualStyle
  2
Shaded
 70
    27
 71
     2
 72
     2
 73
     1
 90
        2
 40
-0.6
 41
30.0
 62
     5
 63
     7
 74
     0
 91
        4
 64
     7
 65
   257
 75
     1
175
     1
 42
1.0
 92
        8
 66
   257
 43
1.0
 76
     1
 77
     6
 78
     2
 67
     8
 79
     3
170
     0
171
     0
290
     0
174
     0
 93
        5
 44
0.0
173
     0
291
     0
 45
0.0
1001
ACAD
1000
AcDbSavedByObjectVersion
1070
     0
  0
VISUALSTYLE
  5
29E
102
{ACAD_XDICTIONARY
360
33B
102
}
102
{ACAD_REACTORS
330
1AD
102
}
330
1AD
100
AcDbVisualStyle
  2
Shaded with edges
 70
    26
 71
     2
 72
     2
 73
     1
 90
        2
 40
-0.6
 41
30.0
 62
     5
 63
     7
 74
     1
 91
       10
 64
     7
 65
   257
 75
     2
175
     1
 42
1.0
 92
        8
 66
   257
 43
1.0
 76
     1
 77
     6
 78
     2
 67
     7
 79
     3
170
     0
171
     0
290
     0
174
     0
 93
        5
 44
0.0
173
     0
291
     0
 45
0.0
1001
ACAD
1000
AcDbSavedByObjectVersion
1070
     0
  0
VISUALSTYLE
  5
29B
102
{ACAD_XDICTIONARY
360
335
102
}
102
{ACAD_REACTORS
330
1AD
102
}
330
1AD
100
AcDbVisualStyle
  2
Shades of Gray
 70
    23
 71
     2
 72
     2
 73
     3
 90
        0
 40
-0.6
 41
-30.0
 62
     5
 63
     7
 74
     2
 91
        2
 64
     7
 65
     7
 75
     1
175
     1
 42
40.0
 92
        8
 66
     7
 43
1.0
 76
     1
 77
     6
 78
     2
 67
     7
 79
     3
170
     0
171
     0
290
     0
174
     0
 93
        1
 44
0.0
173
     0
291
     0
 45
0.0
1001
ACAD
1000
AcDbSavedByObjectVersion
1070
     0
  0
VISUALSTYLE
  5
29C
102
{ACAD_XDICTIONARY
360
337
102
}
102
{ACAD_REACTORS
330
1AD
102
}
330
1AD
100
AcDbVisualStyle
  2
Sketchy
 70
    24
 71
     1
 72
     2
 73
     2
 90
        0
 40
-0.6
 41
-30.0
 62
     5
 63
     7
 74
     2
 91
        2
 64
     7
 65
     7
 75
     1
175
     1
 42
40.0
 92
       11
 66
     7
 43
1.0
 76
     1
 77
     6
 78
     2
 67
     7
 79
     6
170
     0
171
     0
290
     0
174
     0
 93
        1
 44
0.0
173
     0
291
     0
 45
0.0
1001
ACAD
1000
AcDbSavedByObjectVersion
1070
     0
  0
VISUALSTYLE
  5
1BA
102
{ACAD_XDICTIONARY
360
316
102
}
102
{ACAD_REACTORS
330
1AD
102
}
330
1AD
100
AcDbVisualStyle
  2
Thicken
 70
    13
 71
     2
 72
     2
 73
     0
 90
        0
 40
-0.6
 41
-30.0
 62
     5
 63
     7
 74
     1
 91
        4
 64
     7
 65
   257
 75
     1
175
     1
 42
1.0
 92
       12
 66
     7
 43
1.0
 76
     1
 77
     6
 78
     2
 67
     7
 79
     5
170
     0
171
     0
290
     0
174
     0
 93
        1
 44
0.0
173
     0
291
     1
 45
0.0
1001
ACAD
1000
AcDbSavedByObjectVersion
1070
     0
  0
VISUALSTYLE
  5
299
102
{ACAD_XDICTIONARY
360
331
102
}
102
{ACAD_REACTORS
330
1AD
102
}
330
1AD
100
AcDbVisualStyle
  2
Wireframe
 70
     5
 71
     0
 72
     2
 73
     0
 90
        0
 40
-0.6
 41
-30.0
 62
     5
 63
     7
 74
     1
 91
        4
 64
     7
 65
   257
 75
     1
175
     1
 42
1.0
 92
        0
 66
   257
 43
1.0
 76
     1
 77
     6
 78
     2
 67
     7
 79
     3
170
     0
171
     0
290
     0
174
     0
 93
        1
 44
0.0
173
     0
291
     0
 45
0.0
1001
ACAD
1000
AcDbSavedByObjectVersion
1070
     0
  0
VISUALSTYLE
  5
29D
102
{ACAD_XDICTIONARY
360
339
102
}
102
{ACAD_REACTORS
330
1AD
102
}
330
1AD
100
AcDbVisualStyle
  2
X-Ray
 70
    25
 71
     2
 72
     2
 73
     1
 90
        1
 40
0.5
 41
-30.0
 62
     5
 63
     7
 74
     1
 91
        0
 64
     7
 65
   257
 75
     1
175
     1
 42
1.0
 92
        8
 66
     7
 43
1.0
 76
     1
 77
     6
 78
     2
 67
     7
 79
     3
170
     0
171
     0
290
     0
174
     0
 93
       13
 44
0.0
173
     0
291
     0
 45
0.0
1001
ACAD
1000
AcDbSavedByObjectVersion
1070
     0
  0
DICTIONARYVAR
  5
294
102
{ACAD_REACTORS
330
192
102
}
330
192
100
DictionaryVariables
280
     0
  1
1:1
  0
DICTIONARYVAR
  5
292
102
{ACAD_REACTORS
330
192
102
}
330
192
100
DictionaryVariables
280
     0
  1
STANDARD
  0
DICTIONARYVAR
  5
291
102
{ACAD_REACTORS
330
192
102
}
330
192
100
DictionaryVariables
280
     0
  1
STANDARD
  0
DICTIONARYVAR
  5
193
330
192
100
DictionaryVariables
280
     0
  1
2
  0
DICTIONARYVAR
  5
293
102
{ACAD_REACTORS
330
192
102
}
330
192
100
DictionaryVariables
280
     0
  1
0
  0
DICTIONARYVAR
  5
296
102
{ACAD_REACTORS
330
192
102
}
330
192
100
DictionaryVariables
280
     0
  1
0
  0
DICTIONARYVAR
  5
295
102
{ACAD_REACTORS
330
192
102
}
330
192
100
DictionaryVariables
280
     0
  1
127
  0
DICTIONARYVAR
  5
2F1
102
{ACAD_REACTORS
330
192
102
}
330
192
100
DictionaryVariables
280
     0
  1
2
  0
XRECORD
  5
24E
102
{ACAD_REACTORS
330
24C
102
}
330
24C
100
AcDbXrecord
280
     1
330
CC
330
CE
330
D0
330
D2
330
D4
330
D6
330
D8
330
DA
330
DC
330
DE
330
E0
  0
XRECORD
  5
1FE
102
{ACAD_REACTORS
330
1FD
102
}
330
1FD
100
AcDbXrecord
280
     1
 91
        1
  0
ACAD_PROXY_OBJECT
  5
1FB
102
{ACAD_REACTORS
330
1FA
102
}
330
1FA
100
AcDbProxyObject
 90
      499
 91
      529
 95
   983063
 70
     0
 93
       88
310
4050844454641554C5400E00
 94
        0
1001
ACAD
1000
AcRTDxfName
1000
ACDBQSCATEGORY
  0
XRECORD
  5
24A
102
{ACAD_REACTORS
330
248
102
}
330
248
100
AcDbXrecord
280
     1
  9
X485b
  0
XRECORD
  5
249
102
{ACAD_REACTORS
330
248
102
}
330
248
100
AcDbXrecord
280
     1
  2
TOP
  3
P-0000
280
     1
310
6465736372697A696F6E6500544F5000444154410033302F31322F313000554D004E520052455600300044495345474E41544F5245004D2E43617075616E6F005343414C4100313A310000
 10
0.0
 20
0.0
 30
0.0
  0
XRECORD
  5
205
102
{ACAD_REACTORS
330
204
102
}
330
204
100
AcDbXrecord
280
     1
 90
      202
 91
      144
  0
DICTIONARY
  5
2F9
330
21
100
AcDbDictionary
280
     1
281
     1
  3
ACAD_XREC_ROUNDTRIP
360
2FA
  0
DICTIONARY
  5
2F7
330
20
100
AcDbDictionary
280
     1
281
     1
  3
ACAD_XREC_ROUNDTRIP
360
2F8
  0
DICTIONARY
  5
19E
330
19D
100
AcDbDictionary
280
     1
281
     1
  3
ACAD_XREC_ROUNDTRIP
360
2FC
  3
BUMPTILE
360
1A0
  3
DIFFUSETILE
360
19F
  3
OPACITYTILE
360
1A3
  3
REFLECTIONTILE
360
1A2
  3
REFRACTIONTILE
360
1A4
  3
SPECULARTILE
360
1A1
  0
DICTIONARY
  5
196
330
195
100
AcDbDictionary
280
     1
281
     1
  3
ACAD_XREC_ROUNDTRIP
360
2FB
  3
BUMPTILE
360
198
  3
DIFFUSETILE
360
197
  3
OPACITYTILE
360
19B
  3
REFLECTIONTILE
360
19A
  3
REFRACTIONTILE
360
19C
  3
SPECULARTILE
360
199
  0
DICTIONARY
  5
1A6
330
1A5
100
AcDbDictionary
280
     1
281
     1
  3
ACAD_XREC_ROUNDTRIP
360
2FD
  3
BUMPTILE
360
1A8
  3
DIFFUSETILE
360
1A7
  3
OPACITYTILE
360
1AB
  3
REFLECTIONTILE
360
1AA
  3
REFRACTIONTILE
360
1AC
  3
SPECULARTILE
360
1A9
  0
DICTIONARY
  5
325
330
219
100
AcDbDictionary
280
     1
281
     1
  3
ACAD_XREC_ROUNDTRIP
360
326
  0
DICTIONARY
  5
327
330
21A
100
AcDbDictionary
280
     1
281
     1
  3
ACAD_XREC_ROUNDTRIP
360
328
  0
DICTIONARY
  5
329
330
21B
100
AcDbDictionary
280
     1
281
     1
  3
ACAD_XREC_ROUNDTRIP
360
32A
  0
DICTIONARY
  5
32B
330
21C
100
AcDbDictionary
280
     1
281
     1
  3
ACAD_XREC_ROUNDTRIP
360
32C
  0
DICTIONARY
  5
32D
330
21D
100
AcDbDictionary
280
     1
281
     1
  3
ACAD_XREC_ROUNDTRIP
360
32E
  0
DICTIONARY
  5
21F
330
21E
100
AcDbDictionary
280
     1
281
     1
  3
ACAD_ROUNDTRIP_2008_TABLESTYLE_CELLSTYLEMAP
360
2F3
  3
ACAD_XREC_ROUNDTRIP
360
32F
  0
DICTIONARY
  5
221
330
220
100
AcDbDictionary
280
     1
281
     1
  3
ACAD_ROUNDTRIP_2008_TABLESTYLE_CELLSTYLEMAP
360
2F4
  3
ACAD_XREC_ROUNDTRIP
360
330
  0
DICTIONARY
  5
24F
330
1F0
100
AcDbDictionary
280
     1
281
     1
  3
ACAD_ROUNDTRIP_2008_TABLESTYLE_CELLSTYLEMAP
360
2F2
  3
ACAD_XREC_ROUNDTRIP
360
324
  0
DICTIONARY
  5
308
330
1B3
100
AcDbDictionary
280
     1
281
     1
  3
ACAD_XREC_ROUNDTRIP
360
309
  0
DICTIONARY
  5
30C
330
1B5
100
AcDbDictionary
280
     1
281
     1
  3
ACAD_XREC_ROUNDTRIP
360
30D
  0
DICTIONARY
  5
30A
330
1B4
100
AcDbDictionary
280
     1
281
     1
  3
ACAD_XREC_ROUNDTRIP
360
30B
  0
DICTIONARY
  5
306
330
1B2
100
AcDbDictionary
280
     1
281
     1
  3
ACAD_XREC_ROUNDTRIP
360
307
  0
DICTIONARY
  5
314
330
1B9
100
AcDbDictionary
280
     1
281
     1
  3
ACAD_XREC_ROUNDTRIP
360
315
  0
DICTIONARY
  5
31C
330
1BD
100
AcDbDictionary
280
     1
281
     1
  3
ACAD_XREC_ROUNDTRIP
360
31D
  0
DICTIONARY
  5
30E
330
1B6
100
AcDbDictionary
280
     1
281
     1
  3
ACAD_XREC_ROUNDTRIP
360
30F
  0
DICTIONARY
  5
312
330
1B8
100
AcDbDictionary
280
     1
281
     1
  3
ACAD_XREC_ROUNDTRIP
360
313
  0
DICTIONARY
  5
322
330
1C0
100
AcDbDictionary
280
     1
281
     1
  3
ACAD_XREC_ROUNDTRIP
360
323
  0
DICTIONARY
  5
31A
330
1BC
100
AcDbDictionary
280
     1
281
     1
  3
ACAD_XREC_ROUNDTRIP
360
31B
  0
DICTIONARY
  5
2FE
330
1AE
100
AcDbDictionary
280
     1
281
     1
  3
ACAD_XREC_ROUNDTRIP
360
2FF
  0
DICTIONARY
  5
300
330
1AF
100
AcDbDictionary
280
     1
281
     1
  3
ACAD_XREC_ROUNDTRIP
360
301
  0
DICTIONARY
  5
302
330
1B0
100
AcDbDictionary
280
     1
281
     1
  3
ACAD_XREC_ROUNDTRIP
360
303
  0
DICTIONARY
  5
304
330
1B1
100
AcDbDictionary
280
     1
281
     1
  3
ACAD_XREC_ROUNDTRIP
360
305
  0
DICTIONARY
  5
333
330
29A
100
AcDbDictionary
280
     1
281
     1
  3
ACAD_XREC_ROUNDTRIP
360
334
  0
DICTIONARY
  5
31E
330
1BE
100
AcDbDictionary
280
     1
281
     1
  3
ACAD_XREC_ROUNDTRIP
360
31F
  0
DICTIONARY
  5
318
330
1BB
100
AcDbDictionary
280
     1
281
     1
  3
ACAD_XREC_ROUNDTRIP
360
319
  0
DICTIONARY
  5
320
330
1BF
100
AcDbDictionary
280
     1
281
     1
  3
ACAD_XREC_ROUNDTRIP
360
321
  0
DICTIONARY
  5
310
330
1B7
100
AcDbDictionary
280
     1
281
     1
  3
ACAD_XREC_ROUNDTRIP
360
311
  0
DICTIONARY
  5
33D
330
29F
100
AcDbDictionary
280
     1
281
     1
  3
ACAD_XREC_ROUNDTRIP
360
33E
  0
DICTIONARY
  5
33B
330
29E
100
AcDbDictionary
280
     1
281
     1
  3
ACAD_XREC_ROUNDTRIP
360
33C
  0
DICTIONARY
  5
335
330
29B
100
AcDbDictionary
280
     1
281
     1
  3
ACAD_XREC_ROUNDTRIP
360
336
  0
DICTIONARY
  5
337
330
29C
100
AcDbDictionary
280
     1
281
     1
  3
ACAD_XREC_ROUNDTRIP
360
338
  0
DICTIONARY
  5
316
330
1BA
100
AcDbDictionary
280
     1
281
     1
  3
ACAD_XREC_ROUNDTRIP
360
317
  0
DICTIONARY
  5
331
330
299
100
AcDbDictionary
280
     1
281
     1
  3
ACAD_XREC_ROUNDTRIP
360
332
  0
DICTIONARY
  5
339
330
29D
100
AcDbDictionary
280
     1
281
     1
  3
ACAD_XREC_ROUNDTRIP
360
33A
  0
XRECORD
  5
2FA
102
{ACAD_REACTORS
330
2F9
102
}
330
2F9
100
AcDbXrecord
280
     1
102
SHADEPLOT
 70
     0
102
SHADEPLOTRESLEVEL
 70
     2
102
SHADEPLOTCUSTOMDPI
 70
   300
  0
XRECORD
  5
2F8
102
{ACAD_REACTORS
330
2F7
102
}
330
2F7
100
AcDbXrecord
280
     1
102
SHADEPLOT
 70
     0
102
SHADEPLOTRESLEVEL
 70
     2
102
SHADEPLOTCUSTOMDPI
 70
   300
  0
XRECORD
  5
2FC
102
{ACAD_REACTORS
330
19E
102
}
330
19E
100
AcDbXrecord
280
     1
102
MATERIAL
148
0.0
149
0.0
149
0.0
 93
        0
 94
      127
282
     0
 72
     0
 77
     0
171
     0
175
     0
179
     0
273
     0
  0
XRECORD
  5
1A0
102
{ACAD_REACTORS
330
19E
102
}
330
19E
100
AcDbXrecord
280
     1
270
     1
271
     1
  0
XRECORD
  5
19F
102
{ACAD_REACTORS
330
19E
102
}
330
19E
100
AcDbXrecord
280
     1
270
     1
271
     1
  0
XRECORD
  5
1A3
102
{ACAD_REACTORS
330
19E
102
}
330
19E
100
AcDbXrecord
280
     1
270
     1
271
     1
  0
XRECORD
  5
1A2
102
{ACAD_REACTORS
330
19E
102
}
330
19E
100
AcDbXrecord
280
     1
270
     1
271
     1
  0
XRECORD
  5
1A4
102
{ACAD_REACTORS
330
19E
102
}
330
19E
100
AcDbXrecord
280
     1
270
     1
271
     1
  0
XRECORD
  5
1A1
102
{ACAD_REACTORS
330
19E
102
}
330
19E
100
AcDbXrecord
280
     1
270
     1
271
     1
  0
XRECORD
  5
2FB
102
{ACAD_REACTORS
330
196
102
}
330
196
100
AcDbXrecord
280
     1
102
MATERIAL
148
0.0
149
0.0
149
0.0
 93
        0
 94
      127
282
     0
 72
     0
 77
     0
171
     0
175
     0
179
     0
273
     0
  0
XRECORD
  5
198
102
{ACAD_REACTORS
330
196
102
}
330
196
100
AcDbXrecord
280
     1
270
     1
271
     1
  0
XRECORD
  5
197
102
{ACAD_REACTORS
330
196
102
}
330
196
100
AcDbXrecord
280
     1
270
     1
271
     1
  0
XRECORD
  5
19B
102
{ACAD_REACTORS
330
196
102
}
330
196
100
AcDbXrecord
280
     1
270
     1
271
     1
  0
XRECORD
  5
19A
102
{ACAD_REACTORS
330
196
102
}
330
196
100
AcDbXrecord
280
     1
270
     1
271
     1
  0
XRECORD
  5
19C
102
{ACAD_REACTORS
330
196
102
}
330
196
100
AcDbXrecord
280
     1
270
     1
271
     1
  0
XRECORD
  5
199
102
{ACAD_REACTORS
330
196
102
}
330
196
100
AcDbXrecord
280
     1
270
     1
271
     1
  0
XRECORD
  5
2FD
102
{ACAD_REACTORS
330
1A6
102
}
330
1A6
100
AcDbXrecord
280
     1
102
MATERIAL
148
0.0
149
0.0
149
0.0
 93
        0
 94
      127
282
     0
 72
     0
 77
     0
171
     0
175
     0
179
     0
273
     0
  0
XRECORD
  5
1A8
102
{ACAD_REACTORS
330
1A6
102
}
330
1A6
100
AcDbXrecord
280
     1
270
     1
271
     1
  0
XRECORD
  5
1A7
102
{ACAD_REACTORS
330
1A6
102
}
330
1A6
100
AcDbXrecord
280
     1
270
     1
271
     1
  0
XRECORD
  5
1AB
102
{ACAD_REACTORS
330
1A6
102
}
330
1A6
100
AcDbXrecord
280
     1
270
     1
271
     1
  0
XRECORD
  5
1AA
102
{ACAD_REACTORS
330
1A6
102
}
330
1A6
100
AcDbXrecord
280
     1
270
     1
271
     1
  0
XRECORD
  5
1AC
102
{ACAD_REACTORS
330
1A6
102
}
330
1A6
100
AcDbXrecord
280
     1
270
     1
271
     1
  0
XRECORD
  5
1A9
102
{ACAD_REACTORS
330
1A6
102
}
330
1A6
100
AcDbXrecord
280
     1
270
     1
271
     1
  0
XRECORD
  5
326
102
{ACAD_REACTORS
330
325
102
}
330
325
100
AcDbXrecord
280
     1
102
SHADEPLOT
 70
     0
102
SHADEPLOTRESLEVEL
 70
     2
102
SHADEPLOTCUSTOMDPI
 70
   300
  0
XRECORD
  5
328
102
{ACAD_REACTORS
330
327
102
}
330
327
100
AcDbXrecord
280
     1
102
SHADEPLOT
 70
     0
102
SHADEPLOTRESLEVEL
 70
     2
102
SHADEPLOTCUSTOMDPI
 70
   300
  0
XRECORD
  5
32A
102
{ACAD_REACTORS
330
329
102
}
330
329
100
AcDbXrecord
280
     1
102
SHADEPLOT
 70
     0
102
SHADEPLOTRESLEVEL
 70
     2
102
SHADEPLOTCUSTOMDPI
 70
   300
  0
XRECORD
  5
32C
102
{ACAD_REACTORS
330
32B
102
}
330
32B
100
AcDbXrecord
280
     1
102
SHADEPLOT
 70
     0
102
SHADEPLOTRESLEVEL
 70
     2
102
SHADEPLOTCUSTOMDPI
 70
   300
  0
XRECORD
  5
32E
102
{ACAD_REACTORS
330
32D
102
}
330
32D
100
AcDbXrecord
280
     1
102
SHADEPLOT
 70
     0
102
SHADEPLOTRESLEVEL
 70
     2
102
SHADEPLOTCUSTOMDPI
 70
   300
  0
CELLSTYLEMAP
  5
2F3
102
{ACAD_REACTORS
330
21F
102
}
330
21F
100
AcDbCellStyleMap
 90
        3
300
CELLSTYLE
  1
TABLEFORMAT_BEGIN
 90
        5
170
     1
 91
        0
 92
    32768
 62
   257
 93
        1
300
CONTENTFORMAT
  1
CONTENTFORMAT_BEGIN
 90
        0
 91
        0
 92
      512
 93
        0
300

 40
0.0
140
1.0
 94
        5
 62
     1
340
20B
144
6.0
309
CONTENTFORMAT_END
171
     1
301
MARGIN
  1
CELLMARGIN_BEGIN
 40
1.5
 40
1.5
 40
1.5
 40
1.5
 40
0.18
 40
0.18
309
CELLMARGIN_END
 94
        6
 95
        1
302
GRIDFORMAT
  1
GRIDFORMAT_BEGIN
 90
        0
 91
        1
 62
     0
 92
       -2
340
0
 93
        0
 40
0.045
309
GRIDFORMAT_END
 95
        2
302
GRIDFORMAT
  1
GRIDFORMAT_BEGIN
 90
        0
 91
        1
 62
     0
 92
       -2
340
0
 93
        0
 40
0.045
309
GRIDFORMAT_END
 95
        4
302
GRIDFORMAT
  1
GRIDFORMAT_BEGIN
 90
        0
 91
        1
 62
     0
 92
       -2
340
0
 93
        0
 40
0.045
309
GRIDFORMAT_END
 95
        8
302
GRIDFORMAT
  1
GRIDFORMAT_BEGIN
 90
        0
 91
        1
 62
     0
 92
       -2
340
0
 93
        0
 40
0.045
309
GRIDFORMAT_END
 95
       16
302
GRIDFORMAT
  1
GRIDFORMAT_BEGIN
 90
        0
 91
        1
 62
     0
 92
       -2
340
0
 93
        0
 40
0.045
309
GRIDFORMAT_END
 95
       32
302
GRIDFORMAT
  1
GRIDFORMAT_BEGIN
 90
        0
 91
        1
 62
     0
 92
       -2
340
0
 93
        0
 40
0.045
309
GRIDFORMAT_END
309
TABLEFORMAT_END
  1
CELLSTYLE_BEGIN
 90
        1
 91
        1
300
_TITLE
309
CELLSTYLE_END
300
CELLSTYLE
  1
TABLEFORMAT_BEGIN
 90
        5
170
     1
 91
        0
 92
        0
 62
   257
 93
        1
300
CONTENTFORMAT
  1
CONTENTFORMAT_BEGIN
 90
        0
 91
        0
 92
      512
 93
        0
300

 40
0.0
140
1.0
 94
        5
 62
     3
340
20B
144
3.5
309
CONTENTFORMAT_END
171
     1
301
MARGIN
  1
CELLMARGIN_BEGIN
 40
1.5
 40
1.5
 40
1.5
 40
1.5
 40
0.18
 40
0.18
309
CELLMARGIN_END
 94
        6
 95
        1
302
GRIDFORMAT
  1
GRIDFORMAT_BEGIN
 90
        0
 91
        1
 62
     0
 92
       -2
340
0
 93
        0
 40
0.045
309
GRIDFORMAT_END
 95
        2
302
GRIDFORMAT
  1
GRIDFORMAT_BEGIN
 90
        0
 91
        1
 62
     0
 92
       -2
340
0
 93
        0
 40
0.045
309
GRIDFORMAT_END
 95
        4
302
GRIDFORMAT
  1
GRIDFORMAT_BEGIN
 90
        0
 91
        1
 62
     0
 92
       -2
340
0
 93
        0
 40
0.045
309
GRIDFORMAT_END
 95
        8
302
GRIDFORMAT
  1
GRIDFORMAT_BEGIN
 90
        0
 91
        1
 62
     0
 92
       -2
340
0
 93
        0
 40
0.045
309
GRIDFORMAT_END
 95
       16
302
GRIDFORMAT
  1
GRIDFORMAT_BEGIN
 90
        0
 91
        1
 62
     0
 92
       -2
340
0
 93
        0
 40
0.045
309
GRIDFORMAT_END
 95
       32
302
GRIDFORMAT
  1
GRIDFORMAT_BEGIN
 90
        0
 91
        1
 62
     0
 92
       -2
340
0
 93
        0
 40
0.045
309
GRIDFORMAT_END
309
TABLEFORMAT_END
  1
CELLSTYLE_BEGIN
 90
        2
 91
        1
300
_HEADER
309
CELLSTYLE_END
300
CELLSTYLE
  1
TABLEFORMAT_BEGIN
 90
        5
170
     1
 91
        0
 92
        0
 62
   257
 93
        1
300
CONTENTFORMAT
  1
CONTENTFORMAT_BEGIN
 90
        0
 91
        0
 92
      512
 93
        0
300

 40
0.0
140
1.0
 94
        5
 62
     7
340
20B
144
3.0
309
CONTENTFORMAT_END
171
     1
301
MARGIN
  1
CELLMARGIN_BEGIN
 40
1.5
 40
1.5
 40
1.5
 40
1.5
 40
0.18
 40
0.18
309
CELLMARGIN_END
 94
        6
 95
        1
302
GRIDFORMAT
  1
GRIDFORMAT_BEGIN
 90
        0
 91
        1
 62
     0
 92
       -2
340
0
 93
        0
 40
0.045
309
GRIDFORMAT_END
 95
        2
302
GRIDFORMAT
  1
GRIDFORMAT_BEGIN
 90
        0
 91
        1
 62
     0
 92
       -2
340
0
 93
        0
 40
0.045
309
GRIDFORMAT_END
 95
        4
302
GRIDFORMAT
  1
GRIDFORMAT_BEGIN
 90
        0
 91
        1
 62
     0
 92
       -2
340
0
 93
        0
 40
0.045
309
GRIDFORMAT_END
 95
        8
302
GRIDFORMAT
  1
GRIDFORMAT_BEGIN
 90
        0
 91
        1
 62
     0
 92
       -2
340
0
 93
        0
 40
0.045
309
GRIDFORMAT_END
 95
       16
302
GRIDFORMAT
  1
GRIDFORMAT_BEGIN
 90
        0
 91
        1
 62
     0
 92
       -2
340
0
 93
        0
 40
0.045
309
GRIDFORMAT_END
 95
       32
302
GRIDFORMAT
  1
GRIDFORMAT_BEGIN
 90
        0
 91
        1
 62
     0
 92
       -2
340
0
 93
        0
 40
0.045
309
GRIDFORMAT_END
309
TABLEFORMAT_END
  1
CELLSTYLE_BEGIN
 90
        3
 91
        2
300
_DATA
309
CELLSTYLE_END
  0
XRECORD
  5
32F
102
{ACAD_REACTORS
330
21F
102
}
330
21F
100
AcDbXrecord
280
     1
102
ACAD_ROUNDTRIP_PRE2007_TABLESTYLE
 90
      512
 91
        0
  1

 92
      512
 93
        0
  2

 94
      512
 95
        0
  3

  0
CELLSTYLEMAP
  5
2F4
102
{ACAD_REACTORS
330
221
102
}
330
221
100
AcDbCellStyleMap
 90
        3
300
CELLSTYLE
  1
TABLEFORMAT_BEGIN
 90
        5
170
     1
 91
        0
 92
    32768
 62
   257
 93
        1
300
CONTENTFORMAT
  1
CONTENTFORMAT_BEGIN
 90
        0
 91
        0
 92
      512
 93
        0
300

 40
0.0
140
1.0
 94
        5
 62
     1
340
20B
144
6.0
309
CONTENTFORMAT_END
171
     1
301
MARGIN
  1
CELLMARGIN_BEGIN
 40
1.5
 40
1.5
 40
1.5
 40
1.5
 40
0.18
 40
0.18
309
CELLMARGIN_END
 94
        6
 95
        1
302
GRIDFORMAT
  1
GRIDFORMAT_BEGIN
 90
        0
 91
        1
 62
     0
 92
       -2
340
0
 93
        0
 40
0.045
309
GRIDFORMAT_END
 95
        2
302
GRIDFORMAT
  1
GRIDFORMAT_BEGIN
 90
        0
 91
        1
 62
     0
 92
       -2
340
0
 93
        0
 40
0.045
309
GRIDFORMAT_END
 95
        4
302
GRIDFORMAT
  1
GRIDFORMAT_BEGIN
 90
        0
 91
        1
 62
     0
 92
       -2
340
0
 93
        0
 40
0.045
309
GRIDFORMAT_END
 95
        8
302
GRIDFORMAT
  1
GRIDFORMAT_BEGIN
 90
        0
 91
        1
 62
     0
 92
       -2
340
0
 93
        0
 40
0.045
309
GRIDFORMAT_END
 95
       16
302
GRIDFORMAT
  1
GRIDFORMAT_BEGIN
 90
        0
 91
        1
 62
     0
 92
       -2
340
0
 93
        0
 40
0.045
309
GRIDFORMAT_END
 95
       32
302
GRIDFORMAT
  1
GRIDFORMAT_BEGIN
 90
        0
 91
        1
 62
     0
 92
       -2
340
0
 93
        0
 40
0.045
309
GRIDFORMAT_END
309
TABLEFORMAT_END
  1
CELLSTYLE_BEGIN
 90
        1
 91
        1
300
_TITLE
309
CELLSTYLE_END
300
CELLSTYLE
  1
TABLEFORMAT_BEGIN
 90
        5
170
     1
 91
        0
 92
        0
 62
   257
 93
        1
300
CONTENTFORMAT
  1
CONTENTFORMAT_BEGIN
 90
        0
 91
        0
 92
      512
 93
        0
300

 40
0.0
140
1.0
 94
        5
 62
     3
340
20B
144
5.0
309
CONTENTFORMAT_END
171
     1
301
MARGIN
  1
CELLMARGIN_BEGIN
 40
1.5
 40
1.5
 40
1.5
 40
1.5
 40
0.18
 40
0.18
309
CELLMARGIN_END
 94
        6
 95
        1
302
GRIDFORMAT
  1
GRIDFORMAT_BEGIN
 90
        0
 91
        1
 62
     0
 92
       -2
340
0
 93
        0
 40
0.045
309
GRIDFORMAT_END
 95
        2
302
GRIDFORMAT
  1
GRIDFORMAT_BEGIN
 90
        0
 91
        1
 62
     0
 92
       -2
340
0
 93
        0
 40
0.045
309
GRIDFORMAT_END
 95
        4
302
GRIDFORMAT
  1
GRIDFORMAT_BEGIN
 90
        0
 91
        1
 62
     0
 92
       -2
340
0
 93
        0
 40
0.045
309
GRIDFORMAT_END
 95
        8
302
GRIDFORMAT
  1
GRIDFORMAT_BEGIN
 90
        0
 91
        1
 62
     0
 92
       -2
340
0
 93
        0
 40
0.045
309
GRIDFORMAT_END
 95
       16
302
GRIDFORMAT
  1
GRIDFORMAT_BEGIN
 90
        0
 91
        1
 62
     0
 92
       -2
340
0
 93
        0
 40
0.045
309
GRIDFORMAT_END
 95
       32
302
GRIDFORMAT
  1
GRIDFORMAT_BEGIN
 90
        0
 91
        1
 62
     0
 92
       -2
340
0
 93
        0
 40
0.045
309
GRIDFORMAT_END
309
TABLEFORMAT_END
  1
CELLSTYLE_BEGIN
 90
        2
 91
        1
300
_HEADER
309
CELLSTYLE_END
300
CELLSTYLE
  1
TABLEFORMAT_BEGIN
 90
        5
170
     1
 91
        0
 92
        0
 62
   257
 93
        1
300
CONTENTFORMAT
  1
CONTENTFORMAT_BEGIN
 90
        0
 91
        0
 92
      512
 93
        0
300

 40
0.0
140
1.0
 94
        5
 62
     7
340
20B
144
4.5
309
CONTENTFORMAT_END
171
     1
301
MARGIN
  1
CELLMARGIN_BEGIN
 40
1.5
 40
1.5
 40
1.5
 40
1.5
 40
0.18
 40
0.18
309
CELLMARGIN_END
 94
        6
 95
        1
302
GRIDFORMAT
  1
GRIDFORMAT_BEGIN
 90
        0
 91
        1
 62
     0
 92
       -2
340
0
 93
        0
 40
0.045
309
GRIDFORMAT_END
 95
        2
302
GRIDFORMAT
  1
GRIDFORMAT_BEGIN
 90
        0
 91
        1
 62
     0
 92
       -2
340
0
 93
        0
 40
0.045
309
GRIDFORMAT_END
 95
        4
302
GRIDFORMAT
  1
GRIDFORMAT_BEGIN
 90
        0
 91
        1
 62
     0
 92
       -2
340
0
 93
        0
 40
0.045
309
GRIDFORMAT_END
 95
        8
302
GRIDFORMAT
  1
GRIDFORMAT_BEGIN
 90
        0
 91
        1
 62
     0
 92
       -2
340
0
 93
        0
 40
0.045
309
GRIDFORMAT_END
 95
       16
302
GRIDFORMAT
  1
GRIDFORMAT_BEGIN
 90
        0
 91
        1
 62
     0
 92
       -2
340
0
 93
        0
 40
0.045
309
GRIDFORMAT_END
 95
       32
302
GRIDFORMAT
  1
GRIDFORMAT_BEGIN
 90
        0
 91
        1
 62
     0
 92
       -2
340
0
 93
        0
 40
0.045
309
GRIDFORMAT_END
309
TABLEFORMAT_END
  1
CELLSTYLE_BEGIN
 90
        3
 91
        2
300
_DATA
309
CELLSTYLE_END
  0
XRECORD
  5
330
102
{ACAD_REACTORS
330
221
102
}
330
221
100
AcDbXrecord
280
     1
102
ACAD_ROUNDTRIP_PRE2007_TABLESTYLE
 90
      512
 91
        0
  1

 92
      512
 93
        0
  2

 94
      512
 95
        0
  3

  0
CELLSTYLEMAP
  5
2F2
102
{ACAD_REACTORS
330
24F
102
}
330
24F
100
AcDbCellStyleMap
 90
        3
300
CELLSTYLE
  1
TABLEFORMAT_BEGIN
 90
        5
170
     1
 91
        0
 92
    32768
 62
   257
 93
        1
300
CONTENTFORMAT
  1
CONTENTFORMAT_BEGIN
 90
        0
 91
        0
 92
      512
 93
        0
300

 40
0.0
140
1.0
 94
        5
 62
     0
340
17
144
0.25
309
CONTENTFORMAT_END
171
     0
 94
        0
309
TABLEFORMAT_END
  1
CELLSTYLE_BEGIN
 90
        1
 91
        1
300
_TITLE
309
CELLSTYLE_END
300
CELLSTYLE
  1
TABLEFORMAT_BEGIN
 90
        5
170
     1
 91
        0
 92
        0
 62
   257
 93
        1
300
CONTENTFORMAT
  1
CONTENTFORMAT_BEGIN
 90
        0
 91
        0
 92
      512
 93
        0
300

 40
0.0
140
1.0
 94
        5
 62
     0
340
17
144
0.18
309
CONTENTFORMAT_END
171
     0
 94
        0
309
TABLEFORMAT_END
  1
CELLSTYLE_BEGIN
 90
        2
 91
        1
300
_HEADER
309
CELLSTYLE_END
300
CELLSTYLE
  1
TABLEFORMAT_BEGIN
 90
        5
170
     1
 91
        0
 92
        0
 62
   257
 93
        1
300
CONTENTFORMAT
  1
CONTENTFORMAT_BEGIN
 90
        0
 91
        0
 92
      512
 93
        0
300

 40
0.0
140
1.0
 94
        2
 62
     0
340
17
144
0.18
309
CONTENTFORMAT_END
171
     0
 94
        0
309
TABLEFORMAT_END
  1
CELLSTYLE_BEGIN
 90
        3
 91
        2
300
_DATA
309
CELLSTYLE_END
  0
XRECORD
  5
324
102
{ACAD_REACTORS
330
24F
102
}
330
24F
100
AcDbXrecord
280
     1
102
ACAD_ROUNDTRIP_PRE2007_TABLESTYLE
 90
      512
 91
        0
  1

 92
      512
 93
        0
  2

 94
      512
 95
        0
  3

  0
XRECORD
  5
309
102
{ACAD_REACTORS
330
308
102
}
330
308
100
AcDbXrecord
280
     1
102
RTVSPropertyOp0
 70
     1
102
RTVSPropertyOp1
 70
     1
102
RTVSPropertyOp2
 70
     1
102
RTVSPropertyOp3
 70
     1
102
RTVSPropertyOp4
 70
     1
102
RTVSPropertyOp5
 70
     1
102
RTVSPropertyOp6
 70
     1
102
RTVSPropertyOp7
 70
     1
102
RTVSPropertyOp8
 70
     1
102
RTVSPropertyOp9
 70
     1
102
RTVSPropertyOp10
 70
     1
102
RTVSPropertyOp11
 70
     1
102
RTVSPropertyOp12
 70
     1
102
RTVSPropertyOp13
 70
     1
102
RTVSPropertyOp14
 70
     1
102
RTVSPropertyOp15
 70
     1
102
RTVSPropertyOp16
 70
     1
102
RTVSPropertyOp17
 70
     1
102
RTVSPropertyOp18
 70
     1
102
RTVSPropertyOp19
 70
     1
102
RTVSPropertyOp20
 70
     1
102
RTVSPropertyOp21
 70
     1
102
RTVSPropertyOp22
 70
     1
102
RTVSPropertyOp23
 70
     1
102
RTVSPropertyOp24
 70
     1
102
RTVSPropertyOp25
 70
     1
102
RTVSPropertyOp26
 70
     1
102
RTVSPropertyOp27
 70
     1
102
RTVSPropertyOp28
 70
     1
102
RTVSPropertyOp29
 70
     1
102
RTVSPropertyOp30
 70
     1
102
RTVSPropertyOp31
 70
     1
102
RTVSPropertyOp32
 70
     1
  0
XRECORD
  5
30D
102
{ACAD_REACTORS
330
30C
102
}
330
30C
100
AcDbXrecord
280
     1
102
RTVSPropertyOp0
 70
     1
102
RTVSPropertyOp1
 70
     1
102
RTVSPropertyOp2
 70
     1
102
RTVSPropertyOp3
 70
     1
102
RTVSPropertyOp4
 70
     1
102
RTVSPropertyOp5
 70
     1
102
RTVSPropertyOp6
 70
     1
102
RTVSPropertyOp7
 70
     1
102
RTVSPropertyOp8
 70
     1
102
RTVSPropertyOp9
 70
     1
102
RTVSPropertyOp10
 70
     1
102
RTVSPropertyOp11
 70
     1
102
RTVSPropertyOp12
 70
     1
102
RTVSPropertyOp13
 70
     1
102
RTVSPropertyOp14
 70
     1
102
RTVSPropertyOp15
 70
     1
102
RTVSPropertyOp16
 70
     1
102
RTVSPropertyOp17
 70
     1
102
RTVSPropertyOp18
 70
     1
102
RTVSPropertyOp19
 70
     1
102
RTVSPropertyOp20
 70
     1
102
RTVSPropertyOp21
 70
     1
102
RTVSPropertyOp22
 70
     1
102
RTVSPropertyOp23
 70
     1
102
RTVSPropertyOp24
 70
     1
102
RTVSPropertyOp25
 70
     1
102
RTVSPropertyOp26
 70
     1
102
RTVSPropertyOp27
 70
     1
102
RTVSPropertyOp28
 70
     1
102
RTVSPropertyOp29
 70
     1
102
RTVSPropertyOp30
 70
     1
102
RTVSPropertyOp31
 70
     1
102
RTVSPropertyOp32
 70
     1
  0
XRECORD
  5
30B
102
{ACAD_REACTORS
330
30A
102
}
330
30A
100
AcDbXrecord
280
     1
102
RTVSPropertyOp0
 70
     1
102
RTVSPropertyOp1
 70
     1
102
RTVSPropertyOp2
 70
     1
102
RTVSPropertyOp3
 70
     1
102
RTVSPropertyOp4
 70
     1
102
RTVSPropertyOp5
 70
     1
102
RTVSPropertyOp6
 70
     1
102
RTVSPropertyOp7
 70
     1
102
RTVSPropertyOp8
 70
     1
102
RTVSPropertyOp9
 70
     1
102
RTVSPropertyOp10
 70
     1
102
RTVSPropertyOp11
 70
     1
102
RTVSPropertyOp12
 70
     1
102
RTVSPropertyOp13
 70
     1
102
RTVSPropertyOp14
 70
     1
102
RTVSPropertyOp15
 70
     1
102
RTVSPropertyOp16
 70
     1
102
RTVSPropertyOp17
 70
     1
102
RTVSPropertyOp18
 70
     1
102
RTVSPropertyOp19
 70
     1
102
RTVSPropertyOp20
 70
     1
102
RTVSPropertyOp21
 70
     1
102
RTVSPropertyOp22
 70
     1
102
RTVSPropertyOp23
 70
     1
102
RTVSPropertyOp24
 70
     1
102
RTVSPropertyOp25
 70
     1
102
RTVSPropertyOp26
 70
     1
102
RTVSPropertyOp27
 70
     1
102
RTVSPropertyOp28
 70
     1
102
RTVSPropertyOp29
 70
     1
102
RTVSPropertyOp30
 70
     1
102
RTVSPropertyOp31
 70
     1
102
RTVSPropertyOp32
 70
     1
  0
XRECORD
  5
307
102
{ACAD_REACTORS
330
306
102
}
330
306
100
AcDbXrecord
280
     1
102
RTVSPropertyOp0
 70
     1
102
RTVSPropertyOp1
 70
     1
102
RTVSPropertyOp2
 70
     1
102
RTVSPropertyOp3
 70
     1
102
RTVSPropertyOp4
 70
     1
102
RTVSPropertyOp5
 70
     1
102
RTVSPropertyOp6
 70
     1
102
RTVSPropertyOp7
 70
     1
102
RTVSPropertyOp8
 70
     1
102
RTVSPropertyOp9
 70
     1
102
RTVSPropertyOp10
 70
     1
102
RTVSPropertyOp11
 70
     1
102
RTVSPropertyOp12
 70
     1
102
RTVSPropertyOp13
 70
     1
102
RTVSPropertyOp14
 70
     1
102
RTVSPropertyOp15
 70
     1
102
RTVSPropertyOp16
 70
     1
102
RTVSPropertyOp17
 70
     1
102
RTVSPropertyOp18
 70
     1
102
RTVSPropertyOp19
 70
     1
102
RTVSPropertyOp20
 70
     1
102
RTVSPropertyOp21
 70
     1
102
RTVSPropertyOp22
 70
     1
102
RTVSPropertyOp23
 70
     1
102
RTVSPropertyOp24
 70
     1
102
RTVSPropertyOp25
 70
     1
102
RTVSPropertyOp26
 70
     1
102
RTVSPropertyOp27
 70
     1
102
RTVSPropertyOp28
 70
     1
102
RTVSPropertyOp29
 70
     1
102
RTVSPropertyOp30
 70
     1
102
RTVSPropertyOp31
 70
     1
102
RTVSPropertyOp32
 70
     1
  0
XRECORD
  5
315
102
{ACAD_REACTORS
330
314
102
}
330
314
100
AcDbXrecord
280
     1
102
RTVSPropertyOp0
 70
     1
102
RTVSPropertyOp1
 70
     1
102
RTVSPropertyOp2
 70
     1
102
RTVSPropertyOp3
 70
     1
102
RTVSPropertyOp4
 70
     1
102
RTVSPropertyOp5
 70
     1
102
RTVSPropertyOp6
 70
     1
102
RTVSPropertyOp7
 70
     1
102
RTVSPropertyOp8
 70
     1
102
RTVSPropertyOp9
 70
     1
102
RTVSPropertyOp10
 70
     1
102
RTVSPropertyOp11
 70
     1
102
RTVSPropertyOp12
 70
     1
102
RTVSPropertyOp13
 70
     1
102
RTVSPropertyOp14
 70
     1
102
RTVSPropertyOp15
 70
     1
102
RTVSPropertyOp16
 70
     1
102
RTVSPropertyOp17
 70
     1
102
RTVSPropertyOp18
 70
     1
102
RTVSPropertyOp19
 70
     1
102
RTVSPropertyOp20
 70
     1
102
RTVSPropertyOp21
 70
     1
102
RTVSPropertyOp22
 70
     1
102
RTVSPropertyOp23
 70
     1
102
RTVSPropertyOp24
 70
     1
102
RTVSPropertyOp25
 70
     1
102
RTVSPropertyOp26
 70
     1
102
RTVSPropertyOp27
 70
     1
102
RTVSPropertyOp28
 70
     1
102
RTVSPropertyOp29
 70
     1
102
RTVSPropertyOp30
 70
     1
102
RTVSPropertyOp31
 70
     1
102
RTVSPropertyOp32
 70
     1
  0
XRECORD
  5
31D
102
{ACAD_REACTORS
330
31C
102
}
330
31C
100
AcDbXrecord
280
     1
102
RTVSPropertyOp0
 70
     1
102
RTVSPropertyOp1
 70
     1
102
RTVSPropertyOp2
 70
     1
102
RTVSPropertyOp3
 70
     1
102
RTVSPropertyOp4
 70
     1
102
RTVSPropertyOp5
 70
     1
102
RTVSPropertyOp6
 70
     1
102
RTVSPropertyOp7
 70
     1
102
RTVSPropertyOp8
 70
     1
102
RTVSPropertyOp9
 70
     1
102
RTVSPropertyOp10
 70
     1
102
RTVSPropertyOp11
 70
     1
102
RTVSPropertyOp12
 70
     1
102
RTVSPropertyOp13
 70
     1
102
RTVSPropertyOp14
 70
     1
102
RTVSPropertyOp15
 70
     1
102
RTVSPropertyOp16
 70
     1
102
RTVSPropertyOp17
 70
     1
102
RTVSPropertyOp18
 70
     1
102
RTVSPropertyOp19
 70
     1
102
RTVSPropertyOp20
 70
     1
102
RTVSPropertyOp21
 70
     1
102
RTVSPropertyOp22
 70
     1
102
RTVSPropertyOp23
 70
     1
102
RTVSPropertyOp24
 70
     1
102
RTVSPropertyOp25
 70
     1
102
RTVSPropertyOp26
 70
     1
102
RTVSPropertyOp27
 70
     1
102
RTVSPropertyOp28
 70
     1
102
RTVSPropertyOp29
 70
     1
102
RTVSPropertyOp30
 70
     1
102
RTVSPropertyOp31
 70
     1
102
RTVSPropertyOp32
 70
     1
  0
XRECORD
  5
30F
102
{ACAD_REACTORS
330
30E
102
}
330
30E
100
AcDbXrecord
280
     1
102
RTVSPropertyOp0
 70
     1
102
RTVSPropertyOp1
 70
     1
102
RTVSPropertyOp2
 70
     1
102
RTVSPropertyOp3
 70
     1
102
RTVSPropertyOp4
 70
     1
102
RTVSPropertyOp5
 70
     1
102
RTVSPropertyOp6
 70
     1
102
RTVSPropertyOp7
 70
     1
102
RTVSPropertyOp8
 70
     1
102
RTVSPropertyOp9
 70
     1
102
RTVSPropertyOp10
 70
     1
102
RTVSPropertyOp11
 70
     1
102
RTVSPropertyOp12
 70
     1
102
RTVSPropertyOp13
 70
     1
102
RTVSPropertyOp14
 70
     1
102
RTVSPropertyOp15
 70
     1
102
RTVSPropertyOp16
 70
     1
102
RTVSPropertyOp17
 70
     1
102
RTVSPropertyOp18
 70
     1
102
RTVSPropertyOp19
 70
     1
102
RTVSPropertyOp20
 70
     1
102
RTVSPropertyOp21
 70
     1
102
RTVSPropertyOp22
 70
     1
102
RTVSPropertyOp23
 70
     1
102
RTVSPropertyOp24
 70
     1
102
RTVSPropertyOp25
 70
     1
102
RTVSPropertyOp26
 70
     1
102
RTVSPropertyOp27
 70
     1
102
RTVSPropertyOp28
 70
     1
102
RTVSPropertyOp29
 70
     1
102
RTVSPropertyOp30
 70
     1
102
RTVSPropertyOp31
 70
     1
102
RTVSPropertyOp32
 70
     1
  0
XRECORD
  5
313
102
{ACAD_REACTORS
330
312
102
}
330
312
100
AcDbXrecord
280
     1
102
RTVSPropertyOp0
 70
     1
102
RTVSPropertyOp1
 70
     1
102
RTVSPropertyOp2
 70
     1
102
RTVSPropertyOp3
 70
     1
102
RTVSPropertyOp4
 70
     1
102
RTVSPropertyOp5
 70
     1
102
RTVSPropertyOp6
 70
     1
102
RTVSPropertyOp7
 70
     1
102
RTVSPropertyOp8
 70
     1
102
RTVSPropertyOp9
 70
     1
102
RTVSPropertyOp10
 70
     1
102
RTVSPropertyOp11
 70
     1
102
RTVSPropertyOp12
 70
     1
102
RTVSPropertyOp13
 70
     1
102
RTVSPropertyOp14
 70
     1
102
RTVSPropertyOp15
 70
     1
102
RTVSPropertyOp16
 70
     1
102
RTVSPropertyOp17
 70
     1
102
RTVSPropertyOp18
 70
     1
102
RTVSPropertyOp19
 70
     1
102
RTVSPropertyOp20
 70
     1
102
RTVSPropertyOp21
 70
     1
102
RTVSPropertyOp22
 70
     1
102
RTVSPropertyOp23
 70
     1
102
RTVSPropertyOp24
 70
     1
102
RTVSPropertyOp25
 70
     1
102
RTVSPropertyOp26
 70
     1
102
RTVSPropertyOp27
 70
     1
102
RTVSPropertyOp28
 70
     1
102
RTVSPropertyOp29
 70
     1
102
RTVSPropertyOp30
 70
     1
102
RTVSPropertyOp31
 70
     1
102
RTVSPropertyOp32
 70
     1
  0
XRECORD
  5
323
102
{ACAD_REACTORS
330
322
102
}
330
322
100
AcDbXrecord
280
     1
102
RTVSPropertyOp0
 70
     0
102
RTVSPropertyOp1
 70
     0
102
RTVSPropertyOp2
 70
     0
102
RTVSPropertyOp3
 70
     0
102
RTVSPropertyOp4
 70
     0
102
RTVSPropertyOp5
 70
     0
102
RTVSPropertyOp6
 70
     0
102
RTVSPropertyOp7
 70
     0
102
RTVSPropertyOp8
 70
     0
102
RTVSPropertyOp9
 70
     0
102
RTVSPropertyOp10
 70
     0
102
RTVSPropertyOp11
 70
     0
102
RTVSPropertyOp12
 70
     0
102
RTVSPropertyOp13
 70
     0
102
RTVSPropertyOp14
 70
     2
102
RTVSPropertyOp15
 70
     0
102
RTVSPropertyOp16
 70
     0
102
RTVSPropertyOp17
 70
     0
102
RTVSPropertyOp18
 70
     0
102
RTVSPropertyOp19
 70
     0
102
RTVSPropertyOp20
 70
     0
102
RTVSPropertyOp21
 70
     0
102
RTVSPropertyOp22
 70
     0
102
RTVSPropertyOp23
 70
     0
102
RTVSPropertyOp24
 70
     0
102
RTVSPropertyOp25
 70
     0
102
RTVSPropertyOp26
 70
     0
102
RTVSPropertyOp27
 70
     0
102
RTVSPropertyOp28
 70
     1
102
RTVSPropertyOp29
 70
     1
102
RTVSPropertyOp30
 70
     1
102
RTVSPropertyOp31
 70
     1
102
RTVSPropertyOp32
 70
     1
  0
XRECORD
  5
31B
102
{ACAD_REACTORS
330
31A
102
}
330
31A
100
AcDbXrecord
280
     1
102
RTVSPropertyOp0
 70
     1
102
RTVSPropertyOp1
 70
     1
102
RTVSPropertyOp2
 70
     1
102
RTVSPropertyOp3
 70
     1
102
RTVSPropertyOp4
 70
     1
102
RTVSPropertyOp5
 70
     1
102
RTVSPropertyOp6
 70
     1
102
RTVSPropertyOp7
 70
     1
102
RTVSPropertyOp8
 70
     1
102
RTVSPropertyOp9
 70
     1
102
RTVSPropertyOp10
 70
     1
102
RTVSPropertyOp11
 70
     1
102
RTVSPropertyOp12
 70
     1
102
RTVSPropertyOp13
 70
     1
102
RTVSPropertyOp14
 70
     1
102
RTVSPropertyOp15
 70
     1
102
RTVSPropertyOp16
 70
     1
102
RTVSPropertyOp17
 70
     1
102
RTVSPropertyOp18
 70
     1
102
RTVSPropertyOp19
 70
     1
102
RTVSPropertyOp20
 70
     1
102
RTVSPropertyOp21
 70
     1
102
RTVSPropertyOp22
 70
     1
102
RTVSPropertyOp23
 70
     1
102
RTVSPropertyOp24
 70
     1
102
RTVSPropertyOp25
 70
     1
102
RTVSPropertyOp26
 70
     1
102
RTVSPropertyOp27
 70
     1
102
RTVSPropertyOp28
 70
     1
102
RTVSPropertyOp29
 70
     1
102
RTVSPropertyOp30
 70
     1
102
RTVSPropertyOp31
 70
     1
102
RTVSPropertyOp32
 70
     1
  0
XRECORD
  5
2FF
102
{ACAD_REACTORS
330
2FE
102
}
330
2FE
100
AcDbXrecord
280
     1
102
RTVSPropertyOp0
 70
     1
102
RTVSPropertyOp1
 70
     1
102
RTVSPropertyOp2
 70
     1
102
RTVSPropertyOp3
 70
     1
102
RTVSPropertyOp4
 70
     1
102
RTVSPropertyOp5
 70
     1
102
RTVSPropertyOp6
 70
     1
102
RTVSPropertyOp7
 70
     1
102
RTVSPropertyOp8
 70
     1
102
RTVSPropertyOp9
 70
     1
102
RTVSPropertyOp10
 70
     1
102
RTVSPropertyOp11
 70
     1
102
RTVSPropertyOp12
 70
     1
102
RTVSPropertyOp13
 70
     1
102
RTVSPropertyOp14
 70
     1
102
RTVSPropertyOp15
 70
     1
102
RTVSPropertyOp16
 70
     1
102
RTVSPropertyOp17
 70
     1
102
RTVSPropertyOp18
 70
     1
102
RTVSPropertyOp19
 70
     1
102
RTVSPropertyOp20
 70
     1
102
RTVSPropertyOp21
 70
     1
102
RTVSPropertyOp22
 70
     1
102
RTVSPropertyOp23
 70
     1
102
RTVSPropertyOp24
 70
     1
102
RTVSPropertyOp25
 70
     1
102
RTVSPropertyOp26
 70
     1
102
RTVSPropertyOp27
 70
     1
102
RTVSPropertyOp28
 70
     1
102
RTVSPropertyOp29
 70
     1
102
RTVSPropertyOp30
 70
     1
102
RTVSPropertyOp31
 70
     1
102
RTVSPropertyOp32
 70
     1
  0
XRECORD
  5
301
102
{ACAD_REACTORS
330
300
102
}
330
300
100
AcDbXrecord
280
     1
102
RTVSPropertyOp0
 70
     1
102
RTVSPropertyOp1
 70
     1
102
RTVSPropertyOp2
 70
     1
102
RTVSPropertyOp3
 70
     1
102
RTVSPropertyOp4
 70
     1
102
RTVSPropertyOp5
 70
     1
102
RTVSPropertyOp6
 70
     1
102
RTVSPropertyOp7
 70
     1
102
RTVSPropertyOp8
 70
     1
102
RTVSPropertyOp9
 70
     1
102
RTVSPropertyOp10
 70
     1
102
RTVSPropertyOp11
 70
     1
102
RTVSPropertyOp12
 70
     1
102
RTVSPropertyOp13
 70
     1
102
RTVSPropertyOp14
 70
     1
102
RTVSPropertyOp15
 70
     1
102
RTVSPropertyOp16
 70
     1
102
RTVSPropertyOp17
 70
     1
102
RTVSPropertyOp18
 70
     1
102
RTVSPropertyOp19
 70
     1
102
RTVSPropertyOp20
 70
     1
102
RTVSPropertyOp21
 70
     1
102
RTVSPropertyOp22
 70
     1
102
RTVSPropertyOp23
 70
     1
102
RTVSPropertyOp24
 70
     1
102
RTVSPropertyOp25
 70
     1
102
RTVSPropertyOp26
 70
     1
102
RTVSPropertyOp27
 70
     1
102
RTVSPropertyOp28
 70
     1
102
RTVSPropertyOp29
 70
     1
102
RTVSPropertyOp30
 70
     1
102
RTVSPropertyOp31
 70
     1
102
RTVSPropertyOp32
 70
     1
  0
XRECORD
  5
303
102
{ACAD_REACTORS
330
302
102
}
330
302
100
AcDbXrecord
280
     1
102
RTVSPropertyOp0
 70
     1
102
RTVSPropertyOp1
 70
     1
102
RTVSPropertyOp2
 70
     1
102
RTVSPropertyOp3
 70
     1
102
RTVSPropertyOp4
 70
     1
102
RTVSPropertyOp5
 70
     1
102
RTVSPropertyOp6
 70
     1
102
RTVSPropertyOp7
 70
     1
102
RTVSPropertyOp8
 70
     1
102
RTVSPropertyOp9
 70
     1
102
RTVSPropertyOp10
 70
     1
102
RTVSPropertyOp11
 70
     1
102
RTVSPropertyOp12
 70
     1
102
RTVSPropertyOp13
 70
     1
102
RTVSPropertyOp14
 70
     1
102
RTVSPropertyOp15
 70
     1
102
RTVSPropertyOp16
 70
     1
102
RTVSPropertyOp17
 70
     1
102
RTVSPropertyOp18
 70
     1
102
RTVSPropertyOp19
 70
     1
102
RTVSPropertyOp20
 70
     1
102
RTVSPropertyOp21
 70
     1
102
RTVSPropertyOp22
 70
     1
102
RTVSPropertyOp23
 70
     1
102
RTVSPropertyOp24
 70
     1
102
RTVSPropertyOp25
 70
     1
102
RTVSPropertyOp26
 70
     1
102
RTVSPropertyOp27
 70
     1
102
RTVSPropertyOp28
 70
     1
102
RTVSPropertyOp29
 70
     1
102
RTVSPropertyOp30
 70
     1
102
RTVSPropertyOp31
 70
     1
102
RTVSPropertyOp32
 70
     1
  0
XRECORD
  5
305
102
{ACAD_REACTORS
330
304
102
}
330
304
100
AcDbXrecord
280
     1
102
RTVSPropertyOp0
 70
     1
102
RTVSPropertyOp1
 70
     1
102
RTVSPropertyOp2
 70
     1
102
RTVSPropertyOp3
 70
     1
102
RTVSPropertyOp4
 70
     1
102
RTVSPropertyOp5
 70
     1
102
RTVSPropertyOp6
 70
     1
102
RTVSPropertyOp7
 70
     1
102
RTVSPropertyOp8
 70
     1
102
RTVSPropertyOp9
 70
     1
102
RTVSPropertyOp10
 70
     1
102
RTVSPropertyOp11
 70
     1
102
RTVSPropertyOp12
 70
     1
102
RTVSPropertyOp13
 70
     1
102
RTVSPropertyOp14
 70
     1
102
RTVSPropertyOp15
 70
     1
102
RTVSPropertyOp16
 70
     1
102
RTVSPropertyOp17
 70
     1
102
RTVSPropertyOp18
 70
     1
102
RTVSPropertyOp19
 70
     1
102
RTVSPropertyOp20
 70
     1
102
RTVSPropertyOp21
 70
     1
102
RTVSPropertyOp22
 70
     1
102
RTVSPropertyOp23
 70
     1
102
RTVSPropertyOp24
 70
     1
102
RTVSPropertyOp25
 70
     1
102
RTVSPropertyOp26
 70
     1
102
RTVSPropertyOp27
 70
     1
102
RTVSPropertyOp28
 70
     1
102
RTVSPropertyOp29
 70
     1
102
RTVSPropertyOp30
 70
     1
102
RTVSPropertyOp31
 70
     1
102
RTVSPropertyOp32
 70
     1
  0
XRECORD
  5
334
102
{ACAD_REACTORS
330
333
102
}
330
333
100
AcDbXrecord
280
     1
102
RTVSPropertyOp0
 70
     1
102
RTVSPropertyOp1
 70
     1
102
RTVSPropertyOp2
 70
     1
102
RTVSPropertyOp3
 70
     1
102
RTVSPropertyOp4
 70
     1
102
RTVSPropertyOp5
 70
     1
102
RTVSPropertyOp6
 70
     1
102
RTVSPropertyOp7
 70
     1
102
RTVSPropertyOp8
 70
     1
102
RTVSPropertyOp9
 70
     1
102
RTVSPropertyOp10
 70
     1
102
RTVSPropertyOp11
 70
     1
102
RTVSPropertyOp12
 70
     1
102
RTVSPropertyOp13
 70
     1
102
RTVSPropertyOp14
 70
     1
102
RTVSPropertyOp15
 70
     1
102
RTVSPropertyOp16
 70
     1
102
RTVSPropertyOp17
 70
     1
102
RTVSPropertyOp18
 70
     1
102
RTVSPropertyOp19
 70
     1
102
RTVSPropertyOp20
 70
     1
102
RTVSPropertyOp21
 70
     1
102
RTVSPropertyOp22
 70
     1
102
RTVSPropertyOp23
 70
     1
102
RTVSPropertyOp24
 70
     1
102
RTVSPropertyOp25
 70
     1
102
RTVSPropertyOp26
 70
     1
102
RTVSPropertyOp27
 70
     1
102
RTVSPropertyOp28
 70
     1
102
RTVSPropertyOp29
 70
     1
102
RTVSPropertyOp30
 70
     1
102
RTVSPropertyOp31
 70
     1
102
RTVSPropertyOp32
 70
     1
  0
XRECORD
  5
31F
102
{ACAD_REACTORS
330
31E
102
}
330
31E
100
AcDbXrecord
280
     1
102
RTVSPropertyOp0
 70
     0
102
RTVSPropertyOp1
 70
     0
102
RTVSPropertyOp2
 70
     0
102
RTVSPropertyOp3
 70
     0
102
RTVSPropertyOp4
 70
     0
102
RTVSPropertyOp5
 70
     0
102
RTVSPropertyOp6
 70
     0
102
RTVSPropertyOp7
 70
     0
102
RTVSPropertyOp8
 70
     0
102
RTVSPropertyOp9
 70
     0
102
RTVSPropertyOp10
 70
     0
102
RTVSPropertyOp11
 70
     0
102
RTVSPropertyOp12
 70
     0
102
RTVSPropertyOp13
 70
     0
102
RTVSPropertyOp14
 70
     2
102
RTVSPropertyOp15
 70
     0
102
RTVSPropertyOp16
 70
     0
102
RTVSPropertyOp17
 70
     0
102
RTVSPropertyOp18
 70
     0
102
RTVSPropertyOp19
 70
     0
102
RTVSPropertyOp20
 70
     0
102
RTVSPropertyOp21
 70
     0
102
RTVSPropertyOp22
 70
     0
102
RTVSPropertyOp23
 70
     0
102
RTVSPropertyOp24
 70
     0
102
RTVSPropertyOp25
 70
     0
102
RTVSPropertyOp26
 70
     0
102
RTVSPropertyOp27
 70
     0
102
RTVSPropertyOp28
 70
     1
102
RTVSPropertyOp29
 70
     1
102
RTVSPropertyOp30
 70
     1
102
RTVSPropertyOp31
 70
     1
102
RTVSPropertyOp32
 70
     1
  0
XRECORD
  5
319
102
{ACAD_REACTORS
330
318
102
}
330
318
100
AcDbXrecord
280
     1
102
RTVSPropertyOp0
 70
     1
102
RTVSPropertyOp1
 70
     1
102
RTVSPropertyOp2
 70
     1
102
RTVSPropertyOp3
 70
     1
102
RTVSPropertyOp4
 70
     1
102
RTVSPropertyOp5
 70
     1
102
RTVSPropertyOp6
 70
     1
102
RTVSPropertyOp7
 70
     1
102
RTVSPropertyOp8
 70
     1
102
RTVSPropertyOp9
 70
     1
102
RTVSPropertyOp10
 70
     1
102
RTVSPropertyOp11
 70
     1
102
RTVSPropertyOp12
 70
     1
102
RTVSPropertyOp13
 70
     1
102
RTVSPropertyOp14
 70
     1
102
RTVSPropertyOp15
 70
     1
102
RTVSPropertyOp16
 70
     1
102
RTVSPropertyOp17
 70
     1
102
RTVSPropertyOp18
 70
     1
102
RTVSPropertyOp19
 70
     1
102
RTVSPropertyOp20
 70
     1
102
RTVSPropertyOp21
 70
     1
102
RTVSPropertyOp22
 70
     1
102
RTVSPropertyOp23
 70
     1
102
RTVSPropertyOp24
 70
     1
102
RTVSPropertyOp25
 70
     1
102
RTVSPropertyOp26
 70
     1
102
RTVSPropertyOp27
 70
     1
102
RTVSPropertyOp28
 70
     1
102
RTVSPropertyOp29
 70
     1
102
RTVSPropertyOp30
 70
     1
102
RTVSPropertyOp31
 70
     1
102
RTVSPropertyOp32
 70
     1
  0
XRECORD
  5
321
102
{ACAD_REACTORS
330
320
102
}
330
320
100
AcDbXrecord
280
     1
102
RTVSPropertyOp0
 70
     0
102
RTVSPropertyOp1
 70
     0
102
RTVSPropertyOp2
 70
     0
102
RTVSPropertyOp3
 70
     0
102
RTVSPropertyOp4
 70
     0
102
RTVSPropertyOp5
 70
     0
102
RTVSPropertyOp6
 70
     0
102
RTVSPropertyOp7
 70
     0
102
RTVSPropertyOp8
 70
     0
102
RTVSPropertyOp9
 70
     0
102
RTVSPropertyOp10
 70
     0
102
RTVSPropertyOp11
 70
     0
102
RTVSPropertyOp12
 70
     0
102
RTVSPropertyOp13
 70
     0
102
RTVSPropertyOp14
 70
     2
102
RTVSPropertyOp15
 70
     0
102
RTVSPropertyOp16
 70
     0
102
RTVSPropertyOp17
 70
     0
102
RTVSPropertyOp18
 70
     0
102
RTVSPropertyOp19
 70
     0
102
RTVSPropertyOp20
 70
     0
102
RTVSPropertyOp21
 70
     0
102
RTVSPropertyOp22
 70
     0
102
RTVSPropertyOp23
 70
     0
102
RTVSPropertyOp24
 70
     0
102
RTVSPropertyOp25
 70
     0
102
RTVSPropertyOp26
 70
     0
102
RTVSPropertyOp27
 70
     0
102
RTVSPropertyOp28
 70
     1
102
RTVSPropertyOp29
 70
     1
102
RTVSPropertyOp30
 70
     1
102
RTVSPropertyOp31
 70
     1
102
RTVSPropertyOp32
 70
     1
  0
XRECORD
  5
311
102
{ACAD_REACTORS
330
310
102
}
330
310
100
AcDbXrecord
280
     1
102
RTVSPropertyOp0
 70
     1
102
RTVSPropertyOp1
 70
     1
102
RTVSPropertyOp2
 70
     1
102
RTVSPropertyOp3
 70
     1
102
RTVSPropertyOp4
 70
     1
102
RTVSPropertyOp5
 70
     1
102
RTVSPropertyOp6
 70
     1
102
RTVSPropertyOp7
 70
     1
102
RTVSPropertyOp8
 70
     1
102
RTVSPropertyOp9
 70
     1
102
RTVSPropertyOp10
 70
     1
102
RTVSPropertyOp11
 70
     1
102
RTVSPropertyOp12
 70
     1
102
RTVSPropertyOp13
 70
     1
102
RTVSPropertyOp14
 70
     1
102
RTVSPropertyOp15
 70
     1
102
RTVSPropertyOp16
 70
     1
102
RTVSPropertyOp17
 70
     1
102
RTVSPropertyOp18
 70
     1
102
RTVSPropertyOp19
 70
     1
102
RTVSPropertyOp20
 70
     1
102
RTVSPropertyOp21
 70
     1
102
RTVSPropertyOp22
 70
     1
102
RTVSPropertyOp23
 70
     1
102
RTVSPropertyOp24
 70
     1
102
RTVSPropertyOp25
 70
     1
102
RTVSPropertyOp26
 70
     1
102
RTVSPropertyOp27
 70
     1
102
RTVSPropertyOp28
 70
     1
102
RTVSPropertyOp29
 70
     1
102
RTVSPropertyOp30
 70
     1
102
RTVSPropertyOp31
 70
     1
102
RTVSPropertyOp32
 70
     1
  0
XRECORD
  5
33E
102
{ACAD_REACTORS
330
33D
102
}
330
33D
100
AcDbXrecord
280
     1
102
RTVSPropertyOp0
 70
     1
102
RTVSPropertyOp1
 70
     1
102
RTVSPropertyOp2
 70
     1
102
RTVSPropertyOp3
 70
     1
102
RTVSPropertyOp4
 70
     1
102
RTVSPropertyOp5
 70
     1
102
RTVSPropertyOp6
 70
     1
102
RTVSPropertyOp7
 70
     1
102
RTVSPropertyOp8
 70
     1
102
RTVSPropertyOp9
 70
     1
102
RTVSPropertyOp10
 70
     1
102
RTVSPropertyOp11
 70
     1
102
RTVSPropertyOp12
 70
     1
102
RTVSPropertyOp13
 70
     1
102
RTVSPropertyOp14
 70
     1
102
RTVSPropertyOp15
 70
     1
102
RTVSPropertyOp16
 70
     1
102
RTVSPropertyOp17
 70
     1
102
RTVSPropertyOp18
 70
     1
102
RTVSPropertyOp19
 70
     1
102
RTVSPropertyOp20
 70
     1
102
RTVSPropertyOp21
 70
     1
102
RTVSPropertyOp22
 70
     1
102
RTVSPropertyOp23
 70
     1
102
RTVSPropertyOp24
 70
     1
102
RTVSPropertyOp25
 70
     1
102
RTVSPropertyOp26
 70
     1
102
RTVSPropertyOp27
 70
     1
102
RTVSPropertyOp28
 70
     1
102
RTVSPropertyOp29
 70
     1
102
RTVSPropertyOp30
 70
     1
102
RTVSPropertyOp31
 70
     1
102
RTVSPropertyOp32
 70
     1
  0
XRECORD
  5
33C
102
{ACAD_REACTORS
330
33B
102
}
330
33B
100
AcDbXrecord
280
     1
102
RTVSPropertyOp0
 70
     1
102
RTVSPropertyOp1
 70
     1
102
RTVSPropertyOp2
 70
     1
102
RTVSPropertyOp3
 70
     1
102
RTVSPropertyOp4
 70
     1
102
RTVSPropertyOp5
 70
     1
102
RTVSPropertyOp6
 70
     1
102
RTVSPropertyOp7
 70
     1
102
RTVSPropertyOp8
 70
     1
102
RTVSPropertyOp9
 70
     1
102
RTVSPropertyOp10
 70
     1
102
RTVSPropertyOp11
 70
     1
102
RTVSPropertyOp12
 70
     1
102
RTVSPropertyOp13
 70
     1
102
RTVSPropertyOp14
 70
     1
102
RTVSPropertyOp15
 70
     1
102
RTVSPropertyOp16
 70
     1
102
RTVSPropertyOp17
 70
     1
102
RTVSPropertyOp18
 70
     1
102
RTVSPropertyOp19
 70
     1
102
RTVSPropertyOp20
 70
     1
102
RTVSPropertyOp21
 70
     1
102
RTVSPropertyOp22
 70
     1
102
RTVSPropertyOp23
 70
     1
102
RTVSPropertyOp24
 70
     1
102
RTVSPropertyOp25
 70
     1
102
RTVSPropertyOp26
 70
     1
102
RTVSPropertyOp27
 70
     1
102
RTVSPropertyOp28
 70
     1
102
RTVSPropertyOp29
 70
     1
102
RTVSPropertyOp30
 70
     1
102
RTVSPropertyOp31
 70
     1
102
RTVSPropertyOp32
 70
     1
  0
XRECORD
  5
336
102
{ACAD_REACTORS
330
335
102
}
330
335
100
AcDbXrecord
280
     1
102
RTVSPropertyOp0
 70
     1
102
RTVSPropertyOp1
 70
     1
102
RTVSPropertyOp2
 70
     1
102
RTVSPropertyOp3
 70
     1
102
RTVSPropertyOp4
 70
     1
102
RTVSPropertyOp5
 70
     1
102
RTVSPropertyOp6
 70
     1
102
RTVSPropertyOp7
 70
     1
102
RTVSPropertyOp8
 70
     1
102
RTVSPropertyOp9
 70
     1
102
RTVSPropertyOp10
 70
     1
102
RTVSPropertyOp11
 70
     1
102
RTVSPropertyOp12
 70
     1
102
RTVSPropertyOp13
 70
     1
102
RTVSPropertyOp14
 70
     1
102
RTVSPropertyOp15
 70
     1
102
RTVSPropertyOp16
 70
     1
102
RTVSPropertyOp17
 70
     1
102
RTVSPropertyOp18
 70
     1
102
RTVSPropertyOp19
 70
     1
102
RTVSPropertyOp20
 70
     1
102
RTVSPropertyOp21
 70
     1
102
RTVSPropertyOp22
 70
     1
102
RTVSPropertyOp23
 70
     1
102
RTVSPropertyOp24
 70
     1
102
RTVSPropertyOp25
 70
     1
102
RTVSPropertyOp26
 70
     1
102
RTVSPropertyOp27
 70
     1
102
RTVSPropertyOp28
 70
     1
102
RTVSPropertyOp29
 70
     1
102
RTVSPropertyOp30
 70
     1
102
RTVSPropertyOp31
 70
     1
102
RTVSPropertyOp32
 70
     1
  0
XRECORD
  5
338
102
{ACAD_REACTORS
330
337
102
}
330
337
100
AcDbXrecord
280
     1
102
RTVSPropertyOp0
 70
     1
102
RTVSPropertyOp1
 70
     1
102
RTVSPropertyOp2
 70
     1
102
RTVSPropertyOp3
 70
     1
102
RTVSPropertyOp4
 70
     1
102
RTVSPropertyOp5
 70
     1
102
RTVSPropertyOp6
 70
     1
102
RTVSPropertyOp7
 70
     1
102
RTVSPropertyOp8
 70
     1
102
RTVSPropertyOp9
 70
     1
102
RTVSPropertyOp10
 70
     1
102
RTVSPropertyOp11
 70
     1
102
RTVSPropertyOp12
 70
     1
102
RTVSPropertyOp13
 70
     1
102
RTVSPropertyOp14
 70
     1
102
RTVSPropertyOp15
 70
     1
102
RTVSPropertyOp16
 70
     1
102
RTVSPropertyOp17
 70
     1
102
RTVSPropertyOp18
 70
     1
102
RTVSPropertyOp19
 70
     1
102
RTVSPropertyOp20
 70
     1
102
RTVSPropertyOp21
 70
     1
102
RTVSPropertyOp22
 70
     1
102
RTVSPropertyOp23
 70
     1
102
RTVSPropertyOp24
 70
     1
102
RTVSPropertyOp25
 70
     1
102
RTVSPropertyOp26
 70
     1
102
RTVSPropertyOp27
 70
     1
102
RTVSPropertyOp28
 70
     1
102
RTVSPropertyOp29
 70
     1
102
RTVSPropertyOp30
 70
     1
102
RTVSPropertyOp31
 70
     1
102
RTVSPropertyOp32
 70
     1
  0
XRECORD
  5
317
102
{ACAD_REACTORS
330
316
102
}
330
316
100
AcDbXrecord
280
     1
102
RTVSPropertyOp0
 70
     1
102
RTVSPropertyOp1
 70
     1
102
RTVSPropertyOp2
 70
     1
102
RTVSPropertyOp3
 70
     1
102
RTVSPropertyOp4
 70
     1
102
RTVSPropertyOp5
 70
     1
102
RTVSPropertyOp6
 70
     1
102
RTVSPropertyOp7
 70
     1
102
RTVSPropertyOp8
 70
     1
102
RTVSPropertyOp9
 70
     1
102
RTVSPropertyOp10
 70
     1
102
RTVSPropertyOp11
 70
     1
102
RTVSPropertyOp12
 70
     1
102
RTVSPropertyOp13
 70
     1
102
RTVSPropertyOp14
 70
     1
102
RTVSPropertyOp15
 70
     1
102
RTVSPropertyOp16
 70
     1
102
RTVSPropertyOp17
 70
     1
102
RTVSPropertyOp18
 70
     1
102
RTVSPropertyOp19
 70
     1
102
RTVSPropertyOp20
 70
     1
102
RTVSPropertyOp21
 70
     1
102
RTVSPropertyOp22
 70
     1
102
RTVSPropertyOp23
 70
     1
102
RTVSPropertyOp24
 70
     1
102
RTVSPropertyOp25
 70
     1
102
RTVSPropertyOp26
 70
     1
102
RTVSPropertyOp27
 70
     1
102
RTVSPropertyOp28
 70
     1
102
RTVSPropertyOp29
 70
     1
102
RTVSPropertyOp30
 70
     1
102
RTVSPropertyOp31
 70
     1
102
RTVSPropertyOp32
 70
     1
  0
XRECORD
  5
332
102
{ACAD_REACTORS
330
331
102
}
330
331
100
AcDbXrecord
280
     1
102
RTVSPropertyOp0
 70
     1
102
RTVSPropertyOp1
 70
     1
102
RTVSPropertyOp2
 70
     1
102
RTVSPropertyOp3
 70
     1
102
RTVSPropertyOp4
 70
     1
102
RTVSPropertyOp5
 70
     1
102
RTVSPropertyOp6
 70
     1
102
RTVSPropertyOp7
 70
     1
102
RTVSPropertyOp8
 70
     1
102
RTVSPropertyOp9
 70
     1
102
RTVSPropertyOp10
 70
     1
102
RTVSPropertyOp11
 70
     1
102
RTVSPropertyOp12
 70
     1
102
RTVSPropertyOp13
 70
     1
102
RTVSPropertyOp14
 70
     1
102
RTVSPropertyOp15
 70
     1
102
RTVSPropertyOp16
 70
     1
102
RTVSPropertyOp17
 70
     1
102
RTVSPropertyOp18
 70
     1
102
RTVSPropertyOp19
 70
     1
102
RTVSPropertyOp20
 70
     1
102
RTVSPropertyOp21
 70
     1
102
RTVSPropertyOp22
 70
     1
102
RTVSPropertyOp23
 70
     1
102
RTVSPropertyOp24
 70
     1
102
RTVSPropertyOp25
 70
     1
102
RTVSPropertyOp26
 70
     1
102
RTVSPropertyOp27
 70
     1
102
RTVSPropertyOp28
 70
     1
102
RTVSPropertyOp29
 70
     1
102
RTVSPropertyOp30
 70
     1
102
RTVSPropertyOp31
 70
     1
102
RTVSPropertyOp32
 70
     1
  0
XRECORD
  5
33A
102
{ACAD_REACTORS
330
339
102
}
330
339
100
AcDbXrecord
280
     1
102
RTVSPropertyOp0
 70
     1
102
RTVSPropertyOp1
 70
     1
102
RTVSPropertyOp2
 70
     1
102
RTVSPropertyOp3
 70
     1
102
RTVSPropertyOp4
 70
     1
102
RTVSPropertyOp5
 70
     1
102
RTVSPropertyOp6
 70
     1
102
RTVSPropertyOp7
 70
     1
102
RTVSPropertyOp8
 70
     1
102
RTVSPropertyOp9
 70
     1
102
RTVSPropertyOp10
 70
     1
102
RTVSPropertyOp11
 70
     1
102
RTVSPropertyOp12
 70
     1
102
RTVSPropertyOp13
 70
     1
102
RTVSPropertyOp14
 70
     1
102
RTVSPropertyOp15
 70
     1
102
RTVSPropertyOp16
 70
     1
102
RTVSPropertyOp17
 70
     1
102
RTVSPropertyOp18
 70
     1
102
RTVSPropertyOp19
 70
     1
102
RTVSPropertyOp20
 70
     1
102
RTVSPropertyOp21
 70
     1
102
RTVSPropertyOp22
 70
     1
102
RTVSPropertyOp23
 70
     1
102
RTVSPropertyOp24
 70
     1
102
RTVSPropertyOp25
 70
     1
102
RTVSPropertyOp26
 70
     1
102
RTVSPropertyOp27
 70
     1
102
RTVSPropertyOp28
 70
     1
102
RTVSPropertyOp29
 70
     1
102
RTVSPropertyOp30
 70
     1
102
RTVSPropertyOp31
 70
     1
102
RTVSPropertyOp32
 70
     1
  0
ENDSEC
  0
EOF
