  0
SECTION
  2
HEADER
  9
$ACADVER
  1
AC1015
  9
$ACADMAINTVER
 70
    20
  9
$DWGCODEPAGE
  3
ANSI_1252
  9
$INSBASE
 10
0.0
 20
0.0
 30
0.0
  9
$EXTMIN
 10
-21.39423008823815
 20
-19.09277778892688
 30
0.0
  9
$EXTMAX
 10
200.0065154229611
 20
287.6348267953136
 30
0.0
  9
$LIMMIN
 10
0.0
 20
0.0
  9
$LIMMAX
 10
210.0
 20
297.0
  9
$ORTHOMODE
 70
     0
  9
$REGENMODE
 70
     1
  9
$FILLMODE
 70
     1
  9
$QTEXTMODE
 70
     0
  9
$MIRRTEXT
 70
     1
  9
$LTSCALE
 40
25.4
  9
$ATTMODE
 70
     1
  9
$TEXTSIZE
 40
0.2
  9
$TRACEWID
 40
0.05
  9
$TEXTSTYLE
  7
Standard
  9
$CLAYER
  8
P-0000
  9
$CELTYPE
  6
CONTINUOUS
  9
$CECOLOR
 62
   256
  9
$CELTSCALE
 40
1.0
  9
$DISPSILH
 70
     0
  9
$DIMSCALE
 40
1.0
  9
$DIMASZ
 40
0.18
  9
$DIMEXO
 40
0.0625
  9
$DIMDLI
 40
0.38
  9
$DIMRND
 40
0.0
  9
$DIMDLE
 40
0.0
  9
$DIMEXE
 40
0.18
  9
$DIMTP
 40
0.0
  9
$DIMTM
 40
0.0
  9
$DIMTXT
 40
0.18
  9
$DIMCEN
 40
0.09
  9
$DIMTSZ
 40
0.0
  9
$DIMTOL
 70
     0
  9
$DIMLIM
 70
     0
  9
$DIMTIH
 70
     1
  9
$DIMTOH
 70
     1
  9
$DIMSE1
 70
     0
  9
$DIMSE2
 70
     0
  9
$DIMTAD
 70
     0
  9
$DIMZIN
 70
     0
  9
$DIMBLK
  1

  9
$DIMASO
 70
     1
  9
$DIMSHO
 70
     1
  9
$DIMPOST
  1

  9
$DIMAPOST
  1

  9
$DIMALT
 70
     0
  9
$DIMALTD
 70
     2
  9
$DIMALTF
 40
25.4
  9
$DIMLFAC
 40
1.0
  9
$DIMTOFL
 70
     0
  9
$DIMTVP
 40
0.0
  9
$DIMTIX
 70
     0
  9
$DIMSOXD
 70
     0
  9
$DIMSAH
 70
     0
  9
$DIMBLK1
  1

  9
$DIMBLK2
  1

  9
$DIMSTYLE
  2
Standard
  9
$DIMCLRD
 70
     0
  9
$DIMCLRE
 70
     0
  9
$DIMCLRT
 70
     0
  9
$DIMTFAC
 40
1.0
  9
$DIMGAP
 40
0.09
  9
$DIMJUST
 70
     0
  9
$DIMSD1
 70
     0
  9
$DIMSD2
 70
     0
  9
$DIMTOLJ
 70
     1
  9
$DIMTZIN
 70
     0
  9
$DIMALTZ
 70
     0
  9
$DIMALTTZ
 70
     0
  9
$DIMUPT
 70
     0
  9
$DIMDEC
 70
     4
  9
$DIMTDEC
 70
     4
  9
$DIMALTU
 70
     2
  9
$DIMALTTD
 70
     2
  9
$DIMTXSTY
  7
Standard
  9
$DIMAUNIT
 70
     0
  9
$DIMADEC
 70
     0
  9
$DIMALTRND
 40
0.0
  9
$DIMAZIN
 70
     0
  9
$DIMDSEP
 70
     0
  9
$DIMATFIT
 70
     3
  9
$DIMFRAC
 70
     0
  9
$DIMLDRBLK
  1

  9
$DIMLUNIT
 70
     2
  9
$DIMLWD
 70
     0
  9
$DIMLWE
 70
     0
  9
$DIMTMOVE
 70
     0
  9
$LUNITS
 70
     2
  9
$LUPREC
 70
     4
  9
$SKETCHINC
 40
0.1
  9
$FILLETRAD
 40
0.0
  9
$AUNITS
 70
     0
  9
$AUPREC
 70
     0
  9
$MENU
  1
acad
  9
$ELEVATION
 40
0.0
  9
$PELEVATION
 40
0.0
  9
$THICKNESS
 40
0.0
  9
$LIMCHECK
 70
     0
  9
$CHAMFERA
 40
0.0
  9
$CHAMFERB
 40
0.0
  9
$CHAMFERC
 40
0.0
  9
$CHAMFERD
 40
0.0
  9
$SKPOLY
 70
     0
  9
$TDCREATE
 40
2455561.505836111
  9
$TDUCREATE
 40
2455561.464169445
  9
$TDUPDATE
 40
2455637.647272570
  9
$TDUUPDATE
 40
2455637.605605903
  9
$TDINDWG
 40
0.0009845718
  9
$TDUSRTIMER
 40
0.0009845718
  9
$USRTIMER
 70
     1
  9
$ANGBASE
 50
0.0
  9
$ANGDIR
 70
     0
  9
$PDMODE
 70
     0
  9
$PDSIZE
 40
0.0
  9
$PLINEWID
 40
0.0
  9
$SPLFRAME
 70
     0
  9
$SPLINETYPE
 70
     6
  9
$SPLINESEGS
 70
     8
  9
$HANDSEED
  5
310
  9
$SURFTAB1
 70
     6
  9
$SURFTAB2
 70
     6
  9
$SURFTYPE
 70
     6
  9
$SURFU
 70
     6
  9
$SURFV
 70
     6
  9
$UCSBASE
  2

  9
$UCSNAME
  2

  9
$UCSORG
 10
0.0
 20
0.0
 30
0.0
  9
$UCSXDIR
 10
1.0
 20
0.0
 30
0.0
  9
$UCSYDIR
 10
0.0
 20
1.0
 30
0.0
  9
$UCSORTHOREF
  2

  9
$UCSORTHOVIEW
 70
     0
  9
$UCSORGTOP
 10
0.0
 20
0.0
 30
0.0
  9
$UCSORGBOTTOM
 10
0.0
 20
0.0
 30
0.0
  9
$UCSORGLEFT
 10
0.0
 20
0.0
 30
0.0
  9
$UCSORGRIGHT
 10
0.0
 20
0.0
 30
0.0
  9
$UCSORGFRONT
 10
0.0
 20
0.0
 30
0.0
  9
$UCSORGBACK
 10
0.0
 20
0.0
 30
0.0
  9
$PUCSBASE
  2

  9
$PUCSNAME
  2

  9
$PUCSORG
 10
0.0
 20
0.0
 30
0.0
  9
$PUCSXDIR
 10
1.0
 20
0.0
 30
0.0
  9
$PUCSYDIR
 10
0.0
 20
1.0
 30
0.0
  9
$PUCSORTHOREF
  2

  9
$PUCSORTHOVIEW
 70
     0
  9
$PUCSORGTOP
 10
0.0
 20
0.0
 30
0.0
  9
$PUCSORGBOTTOM
 10
0.0
 20
0.0
 30
0.0
  9
$PUCSORGLEFT
 10
0.0
 20
0.0
 30
0.0
  9
$PUCSORGRIGHT
 10
0.0
 20
0.0
 30
0.0
  9
$PUCSORGFRONT
 10
0.0
 20
0.0
 30
0.0
  9
$PUCSORGBACK
 10
0.0
 20
0.0
 30
0.0
  9
$USERI1
 70
     0
  9
$USERI2
 70
     0
  9
$USERI3
 70
     0
  9
$USERI4
 70
     0
  9
$USERI5
 70
     0
  9
$USERR1
 40
0.0
  9
$USERR2
 40
0.0
  9
$USERR3
 40
0.0
  9
$USERR4
 40
0.0
  9
$USERR5
 40
0.0
  9
$WORLDVIEW
 70
     1
  9
$SHADEDGE
 70
     3
  9
$SHADEDIF
 70
    70
  9
$TILEMODE
 70
     1
  9
$MAXACTVP
 70
    16
  9
$PINSBASE
 10
0.0
 20
0.0
 30
0.0
  9
$PLIMCHECK
 70
     0
  9
$PEXTMIN
 10
1.000000000000000E+20
 20
1.000000000000000E+20
 30
1.000000000000000E+20
  9
$PEXTMAX
 10
-1.000000000000000E+20
 20
-1.000000000000000E+20
 30
-1.000000000000000E+20
  9
$PLIMMIN
 10
0.0
 20
0.0
  9
$PLIMMAX
 10
12.0
 20
9.0
  9
$UNITMODE
 70
     0
  9
$VISRETAIN
 70
     0
  9
$PLINEGEN
 70
     1
  9
$PSLTSCALE
 70
     0
  9
$TREEDEPTH
 70
  3020
  9
$CMLSTYLE
  2
Standard
  9
$CMLJUST
 70
     0
  9
$CMLSCALE
 40
1.0
  9
$PROXYGRAPHICS
 70
     0
  9
$MEASUREMENT
 70
     0
  9
$CELWEIGHT
370
     0
  9
$ENDCAPS
280
     0
  9
$JOINSTYLE
280
     0
  9
$LWDISPLAY
290
     0
  9
$INSUNITS
 70
     0
  9
$HYPERLINKBASE
  1

  9
$STYLESHEET
  1

  9
$XEDIT
290
     1
  9
$CEPSNTYPE
380
     0
  9
$PSTYLEMODE
290
     1
  9
$FINGERPRINTGUID
  2

  9
$VERSIONGUID
  2
{C34778D1-9C10-474F-8217-380DA22AC2BF}
  9
$EXTNAMES
290
     1
  9
$PSVPSCALE
 40
0.0
  9
$OLESTARTUP
290
     0
  0
ENDSEC
  0
SECTION
  2
CLASSES
  0
CLASS
  1
LWPOLYLINE
  2
AcDbPolyline
  3
ObjectDBX Classes
 90
        0
280
     0
281
     1
  0
CLASS
  1
IMAGE
  2
AcDbRasterImage
  3
ISM
 90
    34943
280
     0
281
     1
  0
CLASS
  1
OLE2FRAME
  2
AcDbOle2Frame
  3
ObjectDBX Classes
 90
    32768
280
     0
281
     1
  0
CLASS
  1
HATCH
  2
AcDbHatch
  3
ObjectDBX Classes
 90
        0
280
     0
281
     1
  0
CLASS
  1
DICTIONARYVAR
  2
AcDbDictionaryVar
  3
ObjectDBX Classes
 90
        0
280
     0
281
     0
  0
CLASS
  1
RASTERVARIABLES
  2
AcDbRasterVariables
  3
ISM
 90
    32768
280
     0
281
     0
  0
CLASS
  1
IMAGEDEF
  2
AcDbRasterImageDef
  3
ISM
 90
    32768
280
     0
281
     0
  0
CLASS
  1
IMAGEDEF_REACTOR
  2
AcDbRasterImageDefReactor
  3
ISM
 90
    32769
280
     0
281
     0
  0
CLASS
  1
IDBUFFER
  2
AcDbIdBuffer
  3
ObjectDBX Classes
 90
    32768
280
     0
281
     0
  0
CLASS
  1
SPATIAL_FILTER
  2
AcDbSpatialFilter
  3
ObjectDBX Classes
 90
    32768
280
     0
281
     0
  0
CLASS
  1
XRECORD
  2
AcDbXrecord
  3
ObjectDBX Classes
 90
        0
280
     0
281
     0
  0
CLASS
  1
SORTENTSTABLE
  2
AcDbSortentsTable
  3
ObjectDBX Classes
 90
    32768
280
     0
281
     0
  0
CLASS
  1
LAYER_INDEX
  2
AcDbLayerIndex
  3
ObjectDBX Classes
 90
    32768
280
     0
281
     0
  0
CLASS
  1
SPATIAL_INDEX
  2
AcDbSpatialIndex
  3
ObjectDBX Classes
 90
    32768
280
     0
281
     0
  0
CLASS
  1
OBJECT_PTR
  2
CAseDLPNTableRecord
  3
ASE-LPNTableRecord
 90
    32769
280
     0
281
     0
  0
CLASS
  1
LAYOUT
  2
AcDbLayout
  3
ObjectDBX Classes
 90
        0
280
     0
281
     0
  0
CLASS
  1
PLOTSETTINGS
  2
AcDbPlotSettings
  3
ObjectDBX Classes
 90
        0
280
     0
281
     0
  0
CLASS
  1
ACDBDICTIONARYWDFLT
  2
AcDbDictionaryWithDefault
  3
ObjectDBX Classes
 90
        0
280
     0
281
     0
  0
CLASS
  1
ACDBPLACEHOLDER
  2
AcDbPlaceHolder
  3
ObjectDBX Classes
 90
        0
280
     0
281
     0
  0
CLASS
  1
VBA_PROJECT
  2
AcDbVbaProject
  3
acad
 90
    32768
280
     0
281
     0
  0
CLASS
  1
WIPEOUT
  2
AcDbWipeout
  3
"WipeOut|Product Desc: Object Enabler for WipeOut entity                        |Company: Autodesk, Inc.                        |WEB Address: www.autodesk.com"
 90
    34943
280
     0
281
     1
  0
CLASS
  1
WIPEOUTVARIABLES
  2
AcDbWipeoutVariables
  3
"WipeOut|Product Desc:     WipeOut Dbx Application|Company:          Autodesk, Inc.|WEB Address:      www.autodesk.com"
 90
        0
280
     0
281
     0
  0
CLASS
  1
RTEXT
  2
RText
  3
RText|AutoCAD Express Tool|expresstools@autodesk.com
 90
    35839
280
     0
281
     1
  0
CLASS
  1
ARCALIGNEDTEXT
  2
AcDbArcAlignedText
  3
ATEXT|AutoCAD Express Tool|expresstools@autodesk.com
 90
    32768
280
     0
281
     1
  0
CLASS
  1
MATERIAL
  2
AcDbMaterial
  3
ObjectDBX Classes
 90
     1153
280
     0
281
     0
  0
CLASS
  1
VISUALSTYLE
  2
AcDbVisualStyle
  3
ObjectDBX Classes
 90
     4095
280
     0
281
     0
  0
CLASS
  1
SCALE
  2
AcDbScale
  3
ObjectDBX Classes
 90
     1153
280
     0
281
     0
  0
CLASS
  1
TABLESTYLE
  2
AcDbTableStyle
  3
ObjectDBX Classes
 90
     4095
280
     0
281
     0
  0
CLASS
  1
MLEADERSTYLE
  2
AcDbMLeaderStyle
  3
ACDB_MLEADERSTYLE_CLASS
 90
     4095
280
     0
281
     0
  0
CLASS
  1
ACDBQSCATEGORY
  2
AcQsCategory
  3
categories
 90
     1024
280
     0
281
     0
  0
CLASS
  1
CELLSTYLEMAP
  2
AcDbCellStyleMap
  3
ObjectDBX Classes
 90
     1152
280
     0
281
     0
  0
CLASS
  1
AEC_REFEDIT_STATUS_TRACKER
  2
AecDbRefEditStatusTracker
  3
AecArchBase60|Product Desc: Autodesk Architectural Desktop 2007 |Company: Autodesk,Inc. |WEB Address: www.autodesk.com
 90
      129
280
     0
281
     0
  0
CLASS
  1
NPOCOLLECTION
  2
AcDbImpNonPersistentObjectsCollection
  3
ObjectDBX Classes
 90
     1153
280
     0
281
     0
  0
ENDSEC
  0
SECTION
  2
TABLES
  0
TABLE
  2
VPORT
  5
7
102
{ACAD_XDICTIONARY
360
22D
102
}
330
0
100
AcDbSymbolTable
 70
     1
  0
VPORT
  5
15
330
7
100
AcDbSymbolTableRecord
100
AcDbViewportTableRecord
  2
*ACTIVE
 70
     0
 10
0.0
 20
0.0
 11
1.0
 21
1.0
 12
215.7405341416158
 22
155.0126995991064
 13
0.0
 23
0.0
 14
1.0
 24
1.0
 15
0.0
 25
0.0
 16
0.0
 26
0.0
 36
1.0
 17
0.0
 27
0.0
 37
0.0
 40
310.0253991982128
 41
2.251225490196078
 42
50.0
 43
0.0
 44
0.0
 50
0.0
 51
0.0
 71
     0
 72
   100
 73
     1
 74
     1
 75
     0
 76
     0
 77
     0
 78
     0
281
     0
 65
     0
110
0.0
120
0.0
130
0.0
111
1.0
121
0.0
131
0.0
112
0.0
122
1.0
132
0.0
 79
     0
146
0.0
  0
ENDTAB
  0
TABLE
  2
LTYPE
  5
4
330
0
100
AcDbSymbolTable
 70
     9
  0
LTYPE
  5
11
330
4
100
AcDbSymbolTableRecord
100
AcDbLinetypeTableRecord
  2
ByBlock
 70
     0
  3

 72
    65
 73
     0
 40
0.0
  0
LTYPE
  5
12
330
4
100
AcDbSymbolTableRecord
100
AcDbLinetypeTableRecord
  2
ByLayer
 70
     0
  3

 72
    65
 73
     0
 40
0.0
  0
LTYPE
  5
13
330
4
100
AcDbSymbolTableRecord
100
AcDbLinetypeTableRecord
  2
CONTINUOUS
 70
     0
  3
Solid line
 72
    65
 73
     0
 40
0.0
  0
LTYPE
  5
28
330
4
100
AcDbSymbolTableRecord
100
AcDbLinetypeTableRecord
  2
HIDDEN2
 70
     0
  3
_ _ _ _ _ _ _ _ _ _ _ _ _ _ _ _ _ _ _ _ _ _ _ _
 72
    65
 73
     2
 40
0.1875
 49
0.125
 74
     0
 49
-0.0625
 74
     0
  0
LTYPE
  5
29
330
4
100
AcDbSymbolTableRecord
100
AcDbLinetypeTableRecord
  2
CENTER2
 70
     0
  3
___ _ ___ _ ___ _ ___ _ ___ _ ___ _ ___ _ ___ _
 72
    65
 73
     4
 40
1.125
 49
0.75
 74
     0
 49
-0.125
 74
     0
 49
0.125
 74
     0
 49
-0.125
 74
     0
  0
LTYPE
  5
2A
330
4
100
AcDbSymbolTableRecord
100
AcDbLinetypeTableRecord
  2
PHANTOM2
 70
     0
  3
___ _ _ ___ _ _ ___ _ _ ___ _ _ ___ _ _ ___ _ _
 72
    65
 73
     6
 40
1.25
 49
0.625
 74
     0
 49
-0.125
 74
     0
 49
0.125
 74
     0
 49
-0.125
 74
     0
 49
0.125
 74
     0
 49
-0.125
 74
     0
  0
LTYPE
  5
2B
330
4
100
AcDbSymbolTableRecord
100
AcDbLinetypeTableRecord
  2
DOT2
 70
     0
  3
...............................................
 72
    65
 73
     2
 40
0.125
 49
0.0
 74
     0
 49
-0.125
 74
     0
  0
LTYPE
  5
1DF
330
4
100
AcDbSymbolTableRecord
100
AcDbLinetypeTableRecord
  2
ASSI
 70
     0
  3
-.-.-.-.-.-.-.-.-.-.-.-.-.-.-.-.-.-.-.-.-.-.-.-
 72
    65
 73
     4
 40
16.0
 49
10.0
 74
     0
 49
-2.0
 74
     0
 49
2.0
 74
     0
 49
-2.0
 74
     0
  0
LTYPE
  5
1E0
330
4
100
AcDbSymbolTableRecord
100
AcDbLinetypeTableRecord
  2
INGOMBRI
 70
     0
  3
--..--..--..--..--..--..--..--..--..--..--..--
 72
    65
 73
     6
 40
20.0
 49
10.0
 74
     0
 49
-2.0
 74
     0
 49
2.0
 74
     0
 49
-2.0
 74
     0
 49
2.0
 74
     0
 49
-2.0
 74
     0
  0
LTYPE
  5
1E1
330
4
100
AcDbSymbolTableRecord
100
AcDbLinetypeTableRecord
  2
TRATTEGGIO
 70
     0
  3
- - - - - - - - - - - - - - - - - - - - - -
 72
    65
 73
     2
 40
5.5
 49
4.0
 74
     0
 49
-1.5
 74
     0
  0
LTYPE
  5
1E2
330
4
100
AcDbSymbolTableRecord
100
AcDbLinetypeTableRecord
  2
PUNTO
 70
     0
  3
Punto . . . . . . . . . . . . . . . . . . . . .
 72
    65
 73
     2
 40
6.349999999999999
 49
0.0
 74
     0
 49
-6.349999999999999
 74
     0
  0
ENDTAB
  0
TABLE
  2
LAYER
  5
2
330
0
100
AcDbSymbolTable
 70
    18
  0
LAYER
  5
14
102
{ACAD_XDICTIONARY
360
1FE
102
}
330
2
100
AcDbSymbolTableRecord
100
AcDbLayerTableRecord
  2
0
 70
     0
 62
     7
  6
CONTINUOUS
370
    -3
390
1D
  0
LAYER
  5
2D
102
{ACAD_XDICTIONARY
360
200
102
}
330
2
100
AcDbSymbolTableRecord
100
AcDbLayerTableRecord
  2
1
 70
     0
 62
     7
  6
CONTINUOUS
370
    -3
390
1D
  0
LAYER
  5
2F
102
{ACAD_XDICTIONARY
360
202
102
}
330
2
100
AcDbSymbolTableRecord
100
AcDbLayerTableRecord
  2
11
 70
     0
 62
     7
  6
CONTINUOUS
370
    -3
390
1D
  0
LAYER
  5
31
102
{ACAD_XDICTIONARY
360
204
102
}
330
2
100
AcDbSymbolTableRecord
100
AcDbLayerTableRecord
  2
7
 70
     0
 62
     7
  6
CONTINUOUS
370
    -3
390
1D
  0
LAYER
  5
33
102
{ACAD_XDICTIONARY
360
206
102
}
330
2
100
AcDbSymbolTableRecord
100
AcDbLayerTableRecord
  2
AM_0
 70
     0
 62
     7
  6
CONTINUOUS
370
    -3
390
1D
  0
LAYER
  5
35
102
{ACAD_XDICTIONARY
360
208
102
}
330
2
100
AcDbSymbolTableRecord
100
AcDbLayerTableRecord
  2
AM_1
 70
     0
 62
     7
  6
CONTINUOUS
370
    -3
390
1D
  0
LAYER
  5
37
102
{ACAD_XDICTIONARY
360
20A
102
}
330
2
100
AcDbSymbolTableRecord
100
AcDbLayerTableRecord
  2
AM_5
 70
     0
 62
     7
  6
CONTINUOUS
370
    -3
390
1D
  0
LAYER
  5
39
102
{ACAD_XDICTIONARY
360
20C
102
}
330
2
100
AcDbSymbolTableRecord
100
AcDbLayerTableRecord
  2
AM_6
 70
     0
 62
     7
  6
CONTINUOUS
370
    -3
390
1D
  0
LAYER
  5
3B
102
{ACAD_XDICTIONARY
360
20E
102
}
330
2
100
AcDbSymbolTableRecord
100
AcDbLayerTableRecord
  2
AM_7
 70
     0
 62
     7
  6
CONTINUOUS
370
    -3
390
1D
  0
LAYER
  5
3D
102
{ACAD_XDICTIONARY
360
210
102
}
330
2
100
AcDbSymbolTableRecord
100
AcDbLayerTableRecord
  2
AM_8
 70
     0
 62
     7
  6
CONTINUOUS
370
    -3
390
1D
  0
LAYER
  5
3F
102
{ACAD_XDICTIONARY
360
212
102
}
330
2
100
AcDbSymbolTableRecord
100
AcDbLayerTableRecord
  2
AM_BOR
 70
     0
 62
     7
  6
CONTINUOUS
370
    -3
390
1D
  0
LAYER
  5
41
102
{ACAD_XDICTIONARY
360
214
102
}
330
2
100
AcDbSymbolTableRecord
100
AcDbLayerTableRecord
  2
DEFAULT
 70
     0
 62
     7
  6
CONTINUOUS
370
    -3
390
1D
  0
LAYER
  5
43
330
2
100
AcDbSymbolTableRecord
100
AcDbLayerTableRecord
  2
DEFPOINTS
 70
     0
 62
     7
  6
CONTINUOUS
290
     0
370
    -3
390
1D
  0
LAYER
  5
45
102
{ACAD_XDICTIONARY
360
216
102
}
330
2
100
AcDbSymbolTableRecord
100
AcDbLayerTableRecord
  2
PREDEFINITO
 70
     0
 62
     7
  6
CONTINUOUS
370
    -3
390
1D
  0
LAYER
  5
47
102
{ACAD_XDICTIONARY
360
218
102
}
330
2
100
AcDbSymbolTableRecord
100
AcDbLayerTableRecord
  2
PROFILATI-IN-ALLUMINIO
 70
     0
 62
     7
  6
CONTINUOUS
370
    -3
390
1D
  0
LAYER
  5
49
102
{ACAD_XDICTIONARY
360
21A
102
}
330
2
100
AcDbSymbolTableRecord
100
AcDbLayerTableRecord
  2
TESTI
 70
     0
 62
     7
  6
CONTINUOUS
370
    -3
390
1D
  0
LAYER
  5
4B
102
{ACAD_XDICTIONARY
360
21C
102
}
330
2
100
AcDbSymbolTableRecord
100
AcDbLayerTableRecord
  2
VARI
 70
     0
 62
     7
  6
CONTINUOUS
370
    -3
390
1D
  0
LAYER
  5
1D7
102
{ACAD_XDICTIONARY
360
21E
102
}
330
2
100
AcDbSymbolTableRecord
100
AcDbLayerTableRecord
  2
P-0000
 70
     0
 62
     7
  6
CONTINUOUS
370
    -3
390
1D
1001
AcAecLayerStandard
1000

1000
TOP
  0
ENDTAB
  0
TABLE
  2
STYLE
  5
3
330
0
100
AcDbSymbolTable
 70
     8
  0
STYLE
  5
17
330
3
100
AcDbSymbolTableRecord
100
AcDbTextStyleTableRecord
  2
Standard
 70
     0
 40
0.0
 41
1.0
 50
0.0
 71
     0
 42
0.2
  3
txt
  4

  0
STYLE
  5
5E
330
3
100
AcDbSymbolTableRecord
100
AcDbTextStyleTableRecord
  2
seansi_ttf
 70
     0
 40
0.0
 41
1.0
 50
0.0
 71
     0
 42
0.2
  3
STENCIL.TTF
  4

1001
ACAD
1000
Stencil
1071
        2
  0
STYLE
  5
60
330
3
100
AcDbSymbolTableRecord
100
AcDbTextStyleTableRecord
  2
arial_ttf
 70
     0
 40
0.0
 41
1.0
 50
0.0
 71
     0
 42
0.2
  3
arial.ttf
  4

1001
ACAD
1000
Arial
1071
        2
  0
STYLE
  5
F1
330
3
100
AcDbSymbolTableRecord
100
AcDbTextStyleTableRecord
  2
seiso_ttfB
 70
     0
 40
0.0
 41
1.0
 50
0.0
 71
     0
 42
0.2
  3

  4

1001
ACAD
1000
Solid Edge ISO
1071
 33554434
  0
STYLE
  5
1E3
330
3
100
AcDbSymbolTableRecord
100
AcDbTextStyleTableRecord
  2
ROMANS
 70
     0
 40
0.0
 41
0.8
 50
0.0
 71
     0
 42
3.0
  3
ROMANS.shx
  4

  0
STYLE
  5
1E4
330
3
100
AcDbSymbolTableRecord
100
AcDbTextStyleTableRecord
  2

 70
     1
 40
0.0
 41
1.0
 50
0.0
 71
     0
 42
0.2
  3
ltypeshp.shx
  4

  0
STYLE
  5
1E5
330
3
100
AcDbSymbolTableRecord
100
AcDbTextStyleTableRecord
  2
Stile_Quota
 70
     0
 40
0.0
 41
1.0
 50
0.0
 71
     0
 42
3.0
  3
BOD_I.TTF
  4

1001
ACAD
1000
Bodoni MT
1071
 16777234
  0
STYLE
  5
1E6
330
3
100
AcDbSymbolTableRecord
100
AcDbTextStyleTableRecord
  2
Stile_Quota_FISSO
 70
     0
 40
20.0
 41
1.0
 50
0.0
 71
     0
 42
3.0
  3
BOD_I.TTF
  4

1001
ACAD
1000
Bodoni MT
1071
 16777234
  0
ENDTAB
  0
TABLE
  2
VIEW
  5
5
330
0
100
AcDbSymbolTable
 70
     0
  0
ENDTAB
  0
TABLE
  2
UCS
  5
6
330
0
100
AcDbSymbolTable
 70
     0
  0
ENDTAB
  0
TABLE
  2
APPID
  5
8
330
0
100
AcDbSymbolTable
 70
    11
  0
APPID
  5
16
330
8
100
AcDbSymbolTableRecord
100
AcDbRegAppTableRecord
  2
ACAD
 70
     0
  0
APPID
  5
1D8
330
8
100
AcDbSymbolTableRecord
100
AcDbRegAppTableRecord
  2
AcAecLayerStandard
 70
     0
  0
APPID
  5
1DE
330
8
100
AcDbSymbolTableRecord
100
AcDbRegAppTableRecord
  2
TOP
 70
     0
  0
APPID
  5
1EA
330
8
100
AcDbSymbolTableRecord
100
AcDbRegAppTableRecord
  2
ACAD_MLEADERVER
 70
     0
  0
APPID
  5
1EB
330
8
100
AcDbSymbolTableRecord
100
AcDbRegAppTableRecord
  2
ACAD_DSTYLE_DIMJAG
 70
     0
  0
APPID
  5
1EC
330
8
100
AcDbSymbolTableRecord
100
AcDbRegAppTableRecord
  2
ACAD_DSTYLE_DIMTALN
 70
     0
  0
APPID
  5
1ED
330
8
100
AcDbSymbolTableRecord
100
AcDbRegAppTableRecord
  2
AcadAnnoPO
 70
     0
  0
APPID
  5
1EE
330
8
100
AcDbSymbolTableRecord
100
AcDbRegAppTableRecord
  2
ACAD_EXEMPT_FROM_CAD_STANDARDS
 70
     0
  0
APPID
  5
1EF
330
8
100
AcDbSymbolTableRecord
100
AcDbRegAppTableRecord
  2
ACAD_PSEXT
 70
     0
  0
APPID
  5
1F0
330
8
100
AcDbSymbolTableRecord
100
AcDbRegAppTableRecord
  2
ACAD_DSTYLE_DIMBREAK
 70
     0
  0
APPID
  5
225
330
8
100
AcDbSymbolTableRecord
100
AcDbRegAppTableRecord
  2
DCO15
 70
     0
  0
ENDTAB
  0
TABLE
  2
DIMSTYLE
  5
9
330
0
100
AcDbSymbolTable
 70
     4
100
AcDbDimStyleTable
 71
     0
  0
DIMSTYLE
105
18
330
9
100
AcDbSymbolTableRecord
100
AcDbDimStyleTableRecord
  2
Standard
 70
     0
289
     0
340
17
  0
DIMSTYLE
105
1E7
330
9
100
AcDbSymbolTableRecord
100
AcDbDimStyleTableRecord
  2
ACADTOP
 70
     0
 41
2.0
 42
1.0
 43
10.0
 44
1.5
 73
     0
 74
     0
 77
     1
 78
     8
 79
     2
140
2.0
141
2.0
146
0.6
147
1.0
172
     1
176
     2
177
     2
178
     1
179
     1
271
     2
272
     2
284
     8
289
     0
340
1E5
1001
ACAD_DSTYLE_DIMJAG
1070
   388
1040
1.5
1001
ACAD_DSTYLE_DIMTALN
1070
   392
1070
     0
  0
DIMSTYLE
105
1E8
330
9
100
AcDbSymbolTableRecord
100
AcDbDimStyleTableRecord
  2
DIERRE_LUNG-ALT
 70
     0
 41
3.0
 42
1.0
 43
10.0
 44
1.5
 73
     0
 74
     0
 75
     1
 76
     1
 78
     8
 79
     2
140
20.0
141
2.0
146
0.6
147
1.0
172
     1
176
     3
177
     3
178
    30
179
     1
271
     1
272
     1
281
     1
282
     1
284
     8
340
1E6
1001
ACAD_DSTYLE_DIMBREAK
1070
   391
1040
3.75
1001
ACAD_DSTYLE_DIMJAG
1070
   388
1040
1.5
1001
ACAD_DSTYLE_DIMTALN
1070
   392
1070
     0
  0
DIMSTYLE
105
1E9
330
9
100
AcDbSymbolTableRecord
100
AcDbDimStyleTableRecord
  2
DIERRE_LARG
 70
     0
 41
3.0
 42
1.0
 43
10.0
 44
1.5
 73
     0
 74
     0
 75
     1
 76
     1
 78
     8
 79
     2
140
20.0
141
2.0
146
0.6
147
1.0
172
     1
176
     4
177
     4
178
     4
179
     1
271
     1
272
     1
281
     1
282
     1
284
     8
340
1E6
1001
ACAD_DSTYLE_DIMBREAK
1070
   391
1040
3.75
1001
ACAD_DSTYLE_DIMJAG
1070
   388
1040
1.5
1001
ACAD_DSTYLE_DIMTALN
1070
   392
1070
     0
  0
ENDTAB
  0
TABLE
  2
BLOCK_RECORD
  5
1
330
0
100
AcDbSymbolTable
 70
     7
  0
BLOCK_RECORD
  5
A
330
1
100
AcDbSymbolTableRecord
100
AcDbBlockTableRecord
  2
*MODEL_SPACE
340
20
  0
BLOCK_RECORD
  5
B
330
1
100
AcDbSymbolTableRecord
100
AcDbBlockTableRecord
  2
*PAPER_SPACE
340
21
  0
BLOCK_RECORD
  5
F3
330
1
100
AcDbSymbolTableRecord
100
AcDbBlockTableRecord
  2
SE0
340
0
  0
BLOCK_RECORD
  5
F5
330
1
100
AcDbSymbolTableRecord
100
AcDbBlockTableRecord
  2
SE1
340
0
  0
BLOCK_RECORD
  5
F7
330
1
100
AcDbSymbolTableRecord
100
AcDbBlockTableRecord
  2
SE2
340
0
  0
BLOCK_RECORD
  5
F9
330
1
100
AcDbSymbolTableRecord
100
AcDbBlockTableRecord
  2
SE3
340
0
  0
BLOCK_RECORD
  5
FB
330
1
100
AcDbSymbolTableRecord
100
AcDbBlockTableRecord
  2
SE4
340
0
  0
BLOCK_RECORD
  5
FD
330
1
100
AcDbSymbolTableRecord
100
AcDbBlockTableRecord
  2
SE5
340
0
  0
BLOCK_RECORD
  5
FF
330
1
100
AcDbSymbolTableRecord
100
AcDbBlockTableRecord
  2
SE6
340
0
  0
ENDTAB
  0
ENDSEC
  0
SECTION
  2
BLOCKS
  0
BLOCK
  5
D
330
A
100
AcDbEntity
  8
0
100
AcDbBlockBegin
  2
*MODEL_SPACE
 70
     0
 10
0.0
 20
0.0
 30
0.0
  3
*MODEL_SPACE
  1

  0
ENDBLK
  5
E
330
A
100
AcDbEntity
  8
0
100
AcDbBlockEnd
  0
BLOCK
  5
F
330
B
100
AcDbEntity
 67
     1
  8
0
100
AcDbBlockBegin
  2
*PAPER_SPACE
 70
     0
 10
0.0
 20
0.0
 30
0.0
  3
*PAPER_SPACE
  1

  0
ENDBLK
  5
10
330
B
100
AcDbEntity
 67
     1
  8
0
100
AcDbBlockEnd
  0
BLOCK
  5
105
330
F3
100
AcDbEntity
  8
0
 62
     1
 48
0.0
370
     0
100
AcDbBlockBegin
  2
SE0
 70
     0
 10
0.0
 20
0.0
 30
0.0
  3
SE0
  1

  0
LINE
  5
106
330
F3
100
AcDbEntity
  8
AM_5
  6
Continuous
 62
     7
370
     0
100
AcDbLine
 10
74.54263189083032
 20
155.8473010018074
 30
0.0
 11
74.54263189083032
 21
141.4075686774287
 31
0.0
  0
LINE
  5
107
330
F3
100
AcDbEntity
  8
AM_5
  6
Continuous
 62
     7
370
     0
100
AcDbLine
 10
154.5426141308303
 20
156.8465540099732
 30
0.0
 11
154.5426141308303
 21
141.4075686774287
 31
0.0
  0
LINE
  5
108
330
F3
100
AcDbEntity
  8
AM_5
  6
Continuous
 62
     7
370
     0
100
AcDbLine
 10
78.04263111383033
 20
142.4075684554287
 30
0.0
 11
151.0426149078303
 21
142.4075684554287
 31
0.0
  0
LINE
  5
109
330
F3
100
AcDbEntity
  8
AM_0
  6
Continuous
 62
     7
370
     0
100
AcDbLine
 10
78.04263111383033
 20
143.2825682611787
 30
0.0
 11
74.54263189083032
 21
142.4075684554287
 31
0.0
  0
LINE
  5
10A
330
F3
100
AcDbEntity
  8
AM_0
  6
Continuous
 62
     7
370
     0
100
AcDbLine
 10
74.54263189083032
 20
142.4075684554287
 30
0.0
 11
78.04263111383033
 21
141.5325686496787
 31
0.0
  0
LINE
  5
10B
330
F3
100
AcDbEntity
  8
AM_0
  6
Continuous
 62
     7
370
     0
100
AcDbLine
 10
78.04263111383033
 20
143.2825682611787
 30
0.0
 11
78.04263111383033
 21
141.5325686496787
 31
0.0
  0
LINE
  5
10C
330
F3
100
AcDbEntity
  8
AM_0
  6
Continuous
 62
     7
370
     0
100
AcDbLine
 10
151.0426149078303
 20
141.5325686496787
 30
0.0
 11
154.5426141308303
 21
142.4075684554287
 31
0.0
  0
LINE
  5
10D
330
F3
100
AcDbEntity
  8
AM_0
  6
Continuous
 62
     7
370
     0
100
AcDbLine
 10
154.5426141308303
 20
142.4075684554287
 30
0.0
 11
151.0426149078303
 21
143.2825682611787
 31
0.0
  0
LINE
  5
10E
330
F3
100
AcDbEntity
  8
AM_0
  6
Continuous
 62
     7
370
     0
100
AcDbLine
 10
151.0426149078303
 20
141.5325686496787
 30
0.0
 11
151.0426149078303
 21
143.2825682611787
 31
0.0
  0
TEXT
  5
10F
330
F3
100
AcDbEntity
  8
AM_5
  6
Continuous
 62
     7
370
     0
100
AcDbText
 10
112.586101982898
 20
143.2383483695363
 30
0.0
 40
2.499999445
  1
80
  7
arial_ttf
 11
112.586101982898
 21
145.7383478145364
 31
0.0
100
AcDbText
 73
     3
  0
POINT
  5
110
330
F3
100
AcDbEntity
  8
DEFPOINTS
  6
Continuous
 62
     7
370
     0
100
AcDbPoint
 10
74.54263189083032
 20
157.3473006688074
 30
0.0
  0
POINT
  5
111
330
F3
100
AcDbEntity
  8
DEFPOINTS
  6
Continuous
 62
     7
370
     0
100
AcDbPoint
 10
154.5426141308303
 20
158.3465536769732
 30
0.0
  0
POINT
  5
112
330
F3
100
AcDbEntity
  8
DEFPOINTS
  6
Continuous
 62
     7
370
     0
100
AcDbPoint
 10
154.5426141308303
 20
142.4075684554287
 30
0.0
  0
ENDBLK
  5
1C0
330
F3
100
AcDbEntity
  8
0
370
     0
100
AcDbBlockEnd
  0
BLOCK
  5
114
330
F5
100
AcDbEntity
  8
0
 62
     1
 48
0.0
370
     0
100
AcDbBlockBegin
  2
SE1
 70
     0
 10
0.0
 20
0.0
 30
0.0
  3
SE1
  1

  0
LINE
  5
115
330
F5
100
AcDbEntity
  8
AM_5
  6
Continuous
 62
     7
370
     0
100
AcDbLine
 10
62.12471265760901
 20
16.00801669613546
 30
0.0
 11
62.24113102176414
 21
16.00801669613546
 31
0.0
  0
LINE
  5
116
330
F5
100
AcDbEntity
  8
AM_5
  6
Continuous
 62
     7
370
     0
100
AcDbLine
 10
62.40113098624412
 20
35.00801247813547
 30
0.0
 11
62.24113102176414
 21
35.00801247813547
 31
0.0
  0
LINE
  5
117
330
F5
100
AcDbEntity
  8
AM_5
  6
Continuous
 62
     7
370
     0
100
AcDbLine
 10
63.24113079976412
 20
19.50801591913547
 30
0.0
 11
63.24113079976412
 21
31.50801325513548
 31
0.0
  0
LINE
  5
118
330
F5
100
AcDbEntity
  8
AM_0
  6
Continuous
 62
     7
370
     0
100
AcDbLine
 10
62.36613099401413
 20
19.50801591913547
 30
0.0
 11
63.24113079976412
 21
16.00801669613547
 31
0.0
  0
LINE
  5
119
330
F5
100
AcDbEntity
  8
AM_0
  6
Continuous
 62
     7
370
     0
100
AcDbLine
 10
63.24113079976412
 20
16.00801669613546
 30
0.0
 11
64.11613060551411
 21
19.50801591913546
 31
0.0
  0
LINE
  5
11A
330
F5
100
AcDbEntity
  8
AM_0
  6
Continuous
 62
     7
370
     0
100
AcDbLine
 10
62.36613099401413
 20
19.50801591913547
 30
0.0
 11
64.11613060551413
 21
19.50801591913547
 31
0.0
  0
LINE
  5
11B
330
F5
100
AcDbEntity
  8
AM_0
  6
Continuous
 62
     7
370
     0
100
AcDbLine
 10
64.11613060551413
 20
31.50801325513547
 30
0.0
 11
63.24113079976413
 21
35.00801247813547
 31
0.0
  0
LINE
  5
11C
330
F5
100
AcDbEntity
  8
AM_0
  6
Continuous
 62
     7
370
     0
100
AcDbLine
 10
63.24113079976412
 20
35.00801247813547
 30
0.0
 11
62.36613099401412
 21
31.50801325513548
 31
0.0
  0
LINE
  5
11D
330
F5
100
AcDbEntity
  8
AM_0
  6
Continuous
 62
     7
370
     0
100
AcDbLine
 10
64.11613060551413
 20
31.50801325513547
 30
0.0
 11
62.36613099401413
 21
31.50801325513547
 31
0.0
  0
TEXT
  5
11E
330
F5
100
AcDbEntity
  8
AM_5
  6
Continuous
 62
     7
370
     0
100
AcDbText
 10
62.41035088565651
 20
23.55149355920318
 30
0.0
 40
2.499999445
  1
19
 50
90.0
  7
arial_ttf
 11
59.91035144065651
 21
23.55149355920318
 31
0.0
100
AcDbText
 73
     3
  0
POINT
  5
11F
330
F5
100
AcDbEntity
  8
DEFPOINTS
  6
Continuous
 62
     7
370
     0
100
AcDbPoint
 10
63.62471232460901
 20
16.00801669613546
 30
0.0
  0
POINT
  5
120
330
F5
100
AcDbEntity
  8
DEFPOINTS
  6
Continuous
 62
     7
370
     0
100
AcDbPoint
 10
63.90113065324412
 20
35.00801247813547
 30
0.0
  0
POINT
  5
121
330
F5
100
AcDbEntity
  8
DEFPOINTS
  6
Continuous
 62
     7
370
     0
100
AcDbPoint
 10
63.24113079976412
 20
35.00801247813547
 30
0.0
  0
ENDBLK
  5
1C1
330
F5
100
AcDbEntity
  8
0
370
     0
100
AcDbBlockEnd
  0
BLOCK
  5
123
330
F7
100
AcDbEntity
  8
0
 62
     1
 48
0.0
370
     0
100
AcDbBlockBegin
  2
SE2
 70
     0
 10
0.0
 20
0.0
 30
0.0
  3
SE2
  1

  0
LINE
  5
124
330
F7
100
AcDbEntity
  8
AM_5
  6
Continuous
 62
     7
370
     0
100
AcDbLine
 10
62.12471265760901
 20
35.00801247813547
 30
0.0
 11
62.24113102176414
 21
35.00801247813547
 31
0.0
  0
LINE
  5
125
330
F7
100
AcDbEntity
  8
AM_5
  6
Continuous
 62
     7
370
     0
100
AcDbLine
 10
62.40113098624412
 20
75.00800359813545
 30
0.0
 11
62.24113102176414
 21
75.00800359813545
 31
0.0
  0
LINE
  5
126
330
F7
100
AcDbEntity
  8
AM_5
  6
Continuous
 62
     7
370
     0
100
AcDbLine
 10
63.24113079976412
 20
38.50801170113547
 30
0.0
 11
63.24113079976413
 21
71.50800437513547
 31
0.0
  0
LINE
  5
127
330
F7
100
AcDbEntity
  8
AM_0
  6
Continuous
 62
     7
370
     0
100
AcDbLine
 10
62.36613099401413
 20
38.50801170113547
 30
0.0
 11
63.24113079976412
 21
35.00801247813548
 31
0.0
  0
LINE
  5
128
330
F7
100
AcDbEntity
  8
AM_0
  6
Continuous
 62
     7
370
     0
100
AcDbLine
 10
63.24113079976412
 20
35.00801247813547
 30
0.0
 11
64.11613060551411
 21
38.50801170113547
 31
0.0
  0
LINE
  5
129
330
F7
100
AcDbEntity
  8
AM_0
  6
Continuous
 62
     7
370
     0
100
AcDbLine
 10
62.36613099401413
 20
38.50801170113547
 30
0.0
 11
64.11613060551413
 21
38.50801170113547
 31
0.0
  0
LINE
  5
12A
330
F7
100
AcDbEntity
  8
AM_0
  6
Continuous
 62
     7
370
     0
100
AcDbLine
 10
64.11613060551413
 20
71.50800437513547
 30
0.0
 11
63.24113079976413
 21
75.00800359813547
 31
0.0
  0
LINE
  5
12B
330
F7
100
AcDbEntity
  8
AM_0
  6
Continuous
 62
     7
370
     0
100
AcDbLine
 10
63.24113079976413
 20
75.00800359813545
 30
0.0
 11
62.36613099401413
 21
71.50800437513545
 31
0.0
  0
LINE
  5
12C
330
F7
100
AcDbEntity
  8
AM_0
  6
Continuous
 62
     7
370
     0
100
AcDbLine
 10
64.11613060551413
 20
71.50800437513547
 30
0.0
 11
62.36613099401413
 21
71.50800437513547
 31
0.0
  0
TEXT
  5
12D
330
F7
100
AcDbEntity
  8
AM_5
  6
Continuous
 62
     7
370
     0
100
AcDbText
 10
62.41035088565651
 20
53.05148701020319
 30
0.0
 40
2.499999445
  1
40
 50
90.0
  7
arial_ttf
 11
59.91035144065651
 21
53.05148701020319
 31
0.0
100
AcDbText
 73
     3
  0
POINT
  5
12E
330
F7
100
AcDbEntity
  8
DEFPOINTS
  6
Continuous
 62
     7
370
     0
100
AcDbPoint
 10
63.62471232460901
 20
35.00801247813547
 30
0.0
  0
POINT
  5
12F
330
F7
100
AcDbEntity
  8
DEFPOINTS
  6
Continuous
 62
     7
370
     0
100
AcDbPoint
 10
63.90113065324412
 20
75.00800359813545
 30
0.0
  0
POINT
  5
130
330
F7
100
AcDbEntity
  8
DEFPOINTS
  6
Continuous
 62
     7
370
     0
100
AcDbPoint
 10
63.24113079976413
 20
75.00800359813545
 30
0.0
  0
ENDBLK
  5
1C2
330
F7
100
AcDbEntity
  8
0
370
     0
100
AcDbBlockEnd
  0
BLOCK
  5
132
330
F9
100
AcDbEntity
  8
0
 62
     1
 48
0.0
370
     0
100
AcDbBlockBegin
  2
SE3
 70
     0
 10
0.0
 20
0.0
 30
0.0
  3
SE3
  1

  0
LINE
  5
133
330
F9
100
AcDbEntity
  8
AM_5
  6
Continuous
 62
     7
370
     0
100
AcDbLine
 10
64.3567806820898
 20
75.00800359813545
 30
0.0
 11
62.24113102176414
 21
75.00800359813545
 31
0.0
  0
LINE
  5
134
330
F9
100
AcDbEntity
  8
AM_5
  6
Continuous
 62
     7
370
     0
100
AcDbLine
 10
62.40113098624412
 20
115.0079947181354
 30
0.0
 11
62.24113102176414
 21
115.0079947181354
 31
0.0
  0
LINE
  5
135
330
F9
100
AcDbEntity
  8
AM_5
  6
Continuous
 62
     7
370
     0
100
AcDbLine
 10
63.24113079976413
 20
78.50800282113548
 30
0.0
 11
63.24113079976413
 21
111.5079954951355
 31
0.0
  0
LINE
  5
136
330
F9
100
AcDbEntity
  8
AM_0
  6
Continuous
 62
     7
370
     0
100
AcDbLine
 10
62.36613099401414
 20
78.50800282113548
 30
0.0
 11
63.24113079976413
 21
75.00800359813547
 31
0.0
  0
LINE
  5
137
330
F9
100
AcDbEntity
  8
AM_0
  6
Continuous
 62
     7
370
     0
100
AcDbLine
 10
63.24113079976413
 20
75.00800359813545
 30
0.0
 11
64.11613060551413
 21
78.50800282113546
 31
0.0
  0
LINE
  5
138
330
F9
100
AcDbEntity
  8
AM_0
  6
Continuous
 62
     7
370
     0
100
AcDbLine
 10
62.36613099401414
 20
78.50800282113548
 30
0.0
 11
64.11613060551414
 21
78.50800282113548
 31
0.0
  0
LINE
  5
139
330
F9
100
AcDbEntity
  8
AM_0
  6
Continuous
 62
     7
370
     0
100
AcDbLine
 10
64.11613060551414
 20
111.5079954951354
 30
0.0
 11
63.24113079976415
 21
115.0079947181354
 31
0.0
  0
LINE
  5
13A
330
F9
100
AcDbEntity
  8
AM_0
  6
Continuous
 62
     7
370
     0
100
AcDbLine
 10
63.24113079976415
 20
115.0079947181354
 30
0.0
 11
62.36613099401415
 21
111.5079954951354
 31
0.0
  0
LINE
  5
13B
330
F9
100
AcDbEntity
  8
AM_0
  6
Continuous
 62
     7
370
     0
100
AcDbLine
 10
64.11613060551414
 20
111.5079954951354
 30
0.0
 11
62.36613099401414
 21
111.5079954951354
 31
0.0
  0
TEXT
  5
13C
330
F9
100
AcDbEntity
  8
AM_5
  6
Continuous
 62
     7
370
     0
100
AcDbText
 10
62.41035088565651
 20
93.05147813020317
 30
0.0
 40
2.499999445
  1
40
 50
90.0
  7
arial_ttf
 11
59.91035144065651
 21
93.05147813020317
 31
0.0
100
AcDbText
 73
     3
  0
POINT
  5
13D
330
F9
100
AcDbEntity
  8
DEFPOINTS
  6
Continuous
 62
     7
370
     0
100
AcDbPoint
 10
65.8567803490898
 20
75.00800359813545
 30
0.0
  0
POINT
  5
13E
330
F9
100
AcDbEntity
  8
DEFPOINTS
  6
Continuous
 62
     7
370
     0
100
AcDbPoint
 10
63.90113065324412
 20
115.0079947181354
 30
0.0
  0
POINT
  5
13F
330
F9
100
AcDbEntity
  8
DEFPOINTS
  6
Continuous
 62
     7
370
     0
100
AcDbPoint
 10
63.24113079976415
 20
115.0079947181354
 30
0.0
  0
ENDBLK
  5
1C3
330
F9
100
AcDbEntity
  8
0
370
     0
100
AcDbBlockEnd
  0
BLOCK
  5
141
330
FB
100
AcDbEntity
  8
0
 62
     1
 48
0.0
370
     0
100
AcDbBlockBegin
  2
SE4
 70
     0
 10
0.0
 20
0.0
 30
0.0
  3
SE4
  1

  0
LINE
  5
142
330
FB
100
AcDbEntity
  8
AM_5
  6
Continuous
 62
     7
370
     0
100
AcDbLine
 10
64.39068196456371
 20
115.0079947181354
 30
0.0
 11
62.24113102176414
 21
115.0079947181354
 31
0.0
  0
LINE
  5
143
330
FB
100
AcDbEntity
  8
AM_5
  6
Continuous
 62
     7
370
     0
100
AcDbLine
 10
62.53731777601065
 20
134.0079905001355
 30
0.0
 11
62.24113102176414
 21
134.0079905001355
 31
0.0
  0
LINE
  5
144
330
FB
100
AcDbEntity
  8
AM_5
  6
Continuous
 62
     7
370
     0
100
AcDbLine
 10
63.24113079976415
 20
118.5079939411354
 30
0.0
 11
63.24113079976415
 21
130.5079912771354
 31
0.0
  0
LINE
  5
145
330
FB
100
AcDbEntity
  8
AM_0
  6
Continuous
 62
     7
370
     0
100
AcDbLine
 10
62.36613099401414
 20
118.5079939411354
 30
0.0
 11
63.24113079976413
 21
115.0079947181354
 31
0.0
  0
LINE
  5
146
330
FB
100
AcDbEntity
  8
AM_0
  6
Continuous
 62
     7
370
     0
100
AcDbLine
 10
63.24113079976415
 20
115.0079947181354
 30
0.0
 11
64.11613060551414
 21
118.5079939411355
 31
0.0
  0
LINE
  5
147
330
FB
100
AcDbEntity
  8
AM_0
  6
Continuous
 62
     7
370
     0
100
AcDbLine
 10
62.36613099401414
 20
118.5079939411354
 30
0.0
 11
64.11613060551414
 21
118.5079939411354
 31
0.0
  0
LINE
  5
148
330
FB
100
AcDbEntity
  8
AM_0
  6
Continuous
 62
     7
370
     0
100
AcDbLine
 10
64.11613060551414
 20
130.5079912771354
 30
0.0
 11
63.24113079976415
 21
134.0079905001354
 31
0.0
  0
LINE
  5
149
330
FB
100
AcDbEntity
  8
AM_0
  6
Continuous
 62
     7
370
     0
100
AcDbLine
 10
63.24113079976415
 20
134.0079905001355
 30
0.0
 11
62.36613099401415
 21
130.5079912771355
 31
0.0
  0
LINE
  5
14A
330
FB
100
AcDbEntity
  8
AM_0
  6
Continuous
 62
     7
370
     0
100
AcDbLine
 10
64.11613060551414
 20
130.5079912771354
 30
0.0
 11
62.36613099401414
 21
130.5079912771354
 31
0.0
  0
TEXT
  5
14B
330
FB
100
AcDbEntity
  8
AM_5
  6
Continuous
 62
     7
370
     0
100
AcDbText
 10
62.4103508856565
 20
122.5514715812031
 30
0.0
 40
2.499999445
  1
19
 50
90.0
  7
arial_ttf
 11
59.9103514406565
 21
122.5514715812031
 31
0.0
100
AcDbText
 73
     3
  0
POINT
  5
14C
330
FB
100
AcDbEntity
  8
DEFPOINTS
  6
Continuous
 62
     7
370
     0
100
AcDbPoint
 10
65.89068163156371
 20
115.0079947181354
 30
0.0
  0
POINT
  5
14D
330
FB
100
AcDbEntity
  8
DEFPOINTS
  6
Continuous
 62
     7
370
     0
100
AcDbPoint
 10
64.03731744301065
 20
134.0079905001355
 30
0.0
  0
POINT
  5
14E
330
FB
100
AcDbEntity
  8
DEFPOINTS
  6
Continuous
 62
     7
370
     0
100
AcDbPoint
 10
63.24113079976415
 20
134.0079905001355
 30
0.0
  0
ENDBLK
  5
1C4
330
FB
100
AcDbEntity
  8
0
370
     0
100
AcDbBlockEnd
  0
BLOCK
  5
150
330
FD
100
AcDbEntity
  8
0
 62
     1
 48
0.0
370
     0
100
AcDbBlockBegin
  2
SE5
 70
     0
 10
0.0
 20
0.0
 30
0.0
  3
SE5
  1

  0
LINE
  5
151
330
FD
100
AcDbEntity
  8
AM_5
  6
Continuous
 62
     7
370
     0
100
AcDbLine
 10
77.14265564362493
 20
134.0079905001355
 30
0.0
 11
53.18968860118481
 21
134.0079905001355
 31
0.0
  0
LINE
  5
152
330
FD
100
AcDbEntity
  8
AM_5
  6
Continuous
 62
     7
370
     0
100
AcDbLine
 10
81.04263044783033
 20
16.00801669613546
 30
0.0
 11
53.1896886011848
 21
16.00801669613547
 31
0.0
  0
LINE
  5
153
330
FD
100
AcDbEntity
  8
AM_5
  6
Continuous
 62
     7
370
     0
100
AcDbLine
 10
54.1896883791848
 20
130.5079912771354
 30
0.0
 11
54.18968837918478
 21
19.50801591913547
 31
0.0
  0
LINE
  5
154
330
FD
100
AcDbEntity
  8
AM_0
  6
Continuous
 62
     7
370
     0
100
AcDbLine
 10
55.0646881849348
 20
130.5079912771354
 30
0.0
 11
54.1896883791848
 21
134.0079905001354
 31
0.0
  0
LINE
  5
155
330
FD
100
AcDbEntity
  8
AM_0
  6
Continuous
 62
     7
370
     0
100
AcDbLine
 10
54.1896883791848
 20
134.0079905001355
 30
0.0
 11
53.3146885734348
 21
130.5079912771355
 31
0.0
  0
LINE
  5
156
330
FD
100
AcDbEntity
  8
AM_0
  6
Continuous
 62
     7
370
     0
100
AcDbLine
 10
55.0646881849348
 20
130.5079912771354
 30
0.0
 11
53.3146885734348
 21
130.5079912771354
 31
0.0
  0
LINE
  5
157
330
FD
100
AcDbEntity
  8
AM_0
  6
Continuous
 62
     7
370
     0
100
AcDbLine
 10
53.31468857343478
 20
19.50801591913548
 30
0.0
 11
54.18968837918478
 21
16.00801669613548
 31
0.0
  0
LINE
  5
158
330
FD
100
AcDbEntity
  8
AM_0
  6
Continuous
 62
     7
370
     0
100
AcDbLine
 10
54.18968837918479
 20
16.00801669613548
 30
0.0
 11
55.06468818493479
 21
19.50801591913547
 31
0.0
  0
LINE
  5
159
330
FD
100
AcDbEntity
  8
AM_0
  6
Continuous
 62
     7
370
     0
100
AcDbLine
 10
53.31468857343478
 20
19.50801591913548
 30
0.0
 11
55.06468818493479
 21
19.50801591913548
 31
0.0
  0
TEXT
  5
15A
330
FD
100
AcDbEntity
  8
AM_5
  6
Continuous
 62
     7
370
     0
100
AcDbText
 10
53.35890846507717
 20
72.07322196781188
 30
0.0
 40
2.499999445
  1
118
 50
90.0
  7
arial_ttf
 11
50.85890902007717
 21
72.07322196781188
 31
0.0
100
AcDbText
 73
     3
  0
POINT
  5
15B
330
FD
100
AcDbEntity
  8
DEFPOINTS
  6
Continuous
 62
     7
370
     0
100
AcDbPoint
 10
78.64265531062492
 20
134.0079905001355
 30
0.0
  0
POINT
  5
15C
330
FD
100
AcDbEntity
  8
DEFPOINTS
  6
Continuous
 62
     7
370
     0
100
AcDbPoint
 10
82.54263011483031
 20
16.00801669613546
 30
0.0
  0
POINT
  5
15D
330
FD
100
AcDbEntity
  8
DEFPOINTS
  6
Continuous
 62
     7
370
     0
100
AcDbPoint
 10
54.18968837918479
 20
16.00801669613548
 30
0.0
  0
ENDBLK
  5
1C5
330
FD
100
AcDbEntity
  8
0
370
     0
100
AcDbBlockEnd
  0
BLOCK
  5
15F
330
FF
100
AcDbEntity
  8
0
 62
     1
 48
0.0
370
     0
100
AcDbBlockBegin
  2
SE6
 70
     0
 10
0.0
 20
0.0
 30
0.0
  3
SE6
  1

  0
LINE
  5
160
330
FF
100
AcDbEntity
  8
AM_5
  6
Continuous
 62
     7
370
     0
100
AcDbLine
 10
73.04263222383032
 20
237.3472829088075
 30
0.0
 11
56.00550052607442
 21
237.3472829088075
 31
0.0
  0
LINE
  5
161
330
FF
100
AcDbEntity
  8
AM_5
  6
Continuous
 62
     7
370
     0
100
AcDbLine
 10
77.15005109198314
 20
157.3473006688074
 30
0.0
 11
56.00550052607444
 21
157.3473006688074
 31
0.0
  0
LINE
  5
162
330
FF
100
AcDbEntity
  8
AM_5
  6
Continuous
 62
     7
370
     0
100
AcDbLine
 10
57.00550030407444
 20
233.8472836858075
 30
0.0
 11
57.00550030407442
 21
160.8472998918074
 31
0.0
  0
LINE
  5
163
330
FF
100
AcDbEntity
  8
AM_0
  6
Continuous
 62
     7
370
     0
100
AcDbLine
 10
57.88050010982445
 20
233.8472836858075
 30
0.0
 11
57.00550030407445
 21
237.3472829088075
 31
0.0
  0
LINE
  5
164
330
FF
100
AcDbEntity
  8
AM_0
  6
Continuous
 62
     7
370
     0
100
AcDbLine
 10
57.00550030407444
 20
237.3472829088075
 30
0.0
 11
56.13050049832444
 21
233.8472836858075
 31
0.0
  0
LINE
  5
165
330
FF
100
AcDbEntity
  8
AM_0
  6
Continuous
 62
     7
370
     0
100
AcDbLine
 10
57.88050010982445
 20
233.8472836858075
 30
0.0
 11
56.13050049832445
 21
233.8472836858075
 31
0.0
  0
LINE
  5
166
330
FF
100
AcDbEntity
  8
AM_0
  6
Continuous
 62
     7
370
     0
100
AcDbLine
 10
56.13050049832442
 20
160.8472998918074
 30
0.0
 11
57.00550030407442
 21
157.3473006688074
 31
0.0
  0
LINE
  5
167
330
FF
100
AcDbEntity
  8
AM_0
  6
Continuous
 62
     7
370
     0
100
AcDbLine
 10
57.00550030407441
 20
157.3473006688074
 30
0.0
 11
57.88050010982441
 21
160.8472998918074
 31
0.0
  0
LINE
  5
168
330
FF
100
AcDbEntity
  8
AM_0
  6
Continuous
 62
     7
370
     0
100
AcDbLine
 10
56.13050049832442
 20
160.8472998918074
 30
0.0
 11
57.88050010982442
 21
160.8472998918074
 31
0.0
  0
TEXT
  5
169
330
FF
100
AcDbEntity
  8
AM_5
  6
Continuous
 62
     7
370
     0
100
AcDbText
 10
56.17472038996679
 20
195.3907706108752
 30
0.0
 40
2.499999445
  1
80
 50
90.0
  7
arial_ttf
 11
53.6747209449668
 21
195.3907706108752
 31
0.0
100
AcDbText
 73
     3
  0
POINT
  5
16A
330
FF
100
AcDbEntity
  8
DEFPOINTS
  6
Continuous
 62
     7
370
     0
100
AcDbPoint
 10
74.54263189083032
 20
237.3472829088075
 30
0.0
  0
POINT
  5
16B
330
FF
100
AcDbEntity
  8
DEFPOINTS
  6
Continuous
 62
     7
370
     0
100
AcDbPoint
 10
78.65005075898313
 20
157.3473006688074
 30
0.0
  0
POINT
  5
16C
330
FF
100
AcDbEntity
  8
DEFPOINTS
  6
Continuous
 62
     7
370
     0
100
AcDbPoint
 10
57.00550030407441
 20
157.3473006688074
 30
0.0
  0
ENDBLK
  5
1C6
330
FF
100
AcDbEntity
  8
0
370
     0
100
AcDbBlockEnd
  0
ENDSEC
  0
SECTION
  2
ENTITIES
  0
LINE
  5
6E
330
A
100
AcDbEntity
  8
AM_8
  6
Continuous
 62
     7
370
     0
100
AcDbLine
 10
56.84345229299251
 20
125.764676682711
 30
0.0
 11
53.32528179402652
 21
122.2465061837451
 31
0.0
  0
LINE
  5
6F
330
A
100
AcDbEntity
  8
AM_8
  6
Continuous
 62
     7
370
     0
100
AcDbLine
 10
49.08264204589276
 20
122.2465061837451
 30
0.0
 11
53.08399391759246
 21
126.2478580454448
 31
0.0
  0
LINE
  5
70
330
A
100
AcDbEntity
  8
AM_8
  6
Continuous
 62
     7
370
     0
100
AcDbLine
 10
50.21121616534927
 20
127.6177200413353
 30
0.0
 11
44.84000229775904
 21
122.2465061837451
 31
0.0
  0
LINE
  5
71
330
A
100
AcDbEntity
  8
AM_8
  6
Continuous
 62
     7
370
     0
100
AcDbLine
 10
42.85575564826186
 20
124.5048992723817
 30
0.0
 11
47.45877140639215
 21
129.107915030512
 31
0.0
  0
LINE
  5
72
330
A
100
AcDbEntity
  8
AM_8
  6
Continuous
 62
     7
370
     0
100
AcDbLine
 10
32.11208306335769
 20
122.2465061837451
 30
0.0
 11
34.35575753526183
 21
124.4901806456492
 31
0.0
  0
LINE
  5
73
330
A
100
AcDbEntity
  8
AM_8
  6
Continuous
 62
     7
370
     0
100
AcDbLine
 10
32.86944220522395
 20
127.2465050737451
 30
0.0
 11
27.86944331522395
 21
122.2465061837451
 31
0.0
  0
LINE
  5
74
330
A
100
AcDbEntity
  8
AM_8
  6
Continuous
 62
     7
370
     0
100
AcDbLine
 10
23.62680357709018
 20
122.2465061837451
 30
0.0
 11
31.62680180109018
 21
130.2465044077451
 31
0.0
  0
LINE
  5
75
330
A
100
AcDbEntity
  8
AM_8
  6
Continuous
 62
     7
370
     0
100
AcDbLine
 10
27.38416205295641
 20
130.2465044077451
 30
0.0
 11
19.3841638289564
 21
122.2465061837451
 31
0.0
  0
LINE
  5
76
330
A
100
AcDbEntity
  8
AM_8
  6
Continuous
 62
     7
370
     0
100
AcDbLine
 10
15.14152408082263
 20
122.2465061837451
 30
0.0
 11
23.14152230482264
 21
130.2465044077451
 31
0.0
  0
LINE
  5
77
330
A
100
AcDbEntity
  8
AM_8
  6
Continuous
 62
     7
370
     0
100
AcDbLine
 10
19.01652601057202
 20
130.3641478516282
 30
0.0
 11
10.89888434268887
 21
122.2465061837451
 31
0.0
  0
LINE
  5
78
330
A
100
AcDbEntity
  8
AM_8
  6
Continuous
 62
     7
370
     0
100
AcDbLine
 10
6.656244594555104
 20
122.2465061837451
 30
0.0
 11
16.63100192015848
 21
132.2212635093485
 31
0.0
  0
LINE
  5
79
330
A
100
AcDbEntity
  8
AM_8
  6
Continuous
 62
     7
370
     0
100
AcDbLine
 10
14.50968205109161
 20
134.3425833784153
 30
0.0
 11
2.855764528261872
 21
122.6886658555855
 31
0.0
  0
LINE
  5
7A
330
A
100
AcDbEntity
  8
AM_8
  6
Continuous
 62
     7
370
     0
100
AcDbLine
 10
2.855764528261872
 20
126.9313056037194
 30
0.0
 11
3.170963988287567
 21
127.2465050737451
 31
0.0
  0
LINE
  5
7B
330
A
100
AcDbEntity
  8
AM_8
  6
Continuous
 62
     7
370
     0
100
AcDbLine
 10
5.355763973261872
 20
129.4313050487194
 30
0.0
 11
11.42096215678757
 21
135.4965032322451
 31
0.0
  0
LINE
  5
7C
330
A
100
AcDbEntity
  8
AM_8
  6
Continuous
 62
     7
370
     0
100
AcDbLine
 10
7.178322418653806
 20
135.4965032322451
 30
0.0
 11
5.355763973261872
 21
133.6739447868532
 31
0.0
  0
LINE
  5
7D
330
A
100
AcDbEntity
  8
AM_8
  6
Continuous
 62
     7
370
     0
100
AcDbLine
 10
-6.071674639846193
 20
122.2465061837451
 30
0.0
 11
-5.644233584738117
 21
122.6739472288532
 31
0.0
  0
LINE
  5
7E
330
A
100
AcDbEntity
  8
AM_8
  6
Continuous
 62
     7
370
     0
100
AcDbLine
 10
-5.644233584738117
 20
126.9165869769869
 30
0.0
 11
-10.31431438797996
 21
122.2465061837451
 31
0.0
  0
LINE
  5
7F
330
A
100
AcDbEntity
  8
AM_8
  6
Continuous
 62
     7
370
     0
100
AcDbLine
 10
-14.55695413611372
 20
122.2465061837451
 30
0.0
 11
-8.144233029738117
 21
128.6592272801207
 31
0.0
  0
LINE
  5
80
330
A
100
AcDbEntity
  8
AM_8
  6
Continuous
 62
     7
370
     0
100
AcDbLine
 10
-8.144233029738131
 20
132.9018670182545
 30
0.0
 11
-18.7995938742475
 21
122.2465061837451
 31
0.0
  0
LINE
  5
81
330
A
100
AcDbEntity
  8
AM_8
  6
Continuous
 62
     7
370
     0
100
AcDbLine
 10
-21.39423008823813
 20
123.8945097078882
 30
0.0
 11
-9.79223656388126
 21
135.4965032322451
 31
0.0
  0
LINE
  5
82
330
A
100
AcDbEntity
  8
AM_8
  6
Continuous
 62
     7
370
     0
100
AcDbLine
 10
-14.03487631201503
 20
135.4965032322451
 30
0.0
 11
-21.39423008823813
 21
128.1371494560219
 31
0.0
  0
LINE
  5
83
330
A
100
AcDbEntity
  8
AM_8
  6
Continuous
 62
     7
370
     0
100
AcDbLine
 10
-21.39423008823813
 20
132.3797892041557
 30
0.0
 11
-16.39423119823813
 21
137.3797880941557
 31
0.0
  0
LINE
  5
84
330
A
100
AcDbEntity
  8
AM_8
  6
Continuous
 62
     7
370
     0
100
AcDbLine
 10
-20.02015635328256
 20
137.9965026872451
 30
0.0
 11
-21.39423008823812
 21
136.6224289422895
 31
0.0
  0
LINE
  5
85
330
A
100
AcDbEntity
  8
AM_8
  6
Continuous
 62
     7
370
     0
100
AcDbLine
 10
-9.020158795282569
 20
148.9965002452451
 30
0.0
 11
-8.144233029738131
 21
149.8724260007896
 31
0.0
  0
LINE
  5
86
330
A
100
AcDbEntity
  8
AM_8
  6
Continuous
 62
     7
370
     0
100
AcDbLine
 10
-8.144233029738131
 20
154.1150657489233
 30
0.0
 11
-13.26279854341634
 21
148.996500245245
 31
0.0
  0
LINE
  5
87
330
A
100
AcDbEntity
  8
AM_8
  6
Continuous
 62
     7
370
     0
100
AcDbLine
 10
-20.00543773655009
 20
146.4965008002451
 30
0.0
 11
-8.8248365486441
 21
157.6771019781511
 31
0.0
  0
LINE
  5
88
330
A
100
AcDbEntity
  8
AM_8
  6
Continuous
 62
     7
370
     0
100
AcDbLine
 10
-10.94615641771099
 20
159.7984218472179
 30
0.0
 11
-21.39423008823813
 21
149.3503481766908
 31
0.0
  0
LINE
  5
89
330
A
100
AcDbEntity
  8
AM_8
  6
Continuous
 62
     7
370
     0
100
AcDbLine
 10
-21.39423008823813
 20
153.5929879248246
 30
0.0
 11
-12.83886193753028
 21
162.1483560855324
 31
0.0
  0
LINE
  5
8A
330
A
100
AcDbEntity
  8
AM_8
  6
Continuous
 62
     7
370
     0
100
AcDbLine
 10
-13.39423186423813
 20
165.8356258969583
 30
0.0
 11
-21.39423008823815
 21
157.8356276729584
 31
0.0
  0
LINE
  5
8B
330
A
100
AcDbEntity
  8
AM_8
  6
Continuous
 62
     7
370
     0
100
AcDbLine
 10
-21.39423008823813
 20
162.0782674210921
 30
0.0
 11
-13.39423186423812
 21
170.0782656450921
 31
0.0
  0
LINE
  5
8C
330
A
100
AcDbEntity
  8
AM_8
  6
Continuous
 62
     7
370
     0
100
AcDbLine
 10
-13.39423186423813
 20
174.3209053832259
 30
0.0
 11
-21.39423008823815
 21
166.3209071592259
 31
0.0
  0
LINE
  5
8D
330
A
100
AcDbEntity
  8
AM_8
  6
Continuous
 62
     7
370
     0
100
AcDbLine
 10
-21.39423008823813
 20
170.5635469073597
 30
0.0
 11
-16.39423119823813
 21
175.5635457973597
 31
0.0
  0
LINE
  5
8E
330
A
100
AcDbEntity
  8
AM_8
  6
Continuous
 62
     7
370
     0
100
AcDbLine
 10
-18.20392294648646
 20
177.9964938072451
 30
0.0
 11
-21.39423008823812
 21
174.8061866554934
 31
0.0
  0
LINE
  5
8F
330
A
100
AcDbEntity
  8
AM_8
  6
Continuous
 62
     7
370
     0
100
AcDbLine
 10
-18.18920431975401
 20
186.4964919202451
 30
0.0
 11
-16.39423119823814
 21
188.2914650317609
 31
0.0
  0
LINE
  5
90
330
A
100
AcDbEntity
  8
AM_8
  6
Continuous
 62
     7
370
     0
100
AcDbLine
 10
-15.68920487475401
 20
188.996491365245
 30
0.0
 11
-14.12713289153406
 21
190.558563348465
 31
0.0
  0
LINE
  5
91
330
A
100
AcDbEntity
  8
AM_8
  6
Continuous
 62
     7
370
     0
100
AcDbLine
 10
-15.67635024760773
 20
193.2519857305251
 30
0.0
 11
-21.39423008823812
 21
187.5341058898947
 31
0.0
  0
LINE
  5
92
330
A
100
AcDbEntity
  8
AM_8
  6
Continuous
 62
     7
370
     0
100
AcDbLine
 10
-21.39423008823813
 20
191.7767456380285
 30
0.0
 11
-17.02146642899188
 21
196.1495092972747
 31
0.0
  0
LINE
  5
93
330
A
100
AcDbEntity
  8
AM_8
  6
Continuous
 62
     7
370
     0
100
AcDbLine
 10
-17.95398639197239
 20
199.459629082428
 30
0.0
 11
-21.39423008823813
 21
196.0193853761623
 31
0.0
  0
LINE
  5
94
330
A
100
AcDbEntity
  8
AM_8
  6
Continuous
 62
     7
370
     0
100
AcDbLine
 10
-21.39423008823813
 20
200.2620251242961
 30
0.0
 11
-19.73826556586233
 21
201.9179896466719
 31
0.0
  0
LINE
  5
A1
330
A
100
AcDbEntity
  8
PROFILATI-IN-ALLUMINIO
  6
Continuous
 62
     7
370
     0
100
AcDbLine
 10
-16.39423119823813
 20
75.65720117657311
 30
0.0
 11
-21.39423008823813
 21
75.65720117657311
 31
0.0
  0
LINE
  5
A4
330
A
100
AcDbEntity
  8
PROFILATI-IN-ALLUMINIO
  6
Continuous
 62
     7
370
     0
100
AcDbLine
 10
-16.39423119823813
 20
84.15719928957313
 30
0.0
 11
-21.39423008823813
 21
84.15719928957313
 31
0.0
  0
CIRCLE
  5
A5
330
A
100
AcDbEntity
  8
PROFILATI-IN-ALLUMINIO
  6
Continuous
 62
     7
370
     0
100
AcDbCircle
 10
38.60575659176189
 20
79.90720023307311
 30
0.0
 40
6.749998501499999
  0
CIRCLE
  5
A6
330
A
100
AcDbEntity
  8
PROFILATI-IN-ALLUMINIO
  6
Continuous
 62
     7
370
     0
100
AcDbCircle
 10
38.60575659176189
 20
79.90720023307311
 30
0.0
 40
4.2499990565
  0
CIRCLE
  5
A7
330
A
100
AcDbEntity
  8
PROFILATI-IN-ALLUMINIO
  6
Continuous
 62
     7
370
     0
100
AcDbCircle
 10
-1.394234528238115
 20
79.90720023307311
 30
0.0
 40
4.2499990565
  0
LINE
  5
A8
330
A
100
AcDbEntity
  8
PROFILATI-IN-ALLUMINIO
  6
Continuous
 62
     7
370
     0
100
AcDbLine
 10
42.85575564826186
 20
127.2465050737451
 30
0.0
 11
42.85575564826186
 21
122.2465061837451
 31
0.0
  0
LINE
  5
A9
330
A
100
AcDbEntity
  8
PROFILATI-IN-ALLUMINIO
  6
Continuous
 62
     7
370
     0
100
AcDbLine
 10
34.35575753526189
 20
127.2465050737451
 30
0.0
 11
34.35575753526189
 21
122.2465061837451
 31
0.0
  0
LINE
  5
AB
330
A
100
AcDbEntity
  8
PROFILATI-IN-ALLUMINIO
  6
Continuous
 62
     7
370
     0
100
AcDbLine
 10
-16.39423119823813
 20
177.9964938072451
 30
0.0
 11
-21.39423008823813
 21
177.9964938072451
 31
0.0
  0
LINE
  5
AC
330
A
100
AcDbEntity
  8
PROFILATI-IN-ALLUMINIO
  6
Continuous
 62
     7
370
     0
100
AcDbLine
 10
-16.39423119823813
 20
186.4964919202451
 30
0.0
 11
-21.39423008823813
 21
186.4964919202451
 31
0.0
  0
LINE
  5
AF
330
A
100
AcDbEntity
  8
PROFILATI-IN-ALLUMINIO
  6
Continuous
 62
     7
370
     0
100
AcDbLine
 10
-16.39423119823813
 20
146.4965008002451
 30
0.0
 11
-21.39423008823813
 21
146.4965008002451
 31
0.0
  0
LINE
  5
B0
330
A
100
AcDbEntity
  8
PROFILATI-IN-ALLUMINIO
  6
Continuous
 62
     7
370
     0
100
AcDbLine
 10
-16.39423119823813
 20
-4.34278106342688
 30
0.0
 11
-21.39423008823813
 21
-4.34278106342688
 31
0.0
  0
LINE
  5
B3
330
A
100
AcDbEntity
  8
PROFILATI-IN-ALLUMINIO
  6
Continuous
 62
     7
370
     0
100
AcDbLine
 10
-16.39423119823813
 20
4.157217049573119
 30
0.0
 11
-21.39423008823813
 21
4.157217049573119
 31
0.0
  0
LINE
  5
B4
330
A
100
AcDbEntity
  8
PROFILATI-IN-ALLUMINIO
  6
Continuous
 62
     7
370
     0
100
AcDbLine
 10
-16.39423119823813
 20
35.65721005657312
 30
0.0
 11
-21.39423008823813
 21
35.65721005657312
 31
0.0
  0
LINE
  5
B7
330
A
100
AcDbEntity
  8
PROFILATI-IN-ALLUMINIO
  6
Continuous
 62
     7
370
     0
100
AcDbLine
 10
-16.39423119823813
 20
44.15720816957311
 30
0.0
 11
-21.39423008823813
 21
44.15720816957311
 31
0.0
  0
LINE
  5
B8
330
A
100
AcDbEntity
  8
PROFILATI-IN-ALLUMINIO
  6
Continuous
 62
     7
370
     0
100
AcDbLine
 10
-16.39423119823813
 20
137.9965026872451
 30
0.0
 11
-21.39423008823813
 21
137.9965026872451
 31
0.0
  0
LINE
  5
BB
330
A
100
AcDbEntity
  8
PROFILATI-IN-ALLUMINIO
  6
Continuous
 62
     7
370
     0
100
AcDbLine
 10
2.855764528261872
 20
127.2465050737451
 30
0.0
 11
2.855764528261872
 21
122.2465061837451
 31
0.0
  0
LINE
  5
BC
330
A
100
AcDbEntity
  8
PROFILATI-IN-ALLUMINIO
  6
Continuous
 62
     7
370
     0
100
AcDbLine
 10
-5.644233584738117
 20
127.2465050737451
 30
0.0
 11
-5.644233584738117
 21
122.2465061837451
 31
0.0
  0
LINE
  5
BF
330
A
100
AcDbEntity
  8
AM_BOR
  6
Continuous
 62
     7
370
     0
100
AcDbLine
 10
54.72633666299228
 20
98.90719601507313
 30
0.0
 11
54.72633666299228
 21
-19.09277778892686
 31
0.0
  0
CIRCLE
  5
C0
330
A
100
AcDbEntity
  8
PROFILATI-IN-ALLUMINIO
  6
Continuous
 62
     7
370
     0
100
AcDbCircle
 10
38.60575659176189
 20
39.90720911307311
 30
0.0
 40
6.749998501499999
  0
LINE
  5
C5
330
A
100
AcDbEntity
  8
AM_BOR
  6
Continuous
 62
     7
370
     0
100
AcDbLine
 10
46.27375316946626
 20
98.90719601507313
 30
0.0
 11
46.27375316946626
 21
-19.09277778892686
 31
0.0
  0
LINE
  5
C6
330
A
100
AcDbEntity
  8
AM_BOR
  6
Continuous
 62
     7
370
     0
100
AcDbLine
 10
-17.2736473530077
 20
98.90719601507313
 30
0.0
 11
-17.2736473530077
 21
-19.09277778892686
 31
0.0
  0
LINE
  5
C7
330
A
100
AcDbEntity
  8
PROFILATI-IN-ALLUMINIO
  6
Continuous
 62
     7
370
     0
100
AcDbLine
 10
-13.39423186423813
 20
98.90719601507313
 30
0.0
 11
-13.39423186423813
 21
-19.09277778892686
 31
0.0
  0
CIRCLE
  5
C9
330
A
100
AcDbEntity
  8
PROFILATI-IN-ALLUMINIO
  6
Continuous
 62
     7
370
     0
100
AcDbCircle
 10
38.60575659176189
 20
-0.0927820069268819
 30
0.0
 40
6.749998501499999
  0
CIRCLE
  5
CA
330
A
100
AcDbEntity
  8
PROFILATI-IN-ALLUMINIO
  6
Continuous
 62
     7
370
     0
100
AcDbCircle
 10
38.60575659176189
 20
-0.0927820069268819
 30
0.0
 40
4.2499990565
  0
CIRCLE
  5
CB
330
A
100
AcDbEntity
  8
PROFILATI-IN-ALLUMINIO
  6
Continuous
 62
     7
370
     0
100
AcDbCircle
 10
38.60575659176189
 20
39.90720911307311
 30
0.0
 40
4.2499990565
  0
CIRCLE
  5
CC
330
A
100
AcDbEntity
  8
PROFILATI-IN-ALLUMINIO
  6
Continuous
 62
     7
370
     0
100
AcDbCircle
 10
-1.394234528238115
 20
-0.0927820069268819
 30
0.0
 40
4.2499990565
  0
CIRCLE
  5
CD
330
A
100
AcDbEntity
  8
PROFILATI-IN-ALLUMINIO
  6
Continuous
 62
     7
370
     0
100
AcDbCircle
 10
-1.394234528238115
 20
39.90720911307311
 30
0.0
 40
4.2499990565
  0
LINE
  5
CE
330
A
100
AcDbEntity
  8
AM_BOR
  6
Continuous
 62
     7
370
     0
100
AcDbLine
 10
22.96672984362658
 20
90.88239785657869
 30
0.0
 11
22.96672984362658
 21
-11.39529153776921
 31
0.0
  0
LINE
  5
CF
330
A
100
AcDbEntity
  8
PROFILATI-IN-ALLUMINIO
  6
Continuous
 62
     7
370
     0
100
AcDbLine
 10
20.46810582832124
 20
98.90719601507313
 30
0.0
 11
20.46810582832124
 21
-19.09277778892686
 31
0.0
  0
POINT
  5
E0
330
A
100
AcDbEntity
  8
DEFPOINTS
  6
Continuous
 62
     7
370
     0
100
AcDbPoint
 10
-16.39423119823813
 20
186.4964919202451
 30
0.0
  0
POINT
  5
E1
330
A
100
AcDbEntity
  8
DEFPOINTS
  6
Continuous
 62
     7
370
     0
100
AcDbPoint
 10
-16.39423119823813
 20
177.9964938072451
 30
0.0
  0
POINT
  5
EE
330
A
100
AcDbEntity
  8
DEFPOINTS
  6
Continuous
 62
     7
370
     0
100
AcDbPoint
 10
2.855764528261872
 20
126.1043654173001
 30
0.0
  0
POINT
  5
EF
330
A
100
AcDbEntity
  8
DEFPOINTS
  6
Continuous
 62
     7
370
     0
100
AcDbPoint
 10
-5.644233584738117
 20
126.1043654173001
 30
0.0
  0
LINE
  5
281
330
A
100
AcDbEntity
  8
PROFILATI-IN-ALLUMINIO
  6
Continuous
 62
     7
370
     0
100
AcDbLine
 10
6.298041034076319
 20
39.37825291050143
 30
0.0
 11
2.552281145635177
 21
45.38329290738227
 31
0.0
  0
ARC
  5
284
330
A
100
AcDbEntity
  8
PROFILATI-IN-ALLUMINIO
  6
Continuous
 62
     7
370
     0
100
AcDbCircle
 10
-1.394234530430011
 20
39.90720911145281
 30
0.0
 40
6.749998497886457
100
AcDbArc
 50
54.22038176361398
 51
297.9121612098741
  0
LINE
  5
285
330
A
100
AcDbEntity
  8
PROFILATI-IN-ALLUMINIO
  6
Continuous
 62
     7
370
     0
100
AcDbLine
 10
1.765557120287965
 20
33.94246297724706
 30
0.0
 11
6.298041034076305
 21
39.37825291050143
 31
0.0
  0
LINE
  5
286
330
A
100
AcDbEntity
  8
PROFILATI-IN-ALLUMINIO
  6
Continuous
 62
     7
370
     0
100
AcDbLine
 10
6.298041034076305
 20
39.37825291050143
 30
0.0
 11
6.298041034076319
 21
39.37825291050143
 31
0.0
  0
LINE
  5
287
330
A
100
AcDbEntity
  8
PROFILATI-IN-ALLUMINIO
  6
Continuous
 62
     7
370
     0
100
AcDbLine
 10
6.298041034076319
 20
-0.6217382094985809
 30
0.0
 11
2.552281145635191
 21
5.383301787382258
 31
0.0
  0
ARC
  5
288
330
A
100
AcDbEntity
  8
PROFILATI-IN-ALLUMINIO
  6
Continuous
 62
     7
370
     0
100
AcDbCircle
 10
-1.394234530429997
 20
-0.0927820085471964
 30
0.0
 40
6.749998497886457
100
AcDbArc
 50
54.22038176361398
 51
297.9121612098741
  0
LINE
  5
289
330
A
100
AcDbEntity
  8
PROFILATI-IN-ALLUMINIO
  6
Continuous
 62
     7
370
     0
100
AcDbLine
 10
1.765557120287965
 20
-6.05752814275295
 30
0.0
 11
6.298041034076305
 21
-0.6217382094985738
 31
0.0
  0
LINE
  5
28A
330
A
100
AcDbEntity
  8
PROFILATI-IN-ALLUMINIO
  6
Continuous
 62
     7
370
     0
100
AcDbLine
 10
6.298041034076305
 20
-0.6217382094985738
 30
0.0
 11
6.298041034076319
 21
-0.6217382094985809
 31
0.0
  0
LINE
  5
28B
330
A
100
AcDbEntity
  8
PROFILATI-IN-ALLUMINIO
  6
Continuous
 62
     7
370
     0
100
AcDbLine
 10
-21.39423008823813
 20
202.2464884237451
 30
0.0
 11
-20.39497708007235
 21
202.2464884237451
 31
0.0
  0
ARC
  5
28C
330
A
100
AcDbEntity
  8
PROFILATI-IN-ALLUMINIO
  6
Continuous
 62
     7
370
     0
100
AcDbCircle
 10
-20.3949770961378
 20
199.2464890707625
 30
0.0
 40
2.99999935298257
100
AcDbArc
 50
359.9857398249342
 51
89.99999969317265
  0
LINE
  5
28D
330
A
100
AcDbEntity
  8
PROFILATI-IN-ALLUMINIO
  6
Continuous
 62
     7
370
     0
100
AcDbLine
 10
-17.39497783607233
 20
199.2457424099108
 30
0.0
 11
-17.39507387605098
 21
198.8598698555746
 31
0.0
  0
ARC
  5
28E
330
A
100
AcDbEntity
  8
PROFILATI-IN-ALLUMINIO
  6
Continuous
 62
     7
370
     0
100
AcDbCircle
 10
-7.39507647359035
 20
198.8573812378292
 30
0.0
 40
9.999997712121626
100
AcDbArc
 50
179.9857412672275
 51
226.1920885971186
  0
ARC
  5
28F
330
A
100
AcDbEntity
  8
PROFILATI-IN-ALLUMINIO
  6
Continuous
 62
     7
370
     0
100
AcDbCircle
 10
-16.39423113315521
 20
189.4757429523139
 30
0.0
 40
2.999999268917075
100
AcDbArc
 50
359.9999999999996
 51
46.19208896403478
  0
LINE
  5
290
330
A
100
AcDbEntity
  8
PROFILATI-IN-ALLUMINIO
  6
Continuous
 62
     7
370
     0
100
AcDbLine
 10
-13.39423186423813
 20
189.4757429523138
 30
0.0
 11
-13.39423186423813
 21
163.4891377078788
 31
0.0
  0
ARC
  5
291
330
A
100
AcDbEntity
  8
PROFILATI-IN-ALLUMINIO
  6
Continuous
 62
     7
370
     0
100
AcDbCircle
 10
-10.39423257426696
 20
163.4891376867608
 30
0.0
 40
2.999999289971171
100
AcDbArc
 50
179.9999995966755
 51
225.0000001743571
  0
LINE
  5
292
330
A
100
AcDbEntity
  8
PROFILATI-IN-ALLUMINIO
  6
Continuous
 62
     7
370
     0
100
AcDbLine
 10
-12.51555240930501
 20
161.367817838812
 30
0.0
 11
2.605764583761882
 21
146.2465008557451
 31
0.0
  0
LINE
  5
293
330
A
100
AcDbEntity
  8
PROFILATI-IN-ALLUMINIO
  6
Continuous
 62
     7
370
     0
100
AcDbLine
 10
2.605764583761882
 20
146.2465008557451
 30
0.0
 11
17.72708156682877
 21
131.1251838626782
 31
0.0
  0
ARC
  5
294
330
A
100
AcDbEntity
  8
PROFILATI-IN-ALLUMINIO
  6
Continuous
 62
     7
370
     0
100
AcDbCircle
 10
19.84840141477765
 20
133.2465036977163
 30
0.0
 40
2.999999289971214
100
AcDbArc
 50
224.9999998256429
 51
270.0000004033241
  0
LINE
  5
295
330
A
100
AcDbEntity
  8
PROFILATI-IN-ALLUMINIO
  6
Continuous
 62
     7
370
     0
100
AcDbLine
 10
19.84840143589564
 20
130.2465044077451
 30
0.0
 11
45.83500665686798
 21
130.2465044077451
 31
0.0
  0
ARC
  5
296
330
A
100
AcDbEntity
  8
PROFILATI-IN-ALLUMINIO
  6
Continuous
 62
     7
370
     0
100
AcDbCircle
 10
45.83500668033059
 20
127.246505138828
 30
0.0
 40
2.999999268917065
100
AcDbArc
 50
43.80791103596378
 51
90.00000044810303
  0
ARC
  5
297
330
A
100
AcDbEntity
  8
PROFILATI-IN-ALLUMINIO
  6
Continuous
 62
     7
370
     0
100
AcDbCircle
 10
55.21664496584603
 20
136.2456597983929
 30
0.0
 40
9.999997712121679
100
AcDbArc
 50
223.8079114028812
 51
270.0142587327721
  0
LINE
  5
298
330
A
100
AcDbEntity
  8
PROFILATI-IN-ALLUMINIO
  6
Continuous
 62
     7
370
     0
100
AcDbLine
 10
55.21913358359137
 20
126.2456623959322
 30
0.0
 11
55.60500614792764
 21
126.2457584359109
 31
0.0
  0
ARC
  5
299
330
A
100
AcDbEntity
  8
PROFILATI-IN-ALLUMINIO
  6
Continuous
 62
     7
370
     0
100
AcDbCircle
 10
55.60575280377927
 20
123.2457591808442
 30
0.0
 40
2.999999347982559
100
AcDbArc
 50
359.9999999999996
 51
90.01426007959542
  0
LINE
  5
29A
330
A
100
AcDbEntity
  8
PROFILATI-IN-ALLUMINIO
  6
Continuous
 62
     7
370
     0
100
AcDbLine
 10
58.60575215176186
 20
123.2457591808441
 30
0.0
 11
58.60575215176186
 21
122.2465061837451
 31
0.0
  0
LINE
  5
29B
330
A
100
AcDbEntity
  8
PROFILATI-IN-ALLUMINIO
  6
Continuous
 62
     7
370
     0
100
AcDbLine
 10
58.60575215176186
 20
122.2465061837451
 30
0.0
 11
-21.39423008823813
 21
122.2465061837451
 31
0.0
  0
LINE
  5
29C
330
A
100
AcDbEntity
  8
PROFILATI-IN-ALLUMINIO
  6
Continuous
 62
     7
370
     0
100
AcDbLine
 10
-21.39423008823813
 20
122.2465061837451
 30
0.0
 11
-21.39423008823813
 21
202.2464884237451
 31
0.0
  0
LINE
  5
29D
330
A
100
AcDbEntity
  8
PROFILATI-IN-ALLUMINIO
  6
Continuous
 62
     7
370
     0
100
AcDbLine
 10
-21.39423008823813
 20
202.2464884237451
 30
0.0
 11
-21.39423008823813
 21
202.2464884237451
 31
0.0
  0
LINE
  5
29E
330
A
100
AcDbEntity
  8
PROFILATI-IN-ALLUMINIO
  6
Continuous
 62
     7
370
     0
100
AcDbLine
 10
6.298041034076319
 20
79.3782440305014
 30
0.0
 11
2.552281145635191
 21
85.38328402738226
 31
0.0
  0
ARC
  5
29F
330
A
100
AcDbEntity
  8
PROFILATI-IN-ALLUMINIO
  6
Continuous
 62
     7
370
     0
100
AcDbCircle
 10
-1.394234530429997
 20
79.90720023145282
 30
0.0
 40
6.749998497886445
100
AcDbArc
 50
54.22038176361398
 51
297.9121612098741
  0
LINE
  5
2A0
330
A
100
AcDbEntity
  8
PROFILATI-IN-ALLUMINIO
  6
Continuous
 62
     7
370
     0
100
AcDbLine
 10
1.765557120287965
 20
73.94245409724708
 30
0.0
 11
6.298041034076305
 21
79.37824403050147
 31
0.0
  0
LINE
  5
2A1
330
A
100
AcDbEntity
  8
PROFILATI-IN-ALLUMINIO
  6
Continuous
 62
     7
370
     0
100
AcDbLine
 10
6.298041034076305
 20
79.37824403050147
 30
0.0
 11
6.298041034076319
 21
79.3782440305014
 31
0.0
  0
LINE
  5
2A2
330
A
100
AcDbEntity
  8
PROFILATI-IN-ALLUMINIO
  6
Continuous
 62
     7
370
     0
100
AcDbLine
 10
58.60575215176186
 20
60.90720445107312
 30
0.0
 11
58.60575215176186
 21
98.90719601507313
 31
0.0
  0
LINE
  5
2A3
330
A
100
AcDbEntity
  8
PROFILATI-IN-ALLUMINIO
  6
Continuous
 62
     7
370
     0
100
AcDbLine
 10
58.60575215176186
 20
98.90719601507313
 30
0.0
 11
-21.39423008823813
 21
98.90719601507313
 31
0.0
  0
LINE
  5
2A4
330
A
100
AcDbEntity
  8
PROFILATI-IN-ALLUMINIO
  6
Continuous
 62
     7
370
     0
100
AcDbLine
 10
-21.39423008823813
 20
98.90719601507313
 30
0.0
 11
-21.39423008823813
 21
-19.09277778892688
 31
0.0
  0
LINE
  5
2A5
330
A
100
AcDbEntity
  8
PROFILATI-IN-ALLUMINIO
  6
Continuous
 62
     7
370
     0
100
AcDbLine
 10
-21.39423008823813
 20
-19.09277778892688
 30
0.0
 11
58.60575215176186
 21
-19.09277778892688
 31
0.0
  0
LINE
  5
2A6
330
A
100
AcDbEntity
  8
PROFILATI-IN-ALLUMINIO
  6
Continuous
 62
     7
370
     0
100
AcDbLine
 10
58.60575215176186
 20
-19.09277778892688
 30
0.0
 11
58.60575215176186
 21
60.90720445107312
 31
0.0
  0
LINE
  5
2A7
330
A
100
AcDbEntity
  8
PROFILATI-IN-ALLUMINIO
  6
Continuous
 62
     7
370
     0
100
AcDbLine
 10
58.60575215176186
 20
60.90720445107312
 30
0.0
 11
58.60575215176186
 21
60.90720445107312
 31
0.0
  0
LINE
  5
2A8
330
A
100
AcDbEntity
  8
PROFILATI-IN-ALLUMINIO
  6
Continuous
 62
     7
370
     0
100
AcDbLine
 10
-8.144233029738131
 20
156.9964984692451
 30
0.0
 11
-8.144233029738131
 21
148.9965002452451
 31
0.0
  0
LINE
  5
2A9
330
A
100
AcDbEntity
  8
PROFILATI-IN-ALLUMINIO
  6
Continuous
 62
     7
370
     0
100
AcDbLine
 10
-8.144233029738131
 20
148.9965002452451
 30
0.0
 11
-16.39423119823813
 21
148.9965002452451
 31
0.0
  0
LINE
  5
2AA
330
A
100
AcDbEntity
  8
PROFILATI-IN-ALLUMINIO
  6
Continuous
 62
     7
370
     0
100
AcDbLine
 10
-16.39423119823813
 20
148.9965002452451
 30
0.0
 11
-16.39423119823813
 21
135.4965032422451
 31
0.0
  0
LINE
  5
2AB
330
A
100
AcDbEntity
  8
PROFILATI-IN-ALLUMINIO
  6
Continuous
 62
     7
370
     0
100
AcDbLine
 10
-16.39423119823813
 20
135.4965032422451
 30
0.0
 11
-8.144233029738131
 21
135.4965032322451
 31
0.0
  0
LINE
  5
2AC
330
A
100
AcDbEntity
  8
PROFILATI-IN-ALLUMINIO
  6
Continuous
 62
     7
370
     0
100
AcDbLine
 10
-8.144233029738131
 20
135.4965032322451
 30
0.0
 11
-8.144233029738131
 21
127.2465050737451
 31
0.0
  0
LINE
  5
2AD
330
A
100
AcDbEntity
  8
PROFILATI-IN-ALLUMINIO
  6
Continuous
 62
     7
370
     0
100
AcDbLine
 10
-8.144233029738131
 20
127.2465050737451
 30
0.0
 11
5.355763973261872
 21
127.2465050737451
 31
0.0
  0
LINE
  5
2AE
330
A
100
AcDbEntity
  8
PROFILATI-IN-ALLUMINIO
  6
Continuous
 62
     7
370
     0
100
AcDbLine
 10
5.355763973261872
 20
127.2465050737451
 30
0.0
 11
5.355763973261872
 21
135.4965032322451
 31
0.0
  0
LINE
  5
2AF
330
A
100
AcDbEntity
  8
PROFILATI-IN-ALLUMINIO
  6
Continuous
 62
     7
370
     0
100
AcDbLine
 10
5.355763973261872
 20
135.4965032322451
 30
0.0
 11
13.35576219726188
 21
135.4965032322451
 31
0.0
  0
LINE
  5
2B0
330
A
100
AcDbEntity
  8
PROFILATI-IN-ALLUMINIO
  6
HIDDEN2
 62
     7
370
     0
100
AcDbLine
 10
-16.39423119823813
 20
39.90720911307311
 30
0.0
 11
-16.39423119823813
 21
46.6572076145731
 31
0.0
  0
LINE
  5
2B1
330
A
100
AcDbEntity
  8
PROFILATI-IN-ALLUMINIO
  6
HIDDEN2
 62
     7
370
     0
100
AcDbLine
 10
-16.39423119823813
 20
46.6572076145731
 30
0.0
 11
-1.394234528238115
 21
46.6572076145731
 31
0.0
  0
LINE
  5
2B2
330
A
100
AcDbEntity
  8
PROFILATI-IN-ALLUMINIO
  6
HIDDEN2
 62
     7
370
     0
100
AcDbLine
 10
-16.39423119823813
 20
39.90720911307311
 30
0.0
 11
-16.39423119823813
 21
33.15721061157311
 31
0.0
  0
LINE
  5
2B3
330
A
100
AcDbEntity
  8
PROFILATI-IN-ALLUMINIO
  6
HIDDEN2
 62
     7
370
     0
100
AcDbLine
 10
-16.39423119823813
 20
33.15721061157311
 30
0.0
 11
-1.394234528238115
 21
33.15721061157311
 31
0.0
  0
LINE
  5
2B4
330
A
100
AcDbEntity
  8
PROFILATI-IN-ALLUMINIO
  6
HIDDEN2
 62
     7
370
     0
100
AcDbLine
 10
-16.39423119823813
 20
-0.0927820069268819
 30
0.0
 11
-16.39423119823813
 21
6.657216494573106
 31
0.0
  0
LINE
  5
2B5
330
A
100
AcDbEntity
  8
PROFILATI-IN-ALLUMINIO
  6
HIDDEN2
 62
     7
370
     0
100
AcDbLine
 10
-16.39423119823813
 20
6.657216494573106
 30
0.0
 11
-1.394234528238115
 21
6.657216494573106
 31
0.0
  0
LINE
  5
2B6
330
A
100
AcDbEntity
  8
PROFILATI-IN-ALLUMINIO
  6
HIDDEN2
 62
     7
370
     0
100
AcDbLine
 10
-16.39423119823813
 20
-0.0927820069268819
 30
0.0
 11
-16.39423119823813
 21
-6.842780508426887
 31
0.0
  0
LINE
  5
2B7
330
A
100
AcDbEntity
  8
PROFILATI-IN-ALLUMINIO
  6
HIDDEN2
 62
     7
370
     0
100
AcDbLine
 10
-16.39423119823813
 20
-6.842780508426887
 30
0.0
 11
-1.394234528238115
 21
-6.842780508426887
 31
0.0
  0
LINE
  5
2B8
330
A
100
AcDbEntity
  8
PROFILATI-IN-ALLUMINIO
  6
Continuous
 62
     7
370
     0
100
AcDbLine
 10
-13.39423186423813
 20
188.996491365245
 30
0.0
 11
-16.39423119823813
 21
188.996491365245
 31
0.0
  0
LINE
  5
2B9
330
A
100
AcDbEntity
  8
PROFILATI-IN-ALLUMINIO
  6
Continuous
 62
     7
370
     0
100
AcDbLine
 10
-16.39423119823813
 20
188.996491365245
 30
0.0
 11
-16.39423119823813
 21
175.4964943622451
 31
0.0
  0
LINE
  5
2BA
330
A
100
AcDbEntity
  8
PROFILATI-IN-ALLUMINIO
  6
Continuous
 62
     7
370
     0
100
AcDbLine
 10
-16.39423119823813
 20
175.4964943622451
 30
0.0
 11
-13.39423186423813
 21
175.4964943622451
 31
0.0
  0
LINE
  5
2BB
330
A
100
AcDbEntity
  8
PROFILATI-IN-ALLUMINIO
  6
Continuous
 62
     7
370
     0
100
AcDbLine
 10
31.85575809026189
 20
130.2465044077451
 30
0.0
 11
31.85575809026189
 21
127.2465050737451
 31
0.0
  0
LINE
  5
2BC
330
A
100
AcDbEntity
  8
PROFILATI-IN-ALLUMINIO
  6
Continuous
 62
     7
370
     0
100
AcDbLine
 10
31.85575809026189
 20
127.2465050737451
 30
0.0
 11
45.35575509326188
 21
127.2465050737451
 31
0.0
  0
LINE
  5
2BD
330
A
100
AcDbEntity
  8
PROFILATI-IN-ALLUMINIO
  6
Continuous
 62
     7
370
     0
100
AcDbLine
 10
45.35575509326188
 20
127.2465050737451
 30
0.0
 11
45.35575509326188
 21
130.2465044077451
 31
0.0
  0
LINE
  5
2BE
330
A
100
AcDbEntity
  8
PROFILATI-IN-ALLUMINIO
  6
HIDDEN2
 62
     7
370
     0
100
AcDbLine
 10
-16.39423119823813
 20
79.90720023307311
 30
0.0
 11
-16.39423119823813
 21
86.65719873457311
 31
0.0
  0
LINE
  5
2BF
330
A
100
AcDbEntity
  8
PROFILATI-IN-ALLUMINIO
  6
HIDDEN2
 62
     7
370
     0
100
AcDbLine
 10
-16.39423119823813
 20
86.65719873457311
 30
0.0
 11
-1.394234528238115
 21
86.65719873457311
 31
0.0
  0
LINE
  5
2C0
330
A
100
AcDbEntity
  8
PROFILATI-IN-ALLUMINIO
  6
HIDDEN2
 62
     7
370
     0
100
AcDbLine
 10
-16.39423119823813
 20
79.90720023307311
 30
0.0
 11
-16.39423119823813
 21
73.15720173157313
 31
0.0
  0
LINE
  5
2C1
330
A
100
AcDbEntity
  8
PROFILATI-IN-ALLUMINIO
  6
HIDDEN2
 62
     7
370
     0
100
AcDbLine
 10
-16.39423119823813
 20
73.15720173157313
 30
0.0
 11
-1.394234528238115
 21
73.15720173157313
 31
0.0
  0
ENDSEC
  0
SECTION
  2
OBJECTS
  0
DICTIONARY
  5
19
330
0
100
AcDbDictionary
281
     1
  3
ACAD_COLOR
350
19D
  3
ACAD_GROUP
350
1A
  3
ACAD_LAYOUT
350
1E
  3
ACAD_MATERIAL
350
170
  3
ACAD_MLEADERSTYLE
350
1CD
  3
ACAD_MLINESTYLE
350
1B
  3
ACAD_PLOTSETTINGS
350
22
  3
ACAD_PLOTSTYLENAME
350
1F
  3
ACAD_SCALELIST
350
19E
  3
ACAD_TABLESTYLE
350
1C7
  3
ACAD_VISUALSTYLE
350
189
  3
ACAD_WIPEOUT_VARS
350
23
  3
ACDB_RECOMPOSE_DATA
350
2C6
  3
AcDbVariableDictionary
350
16E
  3
AEC_PROPERTY_SET_DEFS
350
1FD
  3
ASE_INDEX_DICTIONARY
350
224
  3
DWGPROPS
350
2C7
  3
qs_topprt_diz
350
1D5
  3
QSCATDICT
350
1D2
  3
QsPallStyleDict
350
1D4
  3
QsTop499
350
220
  3
TopSpotLight
350
1DC
  0
DICTIONARY
  5
22D
330
7
100
AcDbDictionary
280
     1
281
     1
  0
DICTIONARY
  5
1FE
330
14
100
AcDbDictionary
280
     1
281
     1
  3
ADSK_XREC_LAYER_RECONCILED
360
1FF
  0
DICTIONARY
  5
200
330
2D
100
AcDbDictionary
280
     1
281
     1
  3
ADSK_XREC_LAYER_RECONCILED
360
201
  0
DICTIONARY
  5
202
330
2F
100
AcDbDictionary
280
     1
281
     1
  3
ADSK_XREC_LAYER_RECONCILED
360
203
  0
DICTIONARY
  5
204
330
31
100
AcDbDictionary
280
     1
281
     1
  3
ADSK_XREC_LAYER_RECONCILED
360
205
  0
DICTIONARY
  5
206
330
33
100
AcDbDictionary
280
     1
281
     1
  3
ADSK_XREC_LAYER_RECONCILED
360
207
  0
DICTIONARY
  5
208
330
35
100
AcDbDictionary
280
     1
281
     1
  3
ADSK_XREC_LAYER_RECONCILED
360
209
  0
DICTIONARY
  5
20A
330
37
100
AcDbDictionary
280
     1
281
     1
  3
ADSK_XREC_LAYER_RECONCILED
360
20B
  0
DICTIONARY
  5
20C
330
39
100
AcDbDictionary
280
     1
281
     1
  3
ADSK_XREC_LAYER_RECONCILED
360
20D
  0
DICTIONARY
  5
20E
330
3B
100
AcDbDictionary
280
     1
281
     1
  3
ADSK_XREC_LAYER_RECONCILED
360
20F
  0
DICTIONARY
  5
210
330
3D
100
AcDbDictionary
280
     1
281
     1
  3
ADSK_XREC_LAYER_RECONCILED
360
211
  0
DICTIONARY
  5
212
330
3F
100
AcDbDictionary
280
     1
281
     1
  3
ADSK_XREC_LAYER_RECONCILED
360
213
  0
DICTIONARY
  5
214
330
41
100
AcDbDictionary
280
     1
281
     1
  3
ADSK_XREC_LAYER_RECONCILED
360
215
  0
DICTIONARY
  5
216
330
45
100
AcDbDictionary
280
     1
281
     1
  3
ADSK_XREC_LAYER_RECONCILED
360
217
  0
DICTIONARY
  5
218
330
47
100
AcDbDictionary
280
     1
281
     1
  3
ADSK_XREC_LAYER_RECONCILED
360
219
  0
DICTIONARY
  5
21A
330
49
100
AcDbDictionary
280
     1
281
     1
  3
ADSK_XREC_LAYER_RECONCILED
360
21B
  0
DICTIONARY
  5
21C
330
4B
100
AcDbDictionary
280
     1
281
     1
  3
ADSK_XREC_LAYER_RECONCILED
360
21D
  0
DICTIONARY
  5
21E
330
1D7
100
AcDbDictionary
280
     1
281
     1
  3
ADSK_XREC_LAYER_RECONCILED
360
21F
  0
DICTIONARY
  5
19D
102
{ACAD_REACTORS
330
19
102
}
330
19
100
AcDbDictionary
281
     1
  0
DICTIONARY
  5
1A
102
{ACAD_REACTORS
330
19
102
}
330
19
100
AcDbDictionary
281
     1
  0
DICTIONARY
  5
1E
102
{ACAD_REACTORS
330
19
102
}
330
19
100
AcDbDictionary
281
     1
  3
Layout1
350
21
  3
Model
350
20
  0
DICTIONARY
  5
170
102
{ACAD_REACTORS
330
19
102
}
330
19
100
AcDbDictionary
281
     1
  3
ByBlock
350
179
  3
ByLayer
350
171
  3
Global
350
181
  0
DICTIONARY
  5
1CD
102
{ACAD_REACTORS
330
19
102
}
330
19
100
AcDbDictionary
281
     1
  3
Standard
350
1CE
  0
DICTIONARY
  5
1B
102
{ACAD_REACTORS
330
19
102
}
330
19
100
AcDbDictionary
281
     1
  3
Standard
350
1C
  0
DICTIONARY
  5
22
102
{ACAD_REACTORS
330
19
102
}
330
19
100
AcDbDictionary
281
     1
  3
Kyocera_1010 OR
350
1F1
  3
Kyocera_1010 VER
350
1F2
  3
Olivetti_200 A3
350
1F3
  3
Olivetti_200 A4
350
1F4
  3
PLOTTER
350
1F5
  0
ACDBDICTIONARYWDFLT
  5
1F
102
{ACAD_REACTORS
330
19
102
}
330
19
100
AcDbDictionary
281
     1
  3
Normal
350
1D
100
AcDbDictionaryWithDefault
340
1D
  0
DICTIONARY
  5
19E
102
{ACAD_REACTORS
330
19
102
}
330
19
100
AcDbDictionary
281
     1
  3
A0
350
19F
  3
A1
350
1A0
  3
A2
350
1A1
  3
A3
350
1A2
  3
A4
350
1A3
  3
A5
350
1A4
  3
A6
350
1A5
  3
A7
350
1A6
  3
A8
350
1A7
  3
A9
350
1A8
  3
B0
350
1A9
  3
B1
350
1AA
  3
B2
350
1AB
  3
B3
350
1AC
  3
B4
350
1AD
  3
B5
350
1AE
  3
B6
350
1AF
  3
B7
350
1B0
  3
B8
350
1B1
  3
B9
350
1B2
  3
C0
350
1B3
  3
C1
350
1B4
  3
C2
350
1B5
  3
C3
350
1B6
  3
C4
350
1B7
  3
C5
350
1B8
  3
C6
350
1B9
  3
C7
350
1BA
  3
C8
350
1BB
  3
C9
350
1BC
  3
D0
350
1BD
  3
D1
350
1BE
  3
D2
350
1BF
  0
DICTIONARY
  5
1C7
102
{ACAD_REACTORS
330
19
102
}
330
19
100
AcDbDictionary
281
     1
  3
QSTABFORI
350
1F6
  3
QSTABREGION
350
1F8
  3
Standard
350
1C8
  0
DICTIONARY
  5
189
102
{ACAD_REACTORS
330
19
102
}
330
19
100
AcDbDictionary
281
     1
  3
2dWireframe
350
18F
  3
3D Hidden
350
191
  3
3dWireframe
350
190
  3
Basic
350
18E
  3
Brighten
350
195
  3
ColorChange
350
199
  3
Conceptual
350
192
  3
Dim
350
194
  3
EdgeColorOff
350
19C
  3
Facepattern
350
198
  3
Flat
350
18A
  3
FlatWithEdges
350
18B
  3
Gouraud
350
18C
  3
GouraudWithEdges
350
18D
  3
Hidden
350
272
  3
JitterOff
350
19A
  3
Linepattern
350
197
  3
OverhangOff
350
19B
  3
Realistic
350
193
  3
Shaded
350
277
  3
Shaded with edges
350
276
  3
Shades of Gray
350
273
  3
Sketchy
350
274
  3
Thicken
350
196
  3
Wireframe
350
271
  3
X-Ray
350
275
  0
WIPEOUTVARIABLES
  5
23
330
19
100
AcDbWipeoutVariables
 70
     1
  0
XRECORD
  5
2C6
102
{ACAD_REACTORS
330
19
102
}
330
19
100
AcDbXrecord
280
     1
 90
        1
330
1C8
330
1F6
330
1F8
  0
DICTIONARY
  5
16E
330
19
100
AcDbDictionary
281
     0
  3
CANNOSCALE
350
26C
  3
CMLEADERSTYLE
350
26A
  3
CTABLESTYLE
350
269
  3
DIMASSOC
350
16F
  3
DRAWORDERCTL
350
26B
  3
INDEXCTL
350
26E
  3
SORTENTS
350
26D
  3
XCLIPFRAME
350
2C2
  0
DICTIONARY
  5
1FD
102
{ACAD_REACTORS
330
19
102
}
330
19
100
AcDbDictionary
281
     1
  0
DICTIONARY
  5
224
102
{ACAD_REACTORS
330
19
102
}
330
19
100
AcDbDictionary
281
     1
  3
ASEBlockHierarchyIndexRecord
350
226
1001
DCO15
1040
1713695220.35
  0
XRECORD
  5
2C7
102
{ACAD_REACTORS
330
19
102
}
330
19
100
AcDbXrecord
280
     1
  1
DWGPROPS COOKIE
  2

  3

  4

  6

  7

  8
mpistoia
  9

300
=
301
=
302
=
303
=
304
=
305
=
306
=
307
=
308
=
309
=
 40
0.0009840277777778
 41
2455561.505836111
 42
2455637.64727257
  1

 90
        0
  0
DICTIONARY
  5
1D5
102
{ACAD_REACTORS
330
19
102
}
330
19
100
AcDbDictionary
281
     1
  3
UCNT
350
1D6
  0
DICTIONARY
  5
1D2
102
{ACAD_REACTORS
330
19
102
}
330
19
100
AcDbDictionary
281
     1
  3
DEFAULT
350
1D3
  0
DICTIONARY
  5
1D4
102
{ACAD_REACTORS
330
19
102
}
330
19
100
AcDbDictionary
281
     1
  0
DICTIONARY
  5
220
102
{ACAD_REACTORS
330
19
102
}
330
19
100
AcDbDictionary
281
     1
  3
TOP
350
222
  3
X76e6
350
221
  0
DICTIONARY
  5
1DC
102
{ACAD_REACTORS
330
19
102
}
330
19
100
AcDbDictionary
281
     1
  3
colors
350
1DD
  0
XRECORD
  5
1FF
102
{ACAD_REACTORS
330
1FE
102
}
330
1FE
100
AcDbXrecord
280
     1
290
     1
  0
XRECORD
  5
201
102
{ACAD_REACTORS
330
200
102
}
330
200
100
AcDbXrecord
280
     1
290
     1
  0
XRECORD
  5
203
102
{ACAD_REACTORS
330
202
102
}
330
202
100
AcDbXrecord
280
     1
290
     1
  0
XRECORD
  5
205
102
{ACAD_REACTORS
330
204
102
}
330
204
100
AcDbXrecord
280
     1
290
     1
  0
XRECORD
  5
207
102
{ACAD_REACTORS
330
206
102
}
330
206
100
AcDbXrecord
280
     1
290
     1
  0
XRECORD
  5
209
102
{ACAD_REACTORS
330
208
102
}
330
208
100
AcDbXrecord
280
     1
290
     1
  0
XRECORD
  5
20B
102
{ACAD_REACTORS
330
20A
102
}
330
20A
100
AcDbXrecord
280
     1
290
     1
  0
XRECORD
  5
20D
102
{ACAD_REACTORS
330
20C
102
}
330
20C
100
AcDbXrecord
280
     1
290
     1
  0
XRECORD
  5
20F
102
{ACAD_REACTORS
330
20E
102
}
330
20E
100
AcDbXrecord
280
     1
290
     1
  0
XRECORD
  5
211
102
{ACAD_REACTORS
330
210
102
}
330
210
100
AcDbXrecord
280
     1
290
     1
  0
XRECORD
  5
213
102
{ACAD_REACTORS
330
212
102
}
330
212
100
AcDbXrecord
280
     1
290
     1
  0
XRECORD
  5
215
102
{ACAD_REACTORS
330
214
102
}
330
214
100
AcDbXrecord
280
     1
290
     1
  0
XRECORD
  5
217
102
{ACAD_REACTORS
330
216
102
}
330
216
100
AcDbXrecord
280
     1
290
     1
  0
XRECORD
  5
219
102
{ACAD_REACTORS
330
218
102
}
330
218
100
AcDbXrecord
280
     1
290
     1
  0
XRECORD
  5
21B
102
{ACAD_REACTORS
330
21A
102
}
330
21A
100
AcDbXrecord
280
     1
290
     1
  0
XRECORD
  5
21D
102
{ACAD_REACTORS
330
21C
102
}
330
21C
100
AcDbXrecord
280
     1
290
     1
  0
XRECORD
  5
21F
102
{ACAD_REACTORS
330
21E
102
}
330
21E
100
AcDbXrecord
280
     1
290
     1
  0
LAYOUT
  5
21
102
{ACAD_XDICTIONARY
360
2CA
102
}
102
{ACAD_REACTORS
330
1E
102
}
330
1E
100
AcDbPlotSettings
  1

  2

  4

  6

 40
0.0
 41
0.0
 42
0.0
 43
0.0
 44
0.0
 45
0.0
 46
0.0
 47
0.0
 48
0.0
 49
0.0
140
0.0
141
0.0
142
1.0
143
1.0
 70
     0
 72
     0
 73
     0
 74
     0
  7

 75
     0
147
1.0
148
0.0
149
0.0
100
AcDbLayout
  1
Layout1
 70
     0
 71
     1
 10
0.0
 20
0.0
 11
12.0
 21
9.0
 12
0.0
 22
0.0
 32
0.0
 14
1.000000000000000E+20
 24
1.000000000000000E+20
 34
1.000000000000000E+20
 15
-1.000000000000000E+20
 25
-1.000000000000000E+20
 35
-1.000000000000000E+20
146
0.0
 13
0.0
 23
0.0
 33
0.0
 16
1.0
 26
0.0
 36
0.0
 17
0.0
 27
1.0
 37
0.0
 76
     0
330
B
  0
LAYOUT
  5
20
102
{ACAD_XDICTIONARY
360
2C8
102
}
102
{ACAD_REACTORS
330
1E
102
}
330
1E
100
AcDbPlotSettings
  1

  2

  4

  6

 40
0.0
 41
0.0
 42
0.0
 43
0.0
 44
0.0
 45
0.0
 46
0.0
 47
0.0
 48
0.0
 49
0.0
140
0.0
141
0.0
142
1.0
143
1.0
 70
  1024
 72
     0
 73
     0
 74
     0
  7

 75
     0
147
1.0
148
0.0
149
0.0
100
AcDbLayout
  1
Model
 70
     0
 71
     0
 10
0.0
 20
0.0
 11
0.0
 21
0.0
 12
0.0
 22
0.0
 32
0.0
 14
0.0
 24
0.0
 34
0.0
 15
0.0
 25
0.0
 35
0.0
146
0.0
 13
0.0
 23
0.0
 33
0.0
 16
0.0
 26
0.0
 36
0.0
 17
0.0
 27
0.0
 37
0.0
 76
     0
330
A
331
15
  0
MATERIAL
  5
179
102
{ACAD_XDICTIONARY
360
17A
102
}
102
{ACAD_REACTORS
330
170
102
}
330
170
100
AcDbMaterial
  1
ByBlock
 72
     0
 43
0.0208333333333333
 43
0.0
 43
0.0
 43
0.0
 43
0.0
 43
0.0208333333333333
 43
0.0
 43
0.0
 43
0.0
 43
0.0
 43
1.0
 43
0.0
 43
0.0
 43
0.0
 43
0.0
 43
1.0
 77
     0
 47
0.0208333333333333
 47
0.0
 47
0.0
 47
0.0
 47
0.0
 47
0.0208333333333333
 47
0.0
 47
0.0
 47
0.0
 47
0.0
 47
1.0
 47
0.0
 47
0.0
 47
0.0
 47
0.0
 47
1.0
171
     0
 49
0.0208333333333333
 49
0.0
 49
0.0
 49
0.0
 49
0.0
 49
0.0208333333333333
 49
0.0
 49
0.0
 49
0.0
 49
0.0
 49
1.0
 49
0.0
 49
0.0
 49
0.0
 49
0.0
 49
1.0
175
     0
142
0.0208333333333333
142
0.0
142
0.0
142
0.0
142
0.0
142
0.0208333333333333
142
0.0
142
0.0
142
0.0
142
0.0
142
1.0
142
0.0
142
0.0
142
0.0
142
0.0
142
1.0
179
     0
144
0.0208333333333333
144
0.0
144
0.0
144
0.0
144
0.0
144
0.0208333333333333
144
0.0
144
0.0
144
0.0
144
0.0
144
1.0
144
0.0
144
0.0
144
0.0
144
0.0
144
1.0
147
0.0208333333333333
147
0.0
147
0.0
147
0.0
147
0.0
147
0.0208333333333333
147
0.0
147
0.0
147
0.0
147
0.0
147
1.0
147
0.0
147
0.0
147
0.0
147
0.0
147
1.0
  0
MATERIAL
  5
171
102
{ACAD_XDICTIONARY
360
172
102
}
102
{ACAD_REACTORS
330
170
102
}
330
170
100
AcDbMaterial
  1
ByLayer
 72
     0
 43
0.0208333333333333
 43
0.0
 43
0.0
 43
0.0
 43
0.0
 43
0.0208333333333333
 43
0.0
 43
0.0
 43
0.0
 43
0.0
 43
1.0
 43
0.0
 43
0.0
 43
0.0
 43
0.0
 43
1.0
 77
     0
 47
0.0208333333333333
 47
0.0
 47
0.0
 47
0.0
 47
0.0
 47
0.0208333333333333
 47
0.0
 47
0.0
 47
0.0
 47
0.0
 47
1.0
 47
0.0
 47
0.0
 47
0.0
 47
0.0
 47
1.0
171
     0
 49
0.0208333333333333
 49
0.0
 49
0.0
 49
0.0
 49
0.0
 49
0.0208333333333333
 49
0.0
 49
0.0
 49
0.0
 49
0.0
 49
1.0
 49
0.0
 49
0.0
 49
0.0
 49
0.0
 49
1.0
175
     0
142
0.0208333333333333
142
0.0
142
0.0
142
0.0
142
0.0
142
0.0208333333333333
142
0.0
142
0.0
142
0.0
142
0.0
142
1.0
142
0.0
142
0.0
142
0.0
142
0.0
142
1.0
179
     0
144
0.0208333333333333
144
0.0
144
0.0
144
0.0
144
0.0
144
0.0208333333333333
144
0.0
144
0.0
144
0.0
144
0.0
144
1.0
144
0.0
144
0.0
144
0.0
144
0.0
144
1.0
147
0.0208333333333333
147
0.0
147
0.0
147
0.0
147
0.0
147
0.0208333333333333
147
0.0
147
0.0
147
0.0
147
0.0
147
1.0
147
0.0
147
0.0
147
0.0
147
0.0
147
1.0
  0
MATERIAL
  5
181
102
{ACAD_XDICTIONARY
360
182
102
}
102
{ACAD_REACTORS
330
170
102
}
330
170
100
AcDbMaterial
  1
Global
 72
     0
 43
0.0208333333333333
 43
0.0
 43
0.0
 43
0.0
 43
0.0
 43
0.0208333333333333
 43
0.0
 43
0.0
 43
0.0
 43
0.0
 43
1.0
 43
0.0
 43
0.0
 43
0.0
 43
0.0
 43
1.0
 77
     0
 47
0.0208333333333333
 47
0.0
 47
0.0
 47
0.0
 47
0.0
 47
0.0208333333333333
 47
0.0
 47
0.0
 47
0.0
 47
0.0
 47
1.0
 47
0.0
 47
0.0
 47
0.0
 47
0.0
 47
1.0
171
     0
 49
0.0208333333333333
 49
0.0
 49
0.0
 49
0.0
 49
0.0
 49
0.0208333333333333
 49
0.0
 49
0.0
 49
0.0
 49
0.0
 49
1.0
 49
0.0
 49
0.0
 49
0.0
 49
0.0
 49
1.0
175
     0
142
0.0208333333333333
142
0.0
142
0.0
142
0.0
142
0.0
142
0.0208333333333333
142
0.0
142
0.0
142
0.0
142
0.0
142
1.0
142
0.0
142
0.0
142
0.0
142
0.0
142
1.0
179
     0
144
0.0208333333333333
144
0.0
144
0.0
144
0.0
144
0.0
144
0.0208333333333333
144
0.0
144
0.0
144
0.0
144
0.0
144
1.0
144
0.0
144
0.0
144
0.0
144
0.0
144
1.0
147
0.0208333333333333
147
0.0
147
0.0
147
0.0
147
0.0
147
0.0208333333333333
147
0.0
147
0.0
147
0.0
147
0.0
147
1.0
147
0.0
147
0.0
147
0.0
147
0.0
147
1.0
  0
MLEADERSTYLE
  5
1CE
102
{ACAD_REACTORS
330
1CD
102
}
330
1CD
100
AcDbMLeaderStyle
170
     2
171
     1
172
     0
 90
        2
 40
0.0
 41
0.0
173
     1
 91
-1056964608
340
11
 92
       -2
290
     1
 42
0.09
291
     1
 43
0.36
  3
Standard
 44
0.18
300

342
17
174
     1
178
     6
175
     1
176
     0
 93
-1056964608
 45
0.18
292
     0
297
     0
 46
0.18
 94
-1056964608
 47
1.0
 49
1.0
140
1.0
293
     1
141
0.0
294
     1
177
     0
142
1.0
295
     0
296
     0
143
0.125
1001
ACAD_MLEADERVER
1070
     2
  0
MLINESTYLE
  5
1C
102
{ACAD_REACTORS
330
1B
102
}
330
1B
100
AcDbMlineStyle
  2
STANDARD
 70
     0
  3

 62
     0
 51
90.0
 52
90.0
 71
     2
 49
0.5
 62
   256
  6
BYLAYER
 49
-0.5
 62
   256
  6
BYLAYER
  0
PLOTSETTINGS
  5
1F1
102
{ACAD_XDICTIONARY
360
2F6
102
}
102
{ACAD_REACTORS
330
22
102
}
330
22
100
AcDbPlotSettings
  1
Kyocera_1010 OR
  2
Kyocera_1010.pc3
  4
A4
  6

 40
4.984749794006347
 41
5.154074668884277
 42
5.111740112304687
 43
4.9847412109375
 44
210.0156707763672
 45
297.0106506347656
 46
0.0
 47
109.7870247470818
 48
0.0
 49
0.0
140
0.0
141
0.0
142
1.0
143
0.6770771918566143
 70
 11956
 72
     1
 73
     1
 74
     1
  7
DIERRE BN.ctb
 75
     0
147
1.476936473458659
148
-222.4649060220283
149
-239.0808115236937
1001
ACAD_PSEXT
1000
Kyocera_1010.pc3
1000
Kyocera Mita FS-1010 KX
1000
\\PC5
1000

1070
     0
  0
PLOTSETTINGS
  5
1F2
102
{ACAD_XDICTIONARY
360
2F8
102
}
102
{ACAD_REACTORS
330
22
102
}
330
22
100
AcDbPlotSettings
  1
Kyocera_1010 VER
  2
Kyocera_1010.pc3
  4
A4
  6

 40
4.984749794006347
 41
5.154074668884277
 42
5.111740112304687
 43
4.9847412109375
 44
210.0156707763672
 45
297.0106506347656
 46
51.67548120477697
 47
0.0
 48
0.0
 49
0.0
140
0.0
141
0.0
142
1.0
143
0.4718508448115938
 70
 11956
 72
     1
 73
     0
 74
     1
  7
DIERRE BN.ctb
 75
     0
147
2.119313785268927
148
-222.4649060220283
149
-239.0808115236937
1001
ACAD_PSEXT
1000
Kyocera_1010.pc3
1000
Kyocera Mita FS-1010 KX
1000
\\PC5
1000

1070
     0
  0
PLOTSETTINGS
  5
1F3
102
{ACAD_XDICTIONARY
360
2FA
102
}
102
{ACAD_REACTORS
330
22
102
}
330
22
100
AcDbPlotSettings
  1
Olivetti_200 A3
  2
Olivetti_200.pc3
  4
A3
  6

 40
4.984749794006347
 41
5.111746788024902
 42
5.154083251953125
 43
4.9847412109375
 44
297.0106506347656
 45
419.9889831542968
 46
0.0
 47
156.6621412366913
 48
0.0
 49
0.0
140
0.0
141
0.0
142
1.0
143
0.4718508730467012
 70
 11956
 72
     1
 73
     1
 74
     1
  7
DIERRE BN.ctb
 75
     0
147
2.119313658451206
148
-222.4649060220283
149
-239.0808115236937
1001
ACAD_PSEXT
1000
Olivetti_200.pc3
1000
Olivetti d-Copia 200MF KX
1000
IP_192.168.1.151
1000

1070
     0
  0
PLOTSETTINGS
  5
1F4
102
{ACAD_XDICTIONARY
360
2FC
102
}
102
{ACAD_REACTORS
330
22
102
}
330
22
100
AcDbPlotSettings
  1
Olivetti_200 A4
  2
Olivetti_200.pc3
  4
A4
  6

 40
4.984749794006347
 41
5.154074668884277
 42
5.111740112304687
 43
4.9847412109375
 44
210.0156707763672
 45
297.0106506347656
 46
51.67548120477697
 47
0.0
 48
0.0
 49
0.0
140
0.0
141
0.0
142
1.0
143
0.4718508448115938
 70
 11956
 72
     1
 73
     0
 74
     1
  7
DIERRE BN.ctb
 75
     0
147
2.119313785268927
148
-222.4649060220283
149
-239.0808115236937
1001
ACAD_PSEXT
1000
Olivetti_200.pc3
1000
Olivetti d-Copia 200MF KX
1000
IP_192.168.1.151
1000

1070
     0
  0
PLOTSETTINGS
  5
1F5
102
{ACAD_XDICTIONARY
360
2FE
102
}
102
{ACAD_REACTORS
330
22
102
}
330
22
100
AcDbPlotSettings
  1
PLOTTER
  2
PLOTTER.pc3
  4
User622
  6

 40
0.0
 41
0.0
 42
0.0
 43
0.0
 44
841.0
 45
1189.0
 46
0.0
 47
0.0
 48
0.0
 49
0.0
140
0.0
141
0.0
142
1.0
143
1.0
 70
 11936
 72
     1
 73
     0
 74
     1
  7
DIERRE BN.ctb
 75
     0
147
2.194137304425714
148
-222.4649060220283
149
-239.0808115236937
1001
ACAD_PSEXT
1000
PLOTTER.pc3
1000
HP DesignJet 430 (E/A0) by HP
1000
\\SERVER2003
1000

1070
     0
  0
ACDBPLACEHOLDER
  5
1D
102
{ACAD_REACTORS
330
1F
102
}
330
1F
  0
SCALE
  5
19F
102
{ACAD_REACTORS
330
19E
102
}
330
19E
100
AcDbScale
 70
     0
300
1:1
140
1.0
141
1.0
290
     1
  0
SCALE
  5
1A0
102
{ACAD_REACTORS
330
19E
102
}
330
19E
100
AcDbScale
 70
     0
300
1:2
140
1.0
141
2.0
290
     0
  0
SCALE
  5
1A1
102
{ACAD_REACTORS
330
19E
102
}
330
19E
100
AcDbScale
 70
     0
300
1:4
140
1.0
141
4.0
290
     0
  0
SCALE
  5
1A2
102
{ACAD_REACTORS
330
19E
102
}
330
19E
100
AcDbScale
 70
     0
300
1:5
140
1.0
141
5.0
290
     0
  0
SCALE
  5
1A3
102
{ACAD_REACTORS
330
19E
102
}
330
19E
100
AcDbScale
 70
     0
300
1:8
140
1.0
141
8.0
290
     0
  0
SCALE
  5
1A4
102
{ACAD_REACTORS
330
19E
102
}
330
19E
100
AcDbScale
 70
     0
300
1:10
140
1.0
141
10.0
290
     0
  0
SCALE
  5
1A5
102
{ACAD_REACTORS
330
19E
102
}
330
19E
100
AcDbScale
 70
     0
300
1:16
140
1.0
141
16.0
290
     0
  0
SCALE
  5
1A6
102
{ACAD_REACTORS
330
19E
102
}
330
19E
100
AcDbScale
 70
     0
300
1:20
140
1.0
141
20.0
290
     0
  0
SCALE
  5
1A7
102
{ACAD_REACTORS
330
19E
102
}
330
19E
100
AcDbScale
 70
     0
300
1:30
140
1.0
141
30.0
290
     0
  0
SCALE
  5
1A8
102
{ACAD_REACTORS
330
19E
102
}
330
19E
100
AcDbScale
 70
     0
300
1:40
140
1.0
141
40.0
290
     0
  0
SCALE
  5
1A9
102
{ACAD_REACTORS
330
19E
102
}
330
19E
100
AcDbScale
 70
     0
300
1:50
140
1.0
141
50.0
290
     0
  0
SCALE
  5
1AA
102
{ACAD_REACTORS
330
19E
102
}
330
19E
100
AcDbScale
 70
     0
300
1:100
140
1.0
141
100.0
290
     0
  0
SCALE
  5
1AB
102
{ACAD_REACTORS
330
19E
102
}
330
19E
100
AcDbScale
 70
     0
300
2:1
140
2.0
141
1.0
290
     0
  0
SCALE
  5
1AC
102
{ACAD_REACTORS
330
19E
102
}
330
19E
100
AcDbScale
 70
     0
300
4:1
140
4.0
141
1.0
290
     0
  0
SCALE
  5
1AD
102
{ACAD_REACTORS
330
19E
102
}
330
19E
100
AcDbScale
 70
     0
300
8:1
140
8.0
141
1.0
290
     0
  0
SCALE
  5
1AE
102
{ACAD_REACTORS
330
19E
102
}
330
19E
100
AcDbScale
 70
     0
300
10:1
140
10.0
141
1.0
290
     0
  0
SCALE
  5
1AF
102
{ACAD_REACTORS
330
19E
102
}
330
19E
100
AcDbScale
 70
     0
300
100:1
140
100.0
141
1.0
290
     0
  0
SCALE
  5
1B0
102
{ACAD_REACTORS
330
19E
102
}
330
19E
100
AcDbScale
 70
     0
300
1/128" = 1'-0"
140
0.0078125
141
12.0
290
     0
  0
SCALE
  5
1B1
102
{ACAD_REACTORS
330
19E
102
}
330
19E
100
AcDbScale
 70
     0
300
1/64" = 1'-0"
140
0.015625
141
12.0
290
     0
  0
SCALE
  5
1B2
102
{ACAD_REACTORS
330
19E
102
}
330
19E
100
AcDbScale
 70
     0
300
1/32" = 1'-0"
140
0.03125
141
12.0
290
     0
  0
SCALE
  5
1B3
102
{ACAD_REACTORS
330
19E
102
}
330
19E
100
AcDbScale
 70
     0
300
1/16" = 1'-0"
140
0.0625
141
12.0
290
     0
  0
SCALE
  5
1B4
102
{ACAD_REACTORS
330
19E
102
}
330
19E
100
AcDbScale
 70
     0
300
3/32" = 1'-0"
140
0.09375
141
12.0
290
     0
  0
SCALE
  5
1B5
102
{ACAD_REACTORS
330
19E
102
}
330
19E
100
AcDbScale
 70
     0
300
1/8" = 1'-0"
140
0.125
141
12.0
290
     0
  0
SCALE
  5
1B6
102
{ACAD_REACTORS
330
19E
102
}
330
19E
100
AcDbScale
 70
     0
300
3/16" = 1'-0"
140
0.1875
141
12.0
290
     0
  0
SCALE
  5
1B7
102
{ACAD_REACTORS
330
19E
102
}
330
19E
100
AcDbScale
 70
     0
300
1/4" = 1'-0"
140
0.25
141
12.0
290
     0
  0
SCALE
  5
1B8
102
{ACAD_REACTORS
330
19E
102
}
330
19E
100
AcDbScale
 70
     0
300
3/8" = 1'-0"
140
0.375
141
12.0
290
     0
  0
SCALE
  5
1B9
102
{ACAD_REACTORS
330
19E
102
}
330
19E
100
AcDbScale
 70
     0
300
1/2" = 1'-0"
140
0.5
141
12.0
290
     0
  0
SCALE
  5
1BA
102
{ACAD_REACTORS
330
19E
102
}
330
19E
100
AcDbScale
 70
     0
300
3/4" = 1'-0"
140
0.75
141
12.0
290
     0
  0
SCALE
  5
1BB
102
{ACAD_REACTORS
330
19E
102
}
330
19E
100
AcDbScale
 70
     0
300
1" = 1'-0"
140
1.0
141
12.0
290
     0
  0
SCALE
  5
1BC
102
{ACAD_REACTORS
330
19E
102
}
330
19E
100
AcDbScale
 70
     0
300
1-1/2" = 1'-0"
140
1.5
141
12.0
290
     0
  0
SCALE
  5
1BD
102
{ACAD_REACTORS
330
19E
102
}
330
19E
100
AcDbScale
 70
     0
300
3" = 1'-0"
140
3.0
141
12.0
290
     0
  0
SCALE
  5
1BE
102
{ACAD_REACTORS
330
19E
102
}
330
19E
100
AcDbScale
 70
     0
300
6" = 1'-0"
140
6.0
141
12.0
290
     0
  0
SCALE
  5
1BF
102
{ACAD_REACTORS
330
19E
102
}
330
19E
100
AcDbScale
 70
     0
300
1'-0" = 1'-0"
140
12.0
141
12.0
290
     0
  0
TABLESTYLE
  5
1F6
102
{ACAD_XDICTIONARY
360
1F7
102
}
102
{ACAD_REACTORS
330
1C7
102
}
330
1C7
100
AcDbTableStyle
  3
Standard
 70
     1
 71
     0
 40
1.5
 41
1.5
280
     1
281
     0
  7
ROMANS
140
3.0
170
     5
 62
     7
 63
     7
283
     0
274
    -2
284
     1
 64
     0
275
    -2
285
     1
 65
     0
276
    -2
286
     1
 66
     0
277
    -2
287
     1
 67
     0
278
    -2
288
     1
 68
     0
279
    -2
289
     1
 69
     0
  7
ROMANS
140
6.0
170
     5
 62
     1
 63
     7
283
     0
274
    -2
284
     1
 64
     0
275
    -2
285
     1
 65
     0
276
    -2
286
     1
 66
     0
277
    -2
287
     1
 67
     0
278
    -2
288
     1
 68
     0
279
    -2
289
     1
 69
     0
  7
ROMANS
140
3.5
170
     5
 62
     3
 63
     7
283
     0
274
    -2
284
     1
 64
     0
275
    -2
285
     1
 65
     0
276
    -2
286
     1
 66
     0
277
    -2
287
     1
 67
     0
278
    -2
288
     1
 68
     0
279
    -2
289
     1
 69
     0
  0
TABLESTYLE
  5
1F8
102
{ACAD_XDICTIONARY
360
1F9
102
}
102
{ACAD_REACTORS
330
1C7
102
}
330
1C7
100
AcDbTableStyle
  3
Standard
 70
     0
 71
     0
 40
1.5
 41
1.5
280
     0
281
     0
  7
ROMANS
140
4.5
170
     5
 62
     7
 63
     7
283
     0
274
    -2
284
     1
 64
     0
275
    -2
285
     1
 65
     0
276
    -2
286
     1
 66
     0
277
    -2
287
     1
 67
     0
278
    -2
288
     1
 68
     0
279
    -2
289
     1
 69
     0
  7
ROMANS
140
6.0
170
     5
 62
     1
 63
     7
283
     0
274
    -2
284
     1
 64
     0
275
    -2
285
     1
 65
     0
276
    -2
286
     1
 66
     0
277
    -2
287
     1
 67
     0
278
    -2
288
     1
 68
     0
279
    -2
289
     1
 69
     0
  7
ROMANS
140
5.0
170
     5
 62
     3
 63
     7
283
     0
274
    -2
284
     1
 64
     0
275
    -2
285
     1
 65
     0
276
    -2
286
     1
 66
     0
277
    -2
287
     1
 67
     0
278
    -2
288
     1
 68
     0
279
    -2
289
     1
 69
     0
  0
TABLESTYLE
  5
1C8
102
{ACAD_XDICTIONARY
360
227
102
}
102
{ACAD_REACTORS
330
1C7
102
}
330
1C7
100
AcDbTableStyle
  3
Standard
 70
     0
 71
     0
 40
0.06
 41
0.06
280
     0
281
     0
  7
Standard
140
0.18
170
     2
 62
     0
 63
     7
283
     0
274
    -2
284
     1
 64
     0
275
    -2
285
     1
 65
     0
276
    -2
286
     1
 66
     0
277
    -2
287
     1
 67
     0
278
    -2
288
     1
 68
     0
279
    -2
289
     1
 69
     0
  7
Standard
140
0.25
170
     5
 62
     0
 63
     7
283
     0
274
    -2
284
     1
 64
     0
275
    -2
285
     1
 65
     0
276
    -2
286
     1
 66
     0
277
    -2
287
     1
 67
     0
278
    -2
288
     1
 68
     0
279
    -2
289
     1
 69
     0
  7
Standard
140
0.18
170
     5
 62
     0
 63
     7
283
     0
274
    -2
284
     1
 64
     0
275
    -2
285
     1
 65
     0
276
    -2
286
     1
 66
     0
277
    -2
287
     1
 67
     0
278
    -2
288
     1
 68
     0
279
    -2
289
     1
 69
     0
  0
VISUALSTYLE
  5
18F
102
{ACAD_XDICTIONARY
360
2D9
102
}
102
{ACAD_REACTORS
330
189
102
}
330
189
100
AcDbVisualStyle
  2
2dWireframe
 70
     4
 71
     0
 72
     2
 73
     0
 90
        0
 40
-0.6
 41
-30.0
 62
     5
 63
     7
 74
     1
 91
        4
 64
     7
 65
   257
 75
     1
175
     1
 42
1.0
 92
        0
 66
   257
 43
1.0
 76
     1
 77
     6
 78
     2
 67
     7
 79
     5
170
     0
171
     0
290
     0
174
     0
 93
        1
 44
0.0
173
     0
291
     0
 45
0.0
1001
ACAD
1000
AcDbSavedByObjectVersion
1070
     0
  0
VISUALSTYLE
  5
191
102
{ACAD_XDICTIONARY
360
2DD
102
}
102
{ACAD_REACTORS
330
189
102
}
330
189
100
AcDbVisualStyle
  2
3D Hidden
 70
     6
 71
     1
 72
     2
 73
     2
 90
        0
 40
-0.6
 41
-30.0
 62
     5
 63
     7
 74
     2
 91
        2
 64
     7
 65
   257
 75
     2
175
     1
 42
179.0
 92
        0
 66
   257
 43
1.0
 76
     1
 77
     6
 78
     2
 67
     7
 79
     3
170
     0
171
     0
290
     0
174
     0
 93
        1
 44
0.0
173
     0
291
     0
 45
0.0
1001
ACAD
1000
AcDbSavedByObjectVersion
1070
     0
  0
VISUALSTYLE
  5
190
102
{ACAD_XDICTIONARY
360
2DB
102
}
102
{ACAD_REACTORS
330
189
102
}
330
189
100
AcDbVisualStyle
  2
3dWireframe
 70
     5
 71
     0
 72
     2
 73
     0
 90
        0
 40
-0.6
 41
-30.0
 62
     5
 63
     7
 74
     1
 91
        4
 64
     7
 65
   257
 75
     1
175
     1
 42
1.0
 92
        0
 66
   257
 43
1.0
 76
     1
 77
     6
 78
     2
 67
     7
 79
     5
170
     0
171
     0
290
     0
174
     0
 93
        1
 44
0.0
173
     0
291
     0
 45
0.0
1001
ACAD
1000
AcDbSavedByObjectVersion
1070
     0
  0
VISUALSTYLE
  5
18E
102
{ACAD_XDICTIONARY
360
2D7
102
}
102
{ACAD_REACTORS
330
189
102
}
330
189
100
AcDbVisualStyle
  2
Basic
 70
     7
 71
     1
 72
     0
 73
     1
 90
        0
 40
-0.6
 41
-30.0
 62
     5
 63
     7
 74
     0
 91
        4
 64
     7
 65
   257
 75
     1
175
     1
 42
1.0
 92
        8
 66
     7
 43
1.0
 76
     1
 77
     6
 78
     2
 67
     7
 79
     5
170
     0
171
     0
290
     0
174
     0
 93
        1
 44
0.0
173
     0
291
     1
 45
0.0
1001
ACAD
1000
AcDbSavedByObjectVersion
1070
     0
  0
VISUALSTYLE
  5
195
102
{ACAD_XDICTIONARY
360
2E5
102
}
102
{ACAD_REACTORS
330
189
102
}
330
189
100
AcDbVisualStyle
  2
Brighten
 70
    12
 71
     2
 72
     2
 73
     0
 90
        0
 40
-0.6
 41
-30.0
 62
     5
 63
     7
 74
     1
 91
        4
 64
     7
 65
   257
 75
     1
175
     1
 42
1.0
 92
        8
 66
     7
 43
1.0
 76
     1
 77
     6
 78
     2
 67
     7
 79
     5
170
     0
171
     0
290
     0
174
     0
 93
        1
 44
50.0
173
     0
291
     1
 45
0.0
1001
ACAD
1000
AcDbSavedByObjectVersion
1070
     0
  0
VISUALSTYLE
  5
199
102
{ACAD_XDICTIONARY
360
2ED
102
}
102
{ACAD_REACTORS
330
189
102
}
330
189
100
AcDbVisualStyle
  2
ColorChange
 70
    16
 71
     2
 72
     2
 73
     3
 90
        0
 40
-0.6
 41
-30.0
 62
     5
 63
     8
 74
     1
 91
        4
 64
     7
 65
   257
 75
     1
175
     1
 42
1.0
 92
        8
 66
     8
 43
1.0
 76
     1
 77
     6
 78
     2
 67
     7
 79
     5
170
     0
171
     0
290
     0
174
     0
 93
        1
 44
0.0
173
     0
291
     1
 45
0.0
1001
ACAD
1000
AcDbSavedByObjectVersion
1070
     0
  0
VISUALSTYLE
  5
192
102
{ACAD_XDICTIONARY
360
2DF
102
}
102
{ACAD_REACTORS
330
189
102
}
330
189
100
AcDbVisualStyle
  2
Conceptual
 70
     9
 71
     3
 72
     2
 73
     0
 90
        0
 40
-0.6
 41
-30.0
 62
     5
 63
     7
 74
     2
 91
        2
 64
     7
 65
   257
 75
     1
175
     1
 42
179.0
 92
        8
 66
     7
 43
1.0
 76
     1
 77
     6
 78
     2
 67
     7
 79
     3
170
     0
171
     0
290
     0
174
     0
 93
        1
 44
0.0
173
     0
291
     0
 45
0.0
1001
ACAD
1000
AcDbSavedByObjectVersion
1070
     0
  0
VISUALSTYLE
  5
194
102
{ACAD_XDICTIONARY
360
2E3
102
}
102
{ACAD_REACTORS
330
189
102
}
330
189
100
AcDbVisualStyle
  2
Dim
 70
    11
 71
     2
 72
     2
 73
     0
 90
        0
 40
-0.6
 41
-30.0
 62
     5
 63
     7
 74
     1
 91
        4
 64
     7
 65
   257
 75
     1
175
     1
 42
1.0
 92
        8
 66
     7
 43
1.0
 76
     1
 77
     6
 78
     2
 67
     7
 79
     5
170
     0
171
     0
290
     0
174
     0
 93
        1
 44
-50.0
173
     0
291
     1
 45
0.0
1001
ACAD
1000
AcDbSavedByObjectVersion
1070
     0
  0
VISUALSTYLE
  5
19C
102
{ACAD_XDICTIONARY
360
2F3
102
}
102
{ACAD_REACTORS
330
189
102
}
330
189
100
AcDbVisualStyle
  2
EdgeColorOff
 70
    22
 71
     2
 72
     2
 73
     0
 90
        0
 40
-0.6
 41
-30.0
 62
     5
 63
     7
 74
     1
 91
        4
 64
     7
 65
   257
 75
     1
175
     1
 42
1.0
 92
        8
 66
     7
 43
1.0
 76
     1
 77
     6
 78
     2
 67
     7
 79
     5
170
     0
171
     0
290
     0
174
     0
 93
        1
 44
0.0
173
     0
291
     1
 45
0.0
1001
ACAD
1000
AcDbSavedByObjectVersion
1070
     0
  0
VISUALSTYLE
  5
198
102
{ACAD_XDICTIONARY
360
2EB
102
}
102
{ACAD_REACTORS
330
189
102
}
330
189
100
AcDbVisualStyle
  2
Facepattern
 70
    15
 71
     2
 72
     2
 73
     0
 90
        0
 40
-0.6
 41
-30.0
 62
     5
 63
     7
 74
     1
 91
        4
 64
     7
 65
   257
 75
     1
175
     1
 42
1.0
 92
        8
 66
     7
 43
1.0
 76
     1
 77
     6
 78
     2
 67
     7
 79
     5
170
     0
171
     0
290
     0
174
     0
 93
        1
 44
0.0
173
     0
291
     1
 45
0.0
1001
ACAD
1000
AcDbSavedByObjectVersion
1070
     0
  0
VISUALSTYLE
  5
18A
102
{ACAD_XDICTIONARY
360
2CF
102
}
102
{ACAD_REACTORS
330
189
102
}
330
189
100
AcDbVisualStyle
  2
Flat
 70
     0
 71
     2
 72
     1
 73
     1
 90
        2
 40
-0.6
 41
30.0
 62
     5
 63
     7
 74
     0
 91
        4
 64
     7
 65
   257
 75
     1
175
     1
 42
1.0
 92
        8
 66
     7
 43
1.0
 76
     1
 77
     6
 78
     2
 67
     7
 79
     5
170
     0
171
     0
290
     0
174
     0
 93
       13
 44
0.0
173
     0
291
     1
 45
0.0
1001
ACAD
1000
AcDbSavedByObjectVersion
1070
     0
  0
VISUALSTYLE
  5
18B
102
{ACAD_XDICTIONARY
360
2D1
102
}
102
{ACAD_REACTORS
330
189
102
}
330
189
100
AcDbVisualStyle
  2
FlatWithEdges
 70
     1
 71
     2
 72
     1
 73
     1
 90
        2
 40
-0.6
 41
30.0
 62
     5
 63
     7
 74
     1
 91
        4
 64
     7
 65
   257
 75
     1
175
     1
 42
1.0
 92
        0
 66
   257
 43
1.0
 76
     1
 77
     6
 78
     2
 67
     7
 79
     5
170
     0
171
     0
290
     0
174
     0
 93
       13
 44
0.0
173
     0
291
     1
 45
0.0
1001
ACAD
1000
AcDbSavedByObjectVersion
1070
     0
  0
VISUALSTYLE
  5
18C
102
{ACAD_XDICTIONARY
360
2D3
102
}
102
{ACAD_REACTORS
330
189
102
}
330
189
100
AcDbVisualStyle
  2
Gouraud
 70
     2
 71
     2
 72
     2
 73
     1
 90
        2
 40
-0.6
 41
30.0
 62
     5
 63
     7
 74
     0
 91
        4
 64
     7
 65
   257
 75
     1
175
     1
 42
1.0
 92
        0
 66
     7
 43
1.0
 76
     1
 77
     6
 78
     2
 67
     7
 79
     5
170
     0
171
     0
290
     0
174
     0
 93
       13
 44
0.0
173
     0
291
     1
 45
0.0
1001
ACAD
1000
AcDbSavedByObjectVersion
1070
     0
  0
VISUALSTYLE
  5
18D
102
{ACAD_XDICTIONARY
360
2D5
102
}
102
{ACAD_REACTORS
330
189
102
}
330
189
100
AcDbVisualStyle
  2
GouraudWithEdges
 70
     3
 71
     2
 72
     2
 73
     1
 90
        2
 40
-0.6
 41
30.0
 62
     5
 63
     7
 74
     1
 91
        4
 64
     7
 65
   257
 75
     1
175
     1
 42
1.0
 92
        0
 66
   257
 43
1.0
 76
     1
 77
     6
 78
     2
 67
     7
 79
     5
170
     0
171
     0
290
     0
174
     0
 93
       13
 44
0.0
173
     0
291
     1
 45
0.0
1001
ACAD
1000
AcDbSavedByObjectVersion
1070
     0
  0
VISUALSTYLE
  5
272
102
{ACAD_XDICTIONARY
360
304
102
}
102
{ACAD_REACTORS
330
189
102
}
330
189
100
AcDbVisualStyle
  2
Hidden
 70
     6
 71
     1
 72
     2
 73
     2
 90
        0
 40
-0.6
 41
-30.0
 62
     5
 63
     7
 74
     2
 91
        2
 64
     7
 65
   257
 75
     2
175
     1
 42
40.0
 92
        0
 66
   257
 43
1.0
 76
     1
 77
     6
 78
     2
 67
     7
 79
     3
170
     0
171
     0
290
     0
174
     0
 93
        1
 44
0.0
173
     0
291
     0
 45
0.0
1001
ACAD
1000
AcDbSavedByObjectVersion
1070
     0
  0
VISUALSTYLE
  5
19A
102
{ACAD_XDICTIONARY
360
2EF
102
}
102
{ACAD_REACTORS
330
189
102
}
330
189
100
AcDbVisualStyle
  2
JitterOff
 70
    20
 71
     2
 72
     2
 73
     0
 90
        0
 40
-0.6
 41
-30.0
 62
     5
 63
     7
 74
     1
 91
        4
 64
     7
 65
   257
 75
     1
175
     1
 42
1.0
 92
       10
 66
     7
 43
1.0
 76
     1
 77
     6
 78
     2
 67
     7
 79
     5
170
     0
171
     0
290
     0
174
     0
 93
        1
 44
0.0
173
     0
291
     1
 45
0.0
1001
ACAD
1000
AcDbSavedByObjectVersion
1070
     0
  0
VISUALSTYLE
  5
197
102
{ACAD_XDICTIONARY
360
2E9
102
}
102
{ACAD_REACTORS
330
189
102
}
330
189
100
AcDbVisualStyle
  2
Linepattern
 70
    14
 71
     2
 72
     2
 73
     0
 90
        0
 40
-0.6
 41
-30.0
 62
     5
 63
     7
 74
     1
 91
        4
 64
     7
 65
   257
 75
     7
175
     7
 42
1.0
 92
        8
 66
     7
 43
1.0
 76
     1
 77
     6
 78
     2
 67
     7
 79
     5
170
     0
171
     0
290
     0
174
     0
 93
        1
 44
0.0
173
     0
291
     1
 45
0.0
1001
ACAD
1000
AcDbSavedByObjectVersion
1070
     0
  0
VISUALSTYLE
  5
19B
102
{ACAD_XDICTIONARY
360
2F1
102
}
102
{ACAD_REACTORS
330
189
102
}
330
189
100
AcDbVisualStyle
  2
OverhangOff
 70
    21
 71
     2
 72
     2
 73
     0
 90
        0
 40
-0.6
 41
-30.0
 62
     5
 63
     7
 74
     1
 91
        4
 64
     7
 65
   257
 75
     1
175
     1
 42
1.0
 92
        9
 66
     7
 43
1.0
 76
     1
 77
     6
 78
     2
 67
     7
 79
     5
170
     0
171
     0
290
     0
174
     0
 93
        1
 44
0.0
173
     0
291
     1
 45
0.0
1001
ACAD
1000
AcDbSavedByObjectVersion
1070
     0
  0
VISUALSTYLE
  5
193
102
{ACAD_XDICTIONARY
360
2E1
102
}
102
{ACAD_REACTORS
330
189
102
}
330
189
100
AcDbVisualStyle
  2
Realistic
 70
     8
 71
     2
 72
     2
 73
     0
 90
        0
 40
-0.6
 41
-30.0
 62
     5
 63
     7
 74
     1
 91
        0
 64
     7
 65
   257
 75
     1
175
     1
 42
1.0
 92
        8
 66
     8
 43
1.0
 76
     1
 77
     6
 78
     2
 67
     7
 79
     5
170
     0
171
     0
290
     0
174
     0
 93
       13
 44
0.0
173
     0
291
     0
 45
0.0
1001
ACAD
1000
AcDbSavedByObjectVersion
1070
     0
  0
VISUALSTYLE
  5
277
102
{ACAD_XDICTIONARY
360
30E
102
}
102
{ACAD_REACTORS
330
189
102
}
330
189
100
AcDbVisualStyle
  2
Shaded
 70
    27
 71
     2
 72
     2
 73
     1
 90
        2
 40
-0.6
 41
30.0
 62
     5
 63
     7
 74
     0
 91
        4
 64
     7
 65
   257
 75
     1
175
     1
 42
1.0
 92
        8
 66
   257
 43
1.0
 76
     1
 77
     6
 78
     2
 67
     8
 79
     3
170
     0
171
     0
290
     0
174
     0
 93
        5
 44
0.0
173
     0
291
     0
 45
0.0
1001
ACAD
1000
AcDbSavedByObjectVersion
1070
     0
  0
VISUALSTYLE
  5
276
102
{ACAD_XDICTIONARY
360
30C
102
}
102
{ACAD_REACTORS
330
189
102
}
330
189
100
AcDbVisualStyle
  2
Shaded with edges
 70
    26
 71
     2
 72
     2
 73
     1
 90
        2
 40
-0.6
 41
30.0
 62
     5
 63
     7
 74
     1
 91
       10
 64
     7
 65
   257
 75
     2
175
     1
 42
1.0
 92
        8
 66
   257
 43
1.0
 76
     1
 77
     6
 78
     2
 67
     7
 79
     3
170
     0
171
     0
290
     0
174
     0
 93
        5
 44
0.0
173
     0
291
     0
 45
0.0
1001
ACAD
1000
AcDbSavedByObjectVersion
1070
     0
  0
VISUALSTYLE
  5
273
102
{ACAD_XDICTIONARY
360
306
102
}
102
{ACAD_REACTORS
330
189
102
}
330
189
100
AcDbVisualStyle
  2
Shades of Gray
 70
    23
 71
     2
 72
     2
 73
     3
 90
        0
 40
-0.6
 41
-30.0
 62
     5
 63
     7
 74
     2
 91
        2
 64
     7
 65
     7
 75
     1
175
     1
 42
40.0
 92
        8
 66
     7
 43
1.0
 76
     1
 77
     6
 78
     2
 67
     7
 79
     3
170
     0
171
     0
290
     0
174
     0
 93
        1
 44
0.0
173
     0
291
     0
 45
0.0
1001
ACAD
1000
AcDbSavedByObjectVersion
1070
     0
  0
VISUALSTYLE
  5
274
102
{ACAD_XDICTIONARY
360
308
102
}
102
{ACAD_REACTORS
330
189
102
}
330
189
100
AcDbVisualStyle
  2
Sketchy
 70
    24
 71
     1
 72
     2
 73
     2
 90
        0
 40
-0.6
 41
-30.0
 62
     5
 63
     7
 74
     2
 91
        2
 64
     7
 65
     7
 75
     1
175
     1
 42
40.0
 92
       11
 66
     7
 43
1.0
 76
     1
 77
     6
 78
     2
 67
     7
 79
     6
170
     0
171
     0
290
     0
174
     0
 93
        1
 44
0.0
173
     0
291
     0
 45
0.0
1001
ACAD
1000
AcDbSavedByObjectVersion
1070
     0
  0
VISUALSTYLE
  5
196
102
{ACAD_XDICTIONARY
360
2E7
102
}
102
{ACAD_REACTORS
330
189
102
}
330
189
100
AcDbVisualStyle
  2
Thicken
 70
    13
 71
     2
 72
     2
 73
     0
 90
        0
 40
-0.6
 41
-30.0
 62
     5
 63
     7
 74
     1
 91
        4
 64
     7
 65
   257
 75
     1
175
     1
 42
1.0
 92
       12
 66
     7
 43
1.0
 76
     1
 77
     6
 78
     2
 67
     7
 79
     5
170
     0
171
     0
290
     0
174
     0
 93
        1
 44
0.0
173
     0
291
     1
 45
0.0
1001
ACAD
1000
AcDbSavedByObjectVersion
1070
     0
  0
VISUALSTYLE
  5
271
102
{ACAD_XDICTIONARY
360
302
102
}
102
{ACAD_REACTORS
330
189
102
}
330
189
100
AcDbVisualStyle
  2
Wireframe
 70
     5
 71
     0
 72
     2
 73
     0
 90
        0
 40
-0.6
 41
-30.0
 62
     5
 63
     7
 74
     1
 91
        4
 64
     7
 65
   257
 75
     1
175
     1
 42
1.0
 92
        0
 66
   257
 43
1.0
 76
     1
 77
     6
 78
     2
 67
     7
 79
     3
170
     0
171
     0
290
     0
174
     0
 93
        1
 44
0.0
173
     0
291
     0
 45
0.0
1001
ACAD
1000
AcDbSavedByObjectVersion
1070
     0
  0
VISUALSTYLE
  5
275
102
{ACAD_XDICTIONARY
360
30A
102
}
102
{ACAD_REACTORS
330
189
102
}
330
189
100
AcDbVisualStyle
  2
X-Ray
 70
    25
 71
     2
 72
     2
 73
     1
 90
        1
 40
0.5
 41
-30.0
 62
     5
 63
     7
 74
     1
 91
        0
 64
     7
 65
   257
 75
     1
175
     1
 42
1.0
 92
        8
 66
     7
 43
1.0
 76
     1
 77
     6
 78
     2
 67
     7
 79
     3
170
     0
171
     0
290
     0
174
     0
 93
       13
 44
0.0
173
     0
291
     0
 45
0.0
1001
ACAD
1000
AcDbSavedByObjectVersion
1070
     0
  0
DICTIONARYVAR
  5
26C
102
{ACAD_REACTORS
330
16E
102
}
330
16E
100
DictionaryVariables
280
     0
  1
1:1
  0
DICTIONARYVAR
  5
26A
102
{ACAD_REACTORS
330
16E
102
}
330
16E
100
DictionaryVariables
280
     0
  1
STANDARD
  0
DICTIONARYVAR
  5
269
102
{ACAD_REACTORS
330
16E
102
}
330
16E
100
DictionaryVariables
280
     0
  1
STANDARD
  0
DICTIONARYVAR
  5
16F
330
16E
100
DictionaryVariables
280
     0
  1
2
  0
DICTIONARYVAR
  5
26B
102
{ACAD_REACTORS
330
16E
102
}
330
16E
100
DictionaryVariables
280
     0
  1
0
  0
DICTIONARYVAR
  5
26E
102
{ACAD_REACTORS
330
16E
102
}
330
16E
100
DictionaryVariables
280
     0
  1
0
  0
DICTIONARYVAR
  5
26D
102
{ACAD_REACTORS
330
16E
102
}
330
16E
100
DictionaryVariables
280
     0
  1
127
  0
DICTIONARYVAR
  5
2C2
102
{ACAD_REACTORS
330
16E
102
}
330
16E
100
DictionaryVariables
280
     0
  1
2
  0
XRECORD
  5
226
102
{ACAD_REACTORS
330
224
102
}
330
224
100
AcDbXrecord
280
     1
330
F4
330
F6
330
F8
330
FA
330
FC
330
FE
330
100
  0
XRECORD
  5
1D6
102
{ACAD_REACTORS
330
1D5
102
}
330
1D5
100
AcDbXrecord
280
     1
 91
        1
  0
ACAD_PROXY_OBJECT
  5
1D3
102
{ACAD_REACTORS
330
1D2
102
}
330
1D2
100
AcDbProxyObject
 90
      499
 91
      529
 95
   983063
 70
     0
 93
       88
310
4050844454641554C5400E00
 94
        0
1001
ACAD
1000
AcRTDxfName
1000
ACDBQSCATEGORY
  0
XRECORD
  5
222
102
{ACAD_REACTORS
330
220
102
}
330
220
100
AcDbXrecord
280
     1
  9
X76e6
  0
XRECORD
  5
221
102
{ACAD_REACTORS
330
220
102
}
330
220
100
AcDbXrecord
280
     1
  2
TOP
  3
P-0000
280
     1
310
6465736372697A696F6E6500544F5000444154410033302F31322F313000554D004E520052455600300044495345474E41544F5245004D2E43617075616E6F005343414C4100313A310000
 10
0.0
 20
0.0
 30
0.0
  0
XRECORD
  5
1DD
102
{ACAD_REACTORS
330
1DC
102
}
330
1DC
100
AcDbXrecord
280
     1
 90
      202
 91
      144
  0
DICTIONARY
  5
2CA
330
21
100
AcDbDictionary
280
     1
281
     1
  3
ACAD_XREC_ROUNDTRIP
360
2CB
  0
DICTIONARY
  5
2C8
330
20
100
AcDbDictionary
280
     1
281
     1
  3
ACAD_XREC_ROUNDTRIP
360
2C9
  0
DICTIONARY
  5
17A
330
179
100
AcDbDictionary
280
     1
281
     1
  3
ACAD_XREC_ROUNDTRIP
360
2CD
  3
BUMPTILE
360
17C
  3
DIFFUSETILE
360
17B
  3
OPACITYTILE
360
17F
  3
REFLECTIONTILE
360
17E
  3
REFRACTIONTILE
360
180
  3
SPECULARTILE
360
17D
  0
DICTIONARY
  5
172
330
171
100
AcDbDictionary
280
     1
281
     1
  3
ACAD_XREC_ROUNDTRIP
360
2CC
  3
BUMPTILE
360
174
  3
DIFFUSETILE
360
173
  3
OPACITYTILE
360
177
  3
REFLECTIONTILE
360
176
  3
REFRACTIONTILE
360
178
  3
SPECULARTILE
360
175
  0
DICTIONARY
  5
182
330
181
100
AcDbDictionary
280
     1
281
     1
  3
ACAD_XREC_ROUNDTRIP
360
2CE
  3
BUMPTILE
360
184
  3
DIFFUSETILE
360
183
  3
OPACITYTILE
360
187
  3
REFLECTIONTILE
360
186
  3
REFRACTIONTILE
360
188
  3
SPECULARTILE
360
185
  0
DICTIONARY
  5
2F6
330
1F1
100
AcDbDictionary
280
     1
281
     1
  3
ACAD_XREC_ROUNDTRIP
360
2F7
  0
DICTIONARY
  5
2F8
330
1F2
100
AcDbDictionary
280
     1
281
     1
  3
ACAD_XREC_ROUNDTRIP
360
2F9
  0
DICTIONARY
  5
2FA
330
1F3
100
AcDbDictionary
280
     1
281
     1
  3
ACAD_XREC_ROUNDTRIP
360
2FB
  0
DICTIONARY
  5
2FC
330
1F4
100
AcDbDictionary
280
     1
281
     1
  3
ACAD_XREC_ROUNDTRIP
360
2FD
  0
DICTIONARY
  5
2FE
330
1F5
100
AcDbDictionary
280
     1
281
     1
  3
ACAD_XREC_ROUNDTRIP
360
2FF
  0
DICTIONARY
  5
1F7
330
1F6
100
AcDbDictionary
280
     1
281
     1
  3
ACAD_ROUNDTRIP_2008_TABLESTYLE_CELLSTYLEMAP
360
2C4
  3
ACAD_XREC_ROUNDTRIP
360
300
  0
DICTIONARY
  5
1F9
330
1F8
100
AcDbDictionary
280
     1
281
     1
  3
ACAD_ROUNDTRIP_2008_TABLESTYLE_CELLSTYLEMAP
360
2C5
  3
ACAD_XREC_ROUNDTRIP
360
301
  0
DICTIONARY
  5
227
330
1C8
100
AcDbDictionary
280
     1
281
     1
  3
ACAD_ROUNDTRIP_2008_TABLESTYLE_CELLSTYLEMAP
360
2C3
  3
ACAD_XREC_ROUNDTRIP
360
2F5
  0
DICTIONARY
  5
2D9
330
18F
100
AcDbDictionary
280
     1
281
     1
  3
ACAD_XREC_ROUNDTRIP
360
2DA
  0
DICTIONARY
  5
2DD
330
191
100
AcDbDictionary
280
     1
281
     1
  3
ACAD_XREC_ROUNDTRIP
360
2DE
  0
DICTIONARY
  5
2DB
330
190
100
AcDbDictionary
280
     1
281
     1
  3
ACAD_XREC_ROUNDTRIP
360
2DC
  0
DICTIONARY
  5
2D7
330
18E
100
AcDbDictionary
280
     1
281
     1
  3
ACAD_XREC_ROUNDTRIP
360
2D8
  0
DICTIONARY
  5
2E5
330
195
100
AcDbDictionary
280
     1
281
     1
  3
ACAD_XREC_ROUNDTRIP
360
2E6
  0
DICTIONARY
  5
2ED
330
199
100
AcDbDictionary
280
     1
281
     1
  3
ACAD_XREC_ROUNDTRIP
360
2EE
  0
DICTIONARY
  5
2DF
330
192
100
AcDbDictionary
280
     1
281
     1
  3
ACAD_XREC_ROUNDTRIP
360
2E0
  0
DICTIONARY
  5
2E3
330
194
100
AcDbDictionary
280
     1
281
     1
  3
ACAD_XREC_ROUNDTRIP
360
2E4
  0
DICTIONARY
  5
2F3
330
19C
100
AcDbDictionary
280
     1
281
     1
  3
ACAD_XREC_ROUNDTRIP
360
2F4
  0
DICTIONARY
  5
2EB
330
198
100
AcDbDictionary
280
     1
281
     1
  3
ACAD_XREC_ROUNDTRIP
360
2EC
  0
DICTIONARY
  5
2CF
330
18A
100
AcDbDictionary
280
     1
281
     1
  3
ACAD_XREC_ROUNDTRIP
360
2D0
  0
DICTIONARY
  5
2D1
330
18B
100
AcDbDictionary
280
     1
281
     1
  3
ACAD_XREC_ROUNDTRIP
360
2D2
  0
DICTIONARY
  5
2D3
330
18C
100
AcDbDictionary
280
     1
281
     1
  3
ACAD_XREC_ROUNDTRIP
360
2D4
  0
DICTIONARY
  5
2D5
330
18D
100
AcDbDictionary
280
     1
281
     1
  3
ACAD_XREC_ROUNDTRIP
360
2D6
  0
DICTIONARY
  5
304
330
272
100
AcDbDictionary
280
     1
281
     1
  3
ACAD_XREC_ROUNDTRIP
360
305
  0
DICTIONARY
  5
2EF
330
19A
100
AcDbDictionary
280
     1
281
     1
  3
ACAD_XREC_ROUNDTRIP
360
2F0
  0
DICTIONARY
  5
2E9
330
197
100
AcDbDictionary
280
     1
281
     1
  3
ACAD_XREC_ROUNDTRIP
360
2EA
  0
DICTIONARY
  5
2F1
330
19B
100
AcDbDictionary
280
     1
281
     1
  3
ACAD_XREC_ROUNDTRIP
360
2F2
  0
DICTIONARY
  5
2E1
330
193
100
AcDbDictionary
280
     1
281
     1
  3
ACAD_XREC_ROUNDTRIP
360
2E2
  0
DICTIONARY
  5
30E
330
277
100
AcDbDictionary
280
     1
281
     1
  3
ACAD_XREC_ROUNDTRIP
360
30F
  0
DICTIONARY
  5
30C
330
276
100
AcDbDictionary
280
     1
281
     1
  3
ACAD_XREC_ROUNDTRIP
360
30D
  0
DICTIONARY
  5
306
330
273
100
AcDbDictionary
280
     1
281
     1
  3
ACAD_XREC_ROUNDTRIP
360
307
  0
DICTIONARY
  5
308
330
274
100
AcDbDictionary
280
     1
281
     1
  3
ACAD_XREC_ROUNDTRIP
360
309
  0
DICTIONARY
  5
2E7
330
196
100
AcDbDictionary
280
     1
281
     1
  3
ACAD_XREC_ROUNDTRIP
360
2E8
  0
DICTIONARY
  5
302
330
271
100
AcDbDictionary
280
     1
281
     1
  3
ACAD_XREC_ROUNDTRIP
360
303
  0
DICTIONARY
  5
30A
330
275
100
AcDbDictionary
280
     1
281
     1
  3
ACAD_XREC_ROUNDTRIP
360
30B
  0
XRECORD
  5
2CB
102
{ACAD_REACTORS
330
2CA
102
}
330
2CA
100
AcDbXrecord
280
     1
102
SHADEPLOT
 70
     0
102
SHADEPLOTRESLEVEL
 70
     2
102
SHADEPLOTCUSTOMDPI
 70
   300
  0
XRECORD
  5
2C9
102
{ACAD_REACTORS
330
2C8
102
}
330
2C8
100
AcDbXrecord
280
     1
102
SHADEPLOT
 70
     0
102
SHADEPLOTRESLEVEL
 70
     2
102
SHADEPLOTCUSTOMDPI
 70
   300
  0
XRECORD
  5
2CD
102
{ACAD_REACTORS
330
17A
102
}
330
17A
100
AcDbXrecord
280
     1
102
MATERIAL
148
0.0
149
0.0
149
0.0
 93
        0
 94
      127
282
     0
 72
     0
 77
     0
171
     0
175
     0
179
     0
273
     0
  0
XRECORD
  5
17C
102
{ACAD_REACTORS
330
17A
102
}
330
17A
100
AcDbXrecord
280
     1
270
     1
271
     1
  0
XRECORD
  5
17B
102
{ACAD_REACTORS
330
17A
102
}
330
17A
100
AcDbXrecord
280
     1
270
     1
271
     1
  0
XRECORD
  5
17F
102
{ACAD_REACTORS
330
17A
102
}
330
17A
100
AcDbXrecord
280
     1
270
     1
271
     1
  0
XRECORD
  5
17E
102
{ACAD_REACTORS
330
17A
102
}
330
17A
100
AcDbXrecord
280
     1
270
     1
271
     1
  0
XRECORD
  5
180
102
{ACAD_REACTORS
330
17A
102
}
330
17A
100
AcDbXrecord
280
     1
270
     1
271
     1
  0
XRECORD
  5
17D
102
{ACAD_REACTORS
330
17A
102
}
330
17A
100
AcDbXrecord
280
     1
270
     1
271
     1
  0
XRECORD
  5
2CC
102
{ACAD_REACTORS
330
172
102
}
330
172
100
AcDbXrecord
280
     1
102
MATERIAL
148
0.0
149
0.0
149
0.0
 93
        0
 94
      127
282
     0
 72
     0
 77
     0
171
     0
175
     0
179
     0
273
     0
  0
XRECORD
  5
174
102
{ACAD_REACTORS
330
172
102
}
330
172
100
AcDbXrecord
280
     1
270
     1
271
     1
  0
XRECORD
  5
173
102
{ACAD_REACTORS
330
172
102
}
330
172
100
AcDbXrecord
280
     1
270
     1
271
     1
  0
XRECORD
  5
177
102
{ACAD_REACTORS
330
172
102
}
330
172
100
AcDbXrecord
280
     1
270
     1
271
     1
  0
XRECORD
  5
176
102
{ACAD_REACTORS
330
172
102
}
330
172
100
AcDbXrecord
280
     1
270
     1
271
     1
  0
XRECORD
  5
178
102
{ACAD_REACTORS
330
172
102
}
330
172
100
AcDbXrecord
280
     1
270
     1
271
     1
  0
XRECORD
  5
175
102
{ACAD_REACTORS
330
172
102
}
330
172
100
AcDbXrecord
280
     1
270
     1
271
     1
  0
XRECORD
  5
2CE
102
{ACAD_REACTORS
330
182
102
}
330
182
100
AcDbXrecord
280
     1
102
MATERIAL
148
0.0
149
0.0
149
0.0
 93
        0
 94
      127
282
     0
 72
     0
 77
     0
171
     0
175
     0
179
     0
273
     0
  0
XRECORD
  5
184
102
{ACAD_REACTORS
330
182
102
}
330
182
100
AcDbXrecord
280
     1
270
     1
271
     1
  0
XRECORD
  5
183
102
{ACAD_REACTORS
330
182
102
}
330
182
100
AcDbXrecord
280
     1
270
     1
271
     1
  0
XRECORD
  5
187
102
{ACAD_REACTORS
330
182
102
}
330
182
100
AcDbXrecord
280
     1
270
     1
271
     1
  0
XRECORD
  5
186
102
{ACAD_REACTORS
330
182
102
}
330
182
100
AcDbXrecord
280
     1
270
     1
271
     1
  0
XRECORD
  5
188
102
{ACAD_REACTORS
330
182
102
}
330
182
100
AcDbXrecord
280
     1
270
     1
271
     1
  0
XRECORD
  5
185
102
{ACAD_REACTORS
330
182
102
}
330
182
100
AcDbXrecord
280
     1
270
     1
271
     1
  0
XRECORD
  5
2F7
102
{ACAD_REACTORS
330
2F6
102
}
330
2F6
100
AcDbXrecord
280
     1
102
SHADEPLOT
 70
     0
102
SHADEPLOTRESLEVEL
 70
     2
102
SHADEPLOTCUSTOMDPI
 70
   300
  0
XRECORD
  5
2F9
102
{ACAD_REACTORS
330
2F8
102
}
330
2F8
100
AcDbXrecord
280
     1
102
SHADEPLOT
 70
     0
102
SHADEPLOTRESLEVEL
 70
     2
102
SHADEPLOTCUSTOMDPI
 70
   300
  0
XRECORD
  5
2FB
102
{ACAD_REACTORS
330
2FA
102
}
330
2FA
100
AcDbXrecord
280
     1
102
SHADEPLOT
 70
     0
102
SHADEPLOTRESLEVEL
 70
     2
102
SHADEPLOTCUSTOMDPI
 70
   300
  0
XRECORD
  5
2FD
102
{ACAD_REACTORS
330
2FC
102
}
330
2FC
100
AcDbXrecord
280
     1
102
SHADEPLOT
 70
     0
102
SHADEPLOTRESLEVEL
 70
     2
102
SHADEPLOTCUSTOMDPI
 70
   300
  0
XRECORD
  5
2FF
102
{ACAD_REACTORS
330
2FE
102
}
330
2FE
100
AcDbXrecord
280
     1
102
SHADEPLOT
 70
     0
102
SHADEPLOTRESLEVEL
 70
     2
102
SHADEPLOTCUSTOMDPI
 70
   300
  0
CELLSTYLEMAP
  5
2C4
102
{ACAD_REACTORS
330
1F7
102
}
330
1F7
100
AcDbCellStyleMap
 90
        3
300
CELLSTYLE
  1
TABLEFORMAT_BEGIN
 90
        5
170
     1
 91
        0
 92
    32768
 62
   257
 93
        1
300
CONTENTFORMAT
  1
CONTENTFORMAT_BEGIN
 90
        0
 91
        0
 92
      512
 93
        0
300

 40
0.0
140
1.0
 94
        5
 62
     1
340
1E3
144
6.0
309
CONTENTFORMAT_END
171
     1
301
MARGIN
  1
CELLMARGIN_BEGIN
 40
1.5
 40
1.5
 40
1.5
 40
1.5
 40
0.18
 40
0.18
309
CELLMARGIN_END
 94
        6
 95
        1
302
GRIDFORMAT
  1
GRIDFORMAT_BEGIN
 90
        0
 91
        1
 62
     0
 92
       -2
340
0
 93
        0
 40
0.045
309
GRIDFORMAT_END
 95
        2
302
GRIDFORMAT
  1
GRIDFORMAT_BEGIN
 90
        0
 91
        1
 62
     0
 92
       -2
340
0
 93
        0
 40
0.045
309
GRIDFORMAT_END
 95
        4
302
GRIDFORMAT
  1
GRIDFORMAT_BEGIN
 90
        0
 91
        1
 62
     0
 92
       -2
340
0
 93
        0
 40
0.045
309
GRIDFORMAT_END
 95
        8
302
GRIDFORMAT
  1
GRIDFORMAT_BEGIN
 90
        0
 91
        1
 62
     0
 92
       -2
340
0
 93
        0
 40
0.045
309
GRIDFORMAT_END
 95
       16
302
GRIDFORMAT
  1
GRIDFORMAT_BEGIN
 90
        0
 91
        1
 62
     0
 92
       -2
340
0
 93
        0
 40
0.045
309
GRIDFORMAT_END
 95
       32
302
GRIDFORMAT
  1
GRIDFORMAT_BEGIN
 90
        0
 91
        1
 62
     0
 92
       -2
340
0
 93
        0
 40
0.045
309
GRIDFORMAT_END
309
TABLEFORMAT_END
  1
CELLSTYLE_BEGIN
 90
        1
 91
        1
300
_TITLE
309
CELLSTYLE_END
300
CELLSTYLE
  1
TABLEFORMAT_BEGIN
 90
        5
170
     1
 91
        0
 92
        0
 62
   257
 93
        1
300
CONTENTFORMAT
  1
CONTENTFORMAT_BEGIN
 90
        0
 91
        0
 92
      512
 93
        0
300

 40
0.0
140
1.0
 94
        5
 62
     3
340
1E3
144
3.5
309
CONTENTFORMAT_END
171
     1
301
MARGIN
  1
CELLMARGIN_BEGIN
 40
1.5
 40
1.5
 40
1.5
 40
1.5
 40
0.18
 40
0.18
309
CELLMARGIN_END
 94
        6
 95
        1
302
GRIDFORMAT
  1
GRIDFORMAT_BEGIN
 90
        0
 91
        1
 62
     0
 92
       -2
340
0
 93
        0
 40
0.045
309
GRIDFORMAT_END
 95
        2
302
GRIDFORMAT
  1
GRIDFORMAT_BEGIN
 90
        0
 91
        1
 62
     0
 92
       -2
340
0
 93
        0
 40
0.045
309
GRIDFORMAT_END
 95
        4
302
GRIDFORMAT
  1
GRIDFORMAT_BEGIN
 90
        0
 91
        1
 62
     0
 92
       -2
340
0
 93
        0
 40
0.045
309
GRIDFORMAT_END
 95
        8
302
GRIDFORMAT
  1
GRIDFORMAT_BEGIN
 90
        0
 91
        1
 62
     0
 92
       -2
340
0
 93
        0
 40
0.045
309
GRIDFORMAT_END
 95
       16
302
GRIDFORMAT
  1
GRIDFORMAT_BEGIN
 90
        0
 91
        1
 62
     0
 92
       -2
340
0
 93
        0
 40
0.045
309
GRIDFORMAT_END
 95
       32
302
GRIDFORMAT
  1
GRIDFORMAT_BEGIN
 90
        0
 91
        1
 62
     0
 92
       -2
340
0
 93
        0
 40
0.045
309
GRIDFORMAT_END
309
TABLEFORMAT_END
  1
CELLSTYLE_BEGIN
 90
        2
 91
        1
300
_HEADER
309
CELLSTYLE_END
300
CELLSTYLE
  1
TABLEFORMAT_BEGIN
 90
        5
170
     1
 91
        0
 92
        0
 62
   257
 93
        1
300
CONTENTFORMAT
  1
CONTENTFORMAT_BEGIN
 90
        0
 91
        0
 92
      512
 93
        0
300

 40
0.0
140
1.0
 94
        5
 62
     7
340
1E3
144
3.0
309
CONTENTFORMAT_END
171
     1
301
MARGIN
  1
CELLMARGIN_BEGIN
 40
1.5
 40
1.5
 40
1.5
 40
1.5
 40
0.18
 40
0.18
309
CELLMARGIN_END
 94
        6
 95
        1
302
GRIDFORMAT
  1
GRIDFORMAT_BEGIN
 90
        0
 91
        1
 62
     0
 92
       -2
340
0
 93
        0
 40
0.045
309
GRIDFORMAT_END
 95
        2
302
GRIDFORMAT
  1
GRIDFORMAT_BEGIN
 90
        0
 91
        1
 62
     0
 92
       -2
340
0
 93
        0
 40
0.045
309
GRIDFORMAT_END
 95
        4
302
GRIDFORMAT
  1
GRIDFORMAT_BEGIN
 90
        0
 91
        1
 62
     0
 92
       -2
340
0
 93
        0
 40
0.045
309
GRIDFORMAT_END
 95
        8
302
GRIDFORMAT
  1
GRIDFORMAT_BEGIN
 90
        0
 91
        1
 62
     0
 92
       -2
340
0
 93
        0
 40
0.045
309
GRIDFORMAT_END
 95
       16
302
GRIDFORMAT
  1
GRIDFORMAT_BEGIN
 90
        0
 91
        1
 62
     0
 92
       -2
340
0
 93
        0
 40
0.045
309
GRIDFORMAT_END
 95
       32
302
GRIDFORMAT
  1
GRIDFORMAT_BEGIN
 90
        0
 91
        1
 62
     0
 92
       -2
340
0
 93
        0
 40
0.045
309
GRIDFORMAT_END
309
TABLEFORMAT_END
  1
CELLSTYLE_BEGIN
 90
        3
 91
        2
300
_DATA
309
CELLSTYLE_END
  0
XRECORD
  5
300
102
{ACAD_REACTORS
330
1F7
102
}
330
1F7
100
AcDbXrecord
280
     1
102
ACAD_ROUNDTRIP_PRE2007_TABLESTYLE
 90
      512
 91
        0
  1

 92
      512
 93
        0
  2

 94
      512
 95
        0
  3

  0
CELLSTYLEMAP
  5
2C5
102
{ACAD_REACTORS
330
1F9
102
}
330
1F9
100
AcDbCellStyleMap
 90
        3
300
CELLSTYLE
  1
TABLEFORMAT_BEGIN
 90
        5
170
     1
 91
        0
 92
    32768
 62
   257
 93
        1
300
CONTENTFORMAT
  1
CONTENTFORMAT_BEGIN
 90
        0
 91
        0
 92
      512
 93
        0
300

 40
0.0
140
1.0
 94
        5
 62
     1
340
1E3
144
6.0
309
CONTENTFORMAT_END
171
     1
301
MARGIN
  1
CELLMARGIN_BEGIN
 40
1.5
 40
1.5
 40
1.5
 40
1.5
 40
0.18
 40
0.18
309
CELLMARGIN_END
 94
        6
 95
        1
302
GRIDFORMAT
  1
GRIDFORMAT_BEGIN
 90
        0
 91
        1
 62
     0
 92
       -2
340
0
 93
        0
 40
0.045
309
GRIDFORMAT_END
 95
        2
302
GRIDFORMAT
  1
GRIDFORMAT_BEGIN
 90
        0
 91
        1
 62
     0
 92
       -2
340
0
 93
        0
 40
0.045
309
GRIDFORMAT_END
 95
        4
302
GRIDFORMAT
  1
GRIDFORMAT_BEGIN
 90
        0
 91
        1
 62
     0
 92
       -2
340
0
 93
        0
 40
0.045
309
GRIDFORMAT_END
 95
        8
302
GRIDFORMAT
  1
GRIDFORMAT_BEGIN
 90
        0
 91
        1
 62
     0
 92
       -2
340
0
 93
        0
 40
0.045
309
GRIDFORMAT_END
 95
       16
302
GRIDFORMAT
  1
GRIDFORMAT_BEGIN
 90
        0
 91
        1
 62
     0
 92
       -2
340
0
 93
        0
 40
0.045
309
GRIDFORMAT_END
 95
       32
302
GRIDFORMAT
  1
GRIDFORMAT_BEGIN
 90
        0
 91
        1
 62
     0
 92
       -2
340
0
 93
        0
 40
0.045
309
GRIDFORMAT_END
309
TABLEFORMAT_END
  1
CELLSTYLE_BEGIN
 90
        1
 91
        1
300
_TITLE
309
CELLSTYLE_END
300
CELLSTYLE
  1
TABLEFORMAT_BEGIN
 90
        5
170
     1
 91
        0
 92
        0
 62
   257
 93
        1
300
CONTENTFORMAT
  1
CONTENTFORMAT_BEGIN
 90
        0
 91
        0
 92
      512
 93
        0
300

 40
0.0
140
1.0
 94
        5
 62
     3
340
1E3
144
5.0
309
CONTENTFORMAT_END
171
     1
301
MARGIN
  1
CELLMARGIN_BEGIN
 40
1.5
 40
1.5
 40
1.5
 40
1.5
 40
0.18
 40
0.18
309
CELLMARGIN_END
 94
        6
 95
        1
302
GRIDFORMAT
  1
GRIDFORMAT_BEGIN
 90
        0
 91
        1
 62
     0
 92
       -2
340
0
 93
        0
 40
0.045
309
GRIDFORMAT_END
 95
        2
302
GRIDFORMAT
  1
GRIDFORMAT_BEGIN
 90
        0
 91
        1
 62
     0
 92
       -2
340
0
 93
        0
 40
0.045
309
GRIDFORMAT_END
 95
        4
302
GRIDFORMAT
  1
GRIDFORMAT_BEGIN
 90
        0
 91
        1
 62
     0
 92
       -2
340
0
 93
        0
 40
0.045
309
GRIDFORMAT_END
 95
        8
302
GRIDFORMAT
  1
GRIDFORMAT_BEGIN
 90
        0
 91
        1
 62
     0
 92
       -2
340
0
 93
        0
 40
0.045
309
GRIDFORMAT_END
 95
       16
302
GRIDFORMAT
  1
GRIDFORMAT_BEGIN
 90
        0
 91
        1
 62
     0
 92
       -2
340
0
 93
        0
 40
0.045
309
GRIDFORMAT_END
 95
       32
302
GRIDFORMAT
  1
GRIDFORMAT_BEGIN
 90
        0
 91
        1
 62
     0
 92
       -2
340
0
 93
        0
 40
0.045
309
GRIDFORMAT_END
309
TABLEFORMAT_END
  1
CELLSTYLE_BEGIN
 90
        2
 91
        1
300
_HEADER
309
CELLSTYLE_END
300
CELLSTYLE
  1
TABLEFORMAT_BEGIN
 90
        5
170
     1
 91
        0
 92
        0
 62
   257
 93
        1
300
CONTENTFORMAT
  1
CONTENTFORMAT_BEGIN
 90
        0
 91
        0
 92
      512
 93
        0
300

 40
0.0
140
1.0
 94
        5
 62
     7
340
1E3
144
4.5
309
CONTENTFORMAT_END
171
     1
301
MARGIN
  1
CELLMARGIN_BEGIN
 40
1.5
 40
1.5
 40
1.5
 40
1.5
 40
0.18
 40
0.18
309
CELLMARGIN_END
 94
        6
 95
        1
302
GRIDFORMAT
  1
GRIDFORMAT_BEGIN
 90
        0
 91
        1
 62
     0
 92
       -2
340
0
 93
        0
 40
0.045
309
GRIDFORMAT_END
 95
        2
302
GRIDFORMAT
  1
GRIDFORMAT_BEGIN
 90
        0
 91
        1
 62
     0
 92
       -2
340
0
 93
        0
 40
0.045
309
GRIDFORMAT_END
 95
        4
302
GRIDFORMAT
  1
GRIDFORMAT_BEGIN
 90
        0
 91
        1
 62
     0
 92
       -2
340
0
 93
        0
 40
0.045
309
GRIDFORMAT_END
 95
        8
302
GRIDFORMAT
  1
GRIDFORMAT_BEGIN
 90
        0
 91
        1
 62
     0
 92
       -2
340
0
 93
        0
 40
0.045
309
GRIDFORMAT_END
 95
       16
302
GRIDFORMAT
  1
GRIDFORMAT_BEGIN
 90
        0
 91
        1
 62
     0
 92
       -2
340
0
 93
        0
 40
0.045
309
GRIDFORMAT_END
 95
       32
302
GRIDFORMAT
  1
GRIDFORMAT_BEGIN
 90
        0
 91
        1
 62
     0
 92
       -2
340
0
 93
        0
 40
0.045
309
GRIDFORMAT_END
309
TABLEFORMAT_END
  1
CELLSTYLE_BEGIN
 90
        3
 91
        2
300
_DATA
309
CELLSTYLE_END
  0
XRECORD
  5
301
102
{ACAD_REACTORS
330
1F9
102
}
330
1F9
100
AcDbXrecord
280
     1
102
ACAD_ROUNDTRIP_PRE2007_TABLESTYLE
 90
      512
 91
        0
  1

 92
      512
 93
        0
  2

 94
      512
 95
        0
  3

  0
CELLSTYLEMAP
  5
2C3
102
{ACAD_REACTORS
330
227
102
}
330
227
100
AcDbCellStyleMap
 90
        3
300
CELLSTYLE
  1
TABLEFORMAT_BEGIN
 90
        5
170
     1
 91
        0
 92
    32768
 62
   257
 93
        1
300
CONTENTFORMAT
  1
CONTENTFORMAT_BEGIN
 90
        0
 91
        0
 92
      512
 93
        0
300

 40
0.0
140
1.0
 94
        5
 62
     0
340
17
144
0.25
309
CONTENTFORMAT_END
171
     0
 94
        0
309
TABLEFORMAT_END
  1
CELLSTYLE_BEGIN
 90
        1
 91
        1
300
_TITLE
309
CELLSTYLE_END
300
CELLSTYLE
  1
TABLEFORMAT_BEGIN
 90
        5
170
     1
 91
        0
 92
        0
 62
   257
 93
        1
300
CONTENTFORMAT
  1
CONTENTFORMAT_BEGIN
 90
        0
 91
        0
 92
      512
 93
        0
300

 40
0.0
140
1.0
 94
        5
 62
     0
340
17
144
0.18
309
CONTENTFORMAT_END
171
     0
 94
        0
309
TABLEFORMAT_END
  1
CELLSTYLE_BEGIN
 90
        2
 91
        1
300
_HEADER
309
CELLSTYLE_END
300
CELLSTYLE
  1
TABLEFORMAT_BEGIN
 90
        5
170
     1
 91
        0
 92
        0
 62
   257
 93
        1
300
CONTENTFORMAT
  1
CONTENTFORMAT_BEGIN
 90
        0
 91
        0
 92
      512
 93
        0
300

 40
0.0
140
1.0
 94
        2
 62
     0
340
17
144
0.18
309
CONTENTFORMAT_END
171
     0
 94
        0
309
TABLEFORMAT_END
  1
CELLSTYLE_BEGIN
 90
        3
 91
        2
300
_DATA
309
CELLSTYLE_END
  0
XRECORD
  5
2F5
102
{ACAD_REACTORS
330
227
102
}
330
227
100
AcDbXrecord
280
     1
102
ACAD_ROUNDTRIP_PRE2007_TABLESTYLE
 90
      512
 91
        0
  1

 92
      512
 93
        0
  2

 94
      512
 95
        0
  3

  0
XRECORD
  5
2DA
102
{ACAD_REACTORS
330
2D9
102
}
330
2D9
100
AcDbXrecord
280
     1
102
RTVSPropertyOp0
 70
     1
102
RTVSPropertyOp1
 70
     1
102
RTVSPropertyOp2
 70
     1
102
RTVSPropertyOp3
 70
     1
102
RTVSPropertyOp4
 70
     1
102
RTVSPropertyOp5
 70
     1
102
RTVSPropertyOp6
 70
     1
102
RTVSPropertyOp7
 70
     1
102
RTVSPropertyOp8
 70
     1
102
RTVSPropertyOp9
 70
     1
102
RTVSPropertyOp10
 70
     1
102
RTVSPropertyOp11
 70
     1
102
RTVSPropertyOp12
 70
     1
102
RTVSPropertyOp13
 70
     1
102
RTVSPropertyOp14
 70
     1
102
RTVSPropertyOp15
 70
     1
102
RTVSPropertyOp16
 70
     1
102
RTVSPropertyOp17
 70
     1
102
RTVSPropertyOp18
 70
     1
102
RTVSPropertyOp19
 70
     1
102
RTVSPropertyOp20
 70
     1
102
RTVSPropertyOp21
 70
     1
102
RTVSPropertyOp22
 70
     1
102
RTVSPropertyOp23
 70
     1
102
RTVSPropertyOp24
 70
     1
102
RTVSPropertyOp25
 70
     1
102
RTVSPropertyOp26
 70
     1
102
RTVSPropertyOp27
 70
     1
102
RTVSPropertyOp28
 70
     1
102
RTVSPropertyOp29
 70
     1
102
RTVSPropertyOp30
 70
     1
102
RTVSPropertyOp31
 70
     1
102
RTVSPropertyOp32
 70
     1
  0
XRECORD
  5
2DE
102
{ACAD_REACTORS
330
2DD
102
}
330
2DD
100
AcDbXrecord
280
     1
102
RTVSPropertyOp0
 70
     1
102
RTVSPropertyOp1
 70
     1
102
RTVSPropertyOp2
 70
     1
102
RTVSPropertyOp3
 70
     1
102
RTVSPropertyOp4
 70
     1
102
RTVSPropertyOp5
 70
     1
102
RTVSPropertyOp6
 70
     1
102
RTVSPropertyOp7
 70
     1
102
RTVSPropertyOp8
 70
     1
102
RTVSPropertyOp9
 70
     1
102
RTVSPropertyOp10
 70
     1
102
RTVSPropertyOp11
 70
     1
102
RTVSPropertyOp12
 70
     1
102
RTVSPropertyOp13
 70
     1
102
RTVSPropertyOp14
 70
     1
102
RTVSPropertyOp15
 70
     1
102
RTVSPropertyOp16
 70
     1
102
RTVSPropertyOp17
 70
     1
102
RTVSPropertyOp18
 70
     1
102
RTVSPropertyOp19
 70
     1
102
RTVSPropertyOp20
 70
     1
102
RTVSPropertyOp21
 70
     1
102
RTVSPropertyOp22
 70
     1
102
RTVSPropertyOp23
 70
     1
102
RTVSPropertyOp24
 70
     1
102
RTVSPropertyOp25
 70
     1
102
RTVSPropertyOp26
 70
     1
102
RTVSPropertyOp27
 70
     1
102
RTVSPropertyOp28
 70
     1
102
RTVSPropertyOp29
 70
     1
102
RTVSPropertyOp30
 70
     1
102
RTVSPropertyOp31
 70
     1
102
RTVSPropertyOp32
 70
     1
  0
XRECORD
  5
2DC
102
{ACAD_REACTORS
330
2DB
102
}
330
2DB
100
AcDbXrecord
280
     1
102
RTVSPropertyOp0
 70
     1
102
RTVSPropertyOp1
 70
     1
102
RTVSPropertyOp2
 70
     1
102
RTVSPropertyOp3
 70
     1
102
RTVSPropertyOp4
 70
     1
102
RTVSPropertyOp5
 70
     1
102
RTVSPropertyOp6
 70
     1
102
RTVSPropertyOp7
 70
     1
102
RTVSPropertyOp8
 70
     1
102
RTVSPropertyOp9
 70
     1
102
RTVSPropertyOp10
 70
     1
102
RTVSPropertyOp11
 70
     1
102
RTVSPropertyOp12
 70
     1
102
RTVSPropertyOp13
 70
     1
102
RTVSPropertyOp14
 70
     1
102
RTVSPropertyOp15
 70
     1
102
RTVSPropertyOp16
 70
     1
102
RTVSPropertyOp17
 70
     1
102
RTVSPropertyOp18
 70
     1
102
RTVSPropertyOp19
 70
     1
102
RTVSPropertyOp20
 70
     1
102
RTVSPropertyOp21
 70
     1
102
RTVSPropertyOp22
 70
     1
102
RTVSPropertyOp23
 70
     1
102
RTVSPropertyOp24
 70
     1
102
RTVSPropertyOp25
 70
     1
102
RTVSPropertyOp26
 70
     1
102
RTVSPropertyOp27
 70
     1
102
RTVSPropertyOp28
 70
     1
102
RTVSPropertyOp29
 70
     1
102
RTVSPropertyOp30
 70
     1
102
RTVSPropertyOp31
 70
     1
102
RTVSPropertyOp32
 70
     1
  0
XRECORD
  5
2D8
102
{ACAD_REACTORS
330
2D7
102
}
330
2D7
100
AcDbXrecord
280
     1
102
RTVSPropertyOp0
 70
     1
102
RTVSPropertyOp1
 70
     1
102
RTVSPropertyOp2
 70
     1
102
RTVSPropertyOp3
 70
     1
102
RTVSPropertyOp4
 70
     1
102
RTVSPropertyOp5
 70
     1
102
RTVSPropertyOp6
 70
     1
102
RTVSPropertyOp7
 70
     1
102
RTVSPropertyOp8
 70
     1
102
RTVSPropertyOp9
 70
     1
102
RTVSPropertyOp10
 70
     1
102
RTVSPropertyOp11
 70
     1
102
RTVSPropertyOp12
 70
     1
102
RTVSPropertyOp13
 70
     1
102
RTVSPropertyOp14
 70
     1
102
RTVSPropertyOp15
 70
     1
102
RTVSPropertyOp16
 70
     1
102
RTVSPropertyOp17
 70
     1
102
RTVSPropertyOp18
 70
     1
102
RTVSPropertyOp19
 70
     1
102
RTVSPropertyOp20
 70
     1
102
RTVSPropertyOp21
 70
     1
102
RTVSPropertyOp22
 70
     1
102
RTVSPropertyOp23
 70
     1
102
RTVSPropertyOp24
 70
     1
102
RTVSPropertyOp25
 70
     1
102
RTVSPropertyOp26
 70
     1
102
RTVSPropertyOp27
 70
     1
102
RTVSPropertyOp28
 70
     1
102
RTVSPropertyOp29
 70
     1
102
RTVSPropertyOp30
 70
     1
102
RTVSPropertyOp31
 70
     1
102
RTVSPropertyOp32
 70
     1
  0
XRECORD
  5
2E6
102
{ACAD_REACTORS
330
2E5
102
}
330
2E5
100
AcDbXrecord
280
     1
102
RTVSPropertyOp0
 70
     1
102
RTVSPropertyOp1
 70
     1
102
RTVSPropertyOp2
 70
     1
102
RTVSPropertyOp3
 70
     1
102
RTVSPropertyOp4
 70
     1
102
RTVSPropertyOp5
 70
     1
102
RTVSPropertyOp6
 70
     1
102
RTVSPropertyOp7
 70
     1
102
RTVSPropertyOp8
 70
     1
102
RTVSPropertyOp9
 70
     1
102
RTVSPropertyOp10
 70
     1
102
RTVSPropertyOp11
 70
     1
102
RTVSPropertyOp12
 70
     1
102
RTVSPropertyOp13
 70
     1
102
RTVSPropertyOp14
 70
     1
102
RTVSPropertyOp15
 70
     1
102
RTVSPropertyOp16
 70
     1
102
RTVSPropertyOp17
 70
     1
102
RTVSPropertyOp18
 70
     1
102
RTVSPropertyOp19
 70
     1
102
RTVSPropertyOp20
 70
     1
102
RTVSPropertyOp21
 70
     1
102
RTVSPropertyOp22
 70
     1
102
RTVSPropertyOp23
 70
     1
102
RTVSPropertyOp24
 70
     1
102
RTVSPropertyOp25
 70
     1
102
RTVSPropertyOp26
 70
     1
102
RTVSPropertyOp27
 70
     1
102
RTVSPropertyOp28
 70
     1
102
RTVSPropertyOp29
 70
     1
102
RTVSPropertyOp30
 70
     1
102
RTVSPropertyOp31
 70
     1
102
RTVSPropertyOp32
 70
     1
  0
XRECORD
  5
2EE
102
{ACAD_REACTORS
330
2ED
102
}
330
2ED
100
AcDbXrecord
280
     1
102
RTVSPropertyOp0
 70
     1
102
RTVSPropertyOp1
 70
     1
102
RTVSPropertyOp2
 70
     1
102
RTVSPropertyOp3
 70
     1
102
RTVSPropertyOp4
 70
     1
102
RTVSPropertyOp5
 70
     1
102
RTVSPropertyOp6
 70
     1
102
RTVSPropertyOp7
 70
     1
102
RTVSPropertyOp8
 70
     1
102
RTVSPropertyOp9
 70
     1
102
RTVSPropertyOp10
 70
     1
102
RTVSPropertyOp11
 70
     1
102
RTVSPropertyOp12
 70
     1
102
RTVSPropertyOp13
 70
     1
102
RTVSPropertyOp14
 70
     1
102
RTVSPropertyOp15
 70
     1
102
RTVSPropertyOp16
 70
     1
102
RTVSPropertyOp17
 70
     1
102
RTVSPropertyOp18
 70
     1
102
RTVSPropertyOp19
 70
     1
102
RTVSPropertyOp20
 70
     1
102
RTVSPropertyOp21
 70
     1
102
RTVSPropertyOp22
 70
     1
102
RTVSPropertyOp23
 70
     1
102
RTVSPropertyOp24
 70
     1
102
RTVSPropertyOp25
 70
     1
102
RTVSPropertyOp26
 70
     1
102
RTVSPropertyOp27
 70
     1
102
RTVSPropertyOp28
 70
     1
102
RTVSPropertyOp29
 70
     1
102
RTVSPropertyOp30
 70
     1
102
RTVSPropertyOp31
 70
     1
102
RTVSPropertyOp32
 70
     1
  0
XRECORD
  5
2E0
102
{ACAD_REACTORS
330
2DF
102
}
330
2DF
100
AcDbXrecord
280
     1
102
RTVSPropertyOp0
 70
     1
102
RTVSPropertyOp1
 70
     1
102
RTVSPropertyOp2
 70
     1
102
RTVSPropertyOp3
 70
     1
102
RTVSPropertyOp4
 70
     1
102
RTVSPropertyOp5
 70
     1
102
RTVSPropertyOp6
 70
     1
102
RTVSPropertyOp7
 70
     1
102
RTVSPropertyOp8
 70
     1
102
RTVSPropertyOp9
 70
     1
102
RTVSPropertyOp10
 70
     1
102
RTVSPropertyOp11
 70
     1
102
RTVSPropertyOp12
 70
     1
102
RTVSPropertyOp13
 70
     1
102
RTVSPropertyOp14
 70
     1
102
RTVSPropertyOp15
 70
     1
102
RTVSPropertyOp16
 70
     1
102
RTVSPropertyOp17
 70
     1
102
RTVSPropertyOp18
 70
     1
102
RTVSPropertyOp19
 70
     1
102
RTVSPropertyOp20
 70
     1
102
RTVSPropertyOp21
 70
     1
102
RTVSPropertyOp22
 70
     1
102
RTVSPropertyOp23
 70
     1
102
RTVSPropertyOp24
 70
     1
102
RTVSPropertyOp25
 70
     1
102
RTVSPropertyOp26
 70
     1
102
RTVSPropertyOp27
 70
     1
102
RTVSPropertyOp28
 70
     1
102
RTVSPropertyOp29
 70
     1
102
RTVSPropertyOp30
 70
     1
102
RTVSPropertyOp31
 70
     1
102
RTVSPropertyOp32
 70
     1
  0
XRECORD
  5
2E4
102
{ACAD_REACTORS
330
2E3
102
}
330
2E3
100
AcDbXrecord
280
     1
102
RTVSPropertyOp0
 70
     1
102
RTVSPropertyOp1
 70
     1
102
RTVSPropertyOp2
 70
     1
102
RTVSPropertyOp3
 70
     1
102
RTVSPropertyOp4
 70
     1
102
RTVSPropertyOp5
 70
     1
102
RTVSPropertyOp6
 70
     1
102
RTVSPropertyOp7
 70
     1
102
RTVSPropertyOp8
 70
     1
102
RTVSPropertyOp9
 70
     1
102
RTVSPropertyOp10
 70
     1
102
RTVSPropertyOp11
 70
     1
102
RTVSPropertyOp12
 70
     1
102
RTVSPropertyOp13
 70
     1
102
RTVSPropertyOp14
 70
     1
102
RTVSPropertyOp15
 70
     1
102
RTVSPropertyOp16
 70
     1
102
RTVSPropertyOp17
 70
     1
102
RTVSPropertyOp18
 70
     1
102
RTVSPropertyOp19
 70
     1
102
RTVSPropertyOp20
 70
     1
102
RTVSPropertyOp21
 70
     1
102
RTVSPropertyOp22
 70
     1
102
RTVSPropertyOp23
 70
     1
102
RTVSPropertyOp24
 70
     1
102
RTVSPropertyOp25
 70
     1
102
RTVSPropertyOp26
 70
     1
102
RTVSPropertyOp27
 70
     1
102
RTVSPropertyOp28
 70
     1
102
RTVSPropertyOp29
 70
     1
102
RTVSPropertyOp30
 70
     1
102
RTVSPropertyOp31
 70
     1
102
RTVSPropertyOp32
 70
     1
  0
XRECORD
  5
2F4
102
{ACAD_REACTORS
330
2F3
102
}
330
2F3
100
AcDbXrecord
280
     1
102
RTVSPropertyOp0
 70
     0
102
RTVSPropertyOp1
 70
     0
102
RTVSPropertyOp2
 70
     0
102
RTVSPropertyOp3
 70
     0
102
RTVSPropertyOp4
 70
     0
102
RTVSPropertyOp5
 70
     0
102
RTVSPropertyOp6
 70
     0
102
RTVSPropertyOp7
 70
     0
102
RTVSPropertyOp8
 70
     0
102
RTVSPropertyOp9
 70
     0
102
RTVSPropertyOp10
 70
     0
102
RTVSPropertyOp11
 70
     0
102
RTVSPropertyOp12
 70
     0
102
RTVSPropertyOp13
 70
     0
102
RTVSPropertyOp14
 70
     2
102
RTVSPropertyOp15
 70
     0
102
RTVSPropertyOp16
 70
     0
102
RTVSPropertyOp17
 70
     0
102
RTVSPropertyOp18
 70
     0
102
RTVSPropertyOp19
 70
     0
102
RTVSPropertyOp20
 70
     0
102
RTVSPropertyOp21
 70
     0
102
RTVSPropertyOp22
 70
     0
102
RTVSPropertyOp23
 70
     0
102
RTVSPropertyOp24
 70
     0
102
RTVSPropertyOp25
 70
     0
102
RTVSPropertyOp26
 70
     0
102
RTVSPropertyOp27
 70
     0
102
RTVSPropertyOp28
 70
     1
102
RTVSPropertyOp29
 70
     1
102
RTVSPropertyOp30
 70
     1
102
RTVSPropertyOp31
 70
     1
102
RTVSPropertyOp32
 70
     1
  0
XRECORD
  5
2EC
102
{ACAD_REACTORS
330
2EB
102
}
330
2EB
100
AcDbXrecord
280
     1
102
RTVSPropertyOp0
 70
     1
102
RTVSPropertyOp1
 70
     1
102
RTVSPropertyOp2
 70
     1
102
RTVSPropertyOp3
 70
     1
102
RTVSPropertyOp4
 70
     1
102
RTVSPropertyOp5
 70
     1
102
RTVSPropertyOp6
 70
     1
102
RTVSPropertyOp7
 70
     1
102
RTVSPropertyOp8
 70
     1
102
RTVSPropertyOp9
 70
     1
102
RTVSPropertyOp10
 70
     1
102
RTVSPropertyOp11
 70
     1
102
RTVSPropertyOp12
 70
     1
102
RTVSPropertyOp13
 70
     1
102
RTVSPropertyOp14
 70
     1
102
RTVSPropertyOp15
 70
     1
102
RTVSPropertyOp16
 70
     1
102
RTVSPropertyOp17
 70
     1
102
RTVSPropertyOp18
 70
     1
102
RTVSPropertyOp19
 70
     1
102
RTVSPropertyOp20
 70
     1
102
RTVSPropertyOp21
 70
     1
102
RTVSPropertyOp22
 70
     1
102
RTVSPropertyOp23
 70
     1
102
RTVSPropertyOp24
 70
     1
102
RTVSPropertyOp25
 70
     1
102
RTVSPropertyOp26
 70
     1
102
RTVSPropertyOp27
 70
     1
102
RTVSPropertyOp28
 70
     1
102
RTVSPropertyOp29
 70
     1
102
RTVSPropertyOp30
 70
     1
102
RTVSPropertyOp31
 70
     1
102
RTVSPropertyOp32
 70
     1
  0
XRECORD
  5
2D0
102
{ACAD_REACTORS
330
2CF
102
}
330
2CF
100
AcDbXrecord
280
     1
102
RTVSPropertyOp0
 70
     1
102
RTVSPropertyOp1
 70
     1
102
RTVSPropertyOp2
 70
     1
102
RTVSPropertyOp3
 70
     1
102
RTVSPropertyOp4
 70
     1
102
RTVSPropertyOp5
 70
     1
102
RTVSPropertyOp6
 70
     1
102
RTVSPropertyOp7
 70
     1
102
RTVSPropertyOp8
 70
     1
102
RTVSPropertyOp9
 70
     1
102
RTVSPropertyOp10
 70
     1
102
RTVSPropertyOp11
 70
     1
102
RTVSPropertyOp12
 70
     1
102
RTVSPropertyOp13
 70
     1
102
RTVSPropertyOp14
 70
     1
102
RTVSPropertyOp15
 70
     1
102
RTVSPropertyOp16
 70
     1
102
RTVSPropertyOp17
 70
     1
102
RTVSPropertyOp18
 70
     1
102
RTVSPropertyOp19
 70
     1
102
RTVSPropertyOp20
 70
     1
102
RTVSPropertyOp21
 70
     1
102
RTVSPropertyOp22
 70
     1
102
RTVSPropertyOp23
 70
     1
102
RTVSPropertyOp24
 70
     1
102
RTVSPropertyOp25
 70
     1
102
RTVSPropertyOp26
 70
     1
102
RTVSPropertyOp27
 70
     1
102
RTVSPropertyOp28
 70
     1
102
RTVSPropertyOp29
 70
     1
102
RTVSPropertyOp30
 70
     1
102
RTVSPropertyOp31
 70
     1
102
RTVSPropertyOp32
 70
     1
  0
XRECORD
  5
2D2
102
{ACAD_REACTORS
330
2D1
102
}
330
2D1
100
AcDbXrecord
280
     1
102
RTVSPropertyOp0
 70
     1
102
RTVSPropertyOp1
 70
     1
102
RTVSPropertyOp2
 70
     1
102
RTVSPropertyOp3
 70
     1
102
RTVSPropertyOp4
 70
     1
102
RTVSPropertyOp5
 70
     1
102
RTVSPropertyOp6
 70
     1
102
RTVSPropertyOp7
 70
     1
102
RTVSPropertyOp8
 70
     1
102
RTVSPropertyOp9
 70
     1
102
RTVSPropertyOp10
 70
     1
102
RTVSPropertyOp11
 70
     1
102
RTVSPropertyOp12
 70
     1
102
RTVSPropertyOp13
 70
     1
102
RTVSPropertyOp14
 70
     1
102
RTVSPropertyOp15
 70
     1
102
RTVSPropertyOp16
 70
     1
102
RTVSPropertyOp17
 70
     1
102
RTVSPropertyOp18
 70
     1
102
RTVSPropertyOp19
 70
     1
102
RTVSPropertyOp20
 70
     1
102
RTVSPropertyOp21
 70
     1
102
RTVSPropertyOp22
 70
     1
102
RTVSPropertyOp23
 70
     1
102
RTVSPropertyOp24
 70
     1
102
RTVSPropertyOp25
 70
     1
102
RTVSPropertyOp26
 70
     1
102
RTVSPropertyOp27
 70
     1
102
RTVSPropertyOp28
 70
     1
102
RTVSPropertyOp29
 70
     1
102
RTVSPropertyOp30
 70
     1
102
RTVSPropertyOp31
 70
     1
102
RTVSPropertyOp32
 70
     1
  0
XRECORD
  5
2D4
102
{ACAD_REACTORS
330
2D3
102
}
330
2D3
100
AcDbXrecord
280
     1
102
RTVSPropertyOp0
 70
     1
102
RTVSPropertyOp1
 70
     1
102
RTVSPropertyOp2
 70
     1
102
RTVSPropertyOp3
 70
     1
102
RTVSPropertyOp4
 70
     1
102
RTVSPropertyOp5
 70
     1
102
RTVSPropertyOp6
 70
     1
102
RTVSPropertyOp7
 70
     1
102
RTVSPropertyOp8
 70
     1
102
RTVSPropertyOp9
 70
     1
102
RTVSPropertyOp10
 70
     1
102
RTVSPropertyOp11
 70
     1
102
RTVSPropertyOp12
 70
     1
102
RTVSPropertyOp13
 70
     1
102
RTVSPropertyOp14
 70
     1
102
RTVSPropertyOp15
 70
     1
102
RTVSPropertyOp16
 70
     1
102
RTVSPropertyOp17
 70
     1
102
RTVSPropertyOp18
 70
     1
102
RTVSPropertyOp19
 70
     1
102
RTVSPropertyOp20
 70
     1
102
RTVSPropertyOp21
 70
     1
102
RTVSPropertyOp22
 70
     1
102
RTVSPropertyOp23
 70
     1
102
RTVSPropertyOp24
 70
     1
102
RTVSPropertyOp25
 70
     1
102
RTVSPropertyOp26
 70
     1
102
RTVSPropertyOp27
 70
     1
102
RTVSPropertyOp28
 70
     1
102
RTVSPropertyOp29
 70
     1
102
RTVSPropertyOp30
 70
     1
102
RTVSPropertyOp31
 70
     1
102
RTVSPropertyOp32
 70
     1
  0
XRECORD
  5
2D6
102
{ACAD_REACTORS
330
2D5
102
}
330
2D5
100
AcDbXrecord
280
     1
102
RTVSPropertyOp0
 70
     1
102
RTVSPropertyOp1
 70
     1
102
RTVSPropertyOp2
 70
     1
102
RTVSPropertyOp3
 70
     1
102
RTVSPropertyOp4
 70
     1
102
RTVSPropertyOp5
 70
     1
102
RTVSPropertyOp6
 70
     1
102
RTVSPropertyOp7
 70
     1
102
RTVSPropertyOp8
 70
     1
102
RTVSPropertyOp9
 70
     1
102
RTVSPropertyOp10
 70
     1
102
RTVSPropertyOp11
 70
     1
102
RTVSPropertyOp12
 70
     1
102
RTVSPropertyOp13
 70
     1
102
RTVSPropertyOp14
 70
     1
102
RTVSPropertyOp15
 70
     1
102
RTVSPropertyOp16
 70
     1
102
RTVSPropertyOp17
 70
     1
102
RTVSPropertyOp18
 70
     1
102
RTVSPropertyOp19
 70
     1
102
RTVSPropertyOp20
 70
     1
102
RTVSPropertyOp21
 70
     1
102
RTVSPropertyOp22
 70
     1
102
RTVSPropertyOp23
 70
     1
102
RTVSPropertyOp24
 70
     1
102
RTVSPropertyOp25
 70
     1
102
RTVSPropertyOp26
 70
     1
102
RTVSPropertyOp27
 70
     1
102
RTVSPropertyOp28
 70
     1
102
RTVSPropertyOp29
 70
     1
102
RTVSPropertyOp30
 70
     1
102
RTVSPropertyOp31
 70
     1
102
RTVSPropertyOp32
 70
     1
  0
XRECORD
  5
305
102
{ACAD_REACTORS
330
304
102
}
330
304
100
AcDbXrecord
280
     1
102
RTVSPropertyOp0
 70
     1
102
RTVSPropertyOp1
 70
     1
102
RTVSPropertyOp2
 70
     1
102
RTVSPropertyOp3
 70
     1
102
RTVSPropertyOp4
 70
     1
102
RTVSPropertyOp5
 70
     1
102
RTVSPropertyOp6
 70
     1
102
RTVSPropertyOp7
 70
     1
102
RTVSPropertyOp8
 70
     1
102
RTVSPropertyOp9
 70
     1
102
RTVSPropertyOp10
 70
     1
102
RTVSPropertyOp11
 70
     1
102
RTVSPropertyOp12
 70
     1
102
RTVSPropertyOp13
 70
     1
102
RTVSPropertyOp14
 70
     1
102
RTVSPropertyOp15
 70
     1
102
RTVSPropertyOp16
 70
     1
102
RTVSPropertyOp17
 70
     1
102
RTVSPropertyOp18
 70
     1
102
RTVSPropertyOp19
 70
     1
102
RTVSPropertyOp20
 70
     1
102
RTVSPropertyOp21
 70
     1
102
RTVSPropertyOp22
 70
     1
102
RTVSPropertyOp23
 70
     1
102
RTVSPropertyOp24
 70
     1
102
RTVSPropertyOp25
 70
     1
102
RTVSPropertyOp26
 70
     1
102
RTVSPropertyOp27
 70
     1
102
RTVSPropertyOp28
 70
     1
102
RTVSPropertyOp29
 70
     1
102
RTVSPropertyOp30
 70
     1
102
RTVSPropertyOp31
 70
     1
102
RTVSPropertyOp32
 70
     1
  0
XRECORD
  5
2F0
102
{ACAD_REACTORS
330
2EF
102
}
330
2EF
100
AcDbXrecord
280
     1
102
RTVSPropertyOp0
 70
     0
102
RTVSPropertyOp1
 70
     0
102
RTVSPropertyOp2
 70
     0
102
RTVSPropertyOp3
 70
     0
102
RTVSPropertyOp4
 70
     0
102
RTVSPropertyOp5
 70
     0
102
RTVSPropertyOp6
 70
     0
102
RTVSPropertyOp7
 70
     0
102
RTVSPropertyOp8
 70
     0
102
RTVSPropertyOp9
 70
     0
102
RTVSPropertyOp10
 70
     0
102
RTVSPropertyOp11
 70
     0
102
RTVSPropertyOp12
 70
     0
102
RTVSPropertyOp13
 70
     0
102
RTVSPropertyOp14
 70
     2
102
RTVSPropertyOp15
 70
     0
102
RTVSPropertyOp16
 70
     0
102
RTVSPropertyOp17
 70
     0
102
RTVSPropertyOp18
 70
     0
102
RTVSPropertyOp19
 70
     0
102
RTVSPropertyOp20
 70
     0
102
RTVSPropertyOp21
 70
     0
102
RTVSPropertyOp22
 70
     0
102
RTVSPropertyOp23
 70
     0
102
RTVSPropertyOp24
 70
     0
102
RTVSPropertyOp25
 70
     0
102
RTVSPropertyOp26
 70
     0
102
RTVSPropertyOp27
 70
     0
102
RTVSPropertyOp28
 70
     1
102
RTVSPropertyOp29
 70
     1
102
RTVSPropertyOp30
 70
     1
102
RTVSPropertyOp31
 70
     1
102
RTVSPropertyOp32
 70
     1
  0
XRECORD
  5
2EA
102
{ACAD_REACTORS
330
2E9
102
}
330
2E9
100
AcDbXrecord
280
     1
102
RTVSPropertyOp0
 70
     1
102
RTVSPropertyOp1
 70
     1
102
RTVSPropertyOp2
 70
     1
102
RTVSPropertyOp3
 70
     1
102
RTVSPropertyOp4
 70
     1
102
RTVSPropertyOp5
 70
     1
102
RTVSPropertyOp6
 70
     1
102
RTVSPropertyOp7
 70
     1
102
RTVSPropertyOp8
 70
     1
102
RTVSPropertyOp9
 70
     1
102
RTVSPropertyOp10
 70
     1
102
RTVSPropertyOp11
 70
     1
102
RTVSPropertyOp12
 70
     1
102
RTVSPropertyOp13
 70
     1
102
RTVSPropertyOp14
 70
     1
102
RTVSPropertyOp15
 70
     1
102
RTVSPropertyOp16
 70
     1
102
RTVSPropertyOp17
 70
     1
102
RTVSPropertyOp18
 70
     1
102
RTVSPropertyOp19
 70
     1
102
RTVSPropertyOp20
 70
     1
102
RTVSPropertyOp21
 70
     1
102
RTVSPropertyOp22
 70
     1
102
RTVSPropertyOp23
 70
     1
102
RTVSPropertyOp24
 70
     1
102
RTVSPropertyOp25
 70
     1
102
RTVSPropertyOp26
 70
     1
102
RTVSPropertyOp27
 70
     1
102
RTVSPropertyOp28
 70
     1
102
RTVSPropertyOp29
 70
     1
102
RTVSPropertyOp30
 70
     1
102
RTVSPropertyOp31
 70
     1
102
RTVSPropertyOp32
 70
     1
  0
XRECORD
  5
2F2
102
{ACAD_REACTORS
330
2F1
102
}
330
2F1
100
AcDbXrecord
280
     1
102
RTVSPropertyOp0
 70
     0
102
RTVSPropertyOp1
 70
     0
102
RTVSPropertyOp2
 70
     0
102
RTVSPropertyOp3
 70
     0
102
RTVSPropertyOp4
 70
     0
102
RTVSPropertyOp5
 70
     0
102
RTVSPropertyOp6
 70
     0
102
RTVSPropertyOp7
 70
     0
102
RTVSPropertyOp8
 70
     0
102
RTVSPropertyOp9
 70
     0
102
RTVSPropertyOp10
 70
     0
102
RTVSPropertyOp11
 70
     0
102
RTVSPropertyOp12
 70
     0
102
RTVSPropertyOp13
 70
     0
102
RTVSPropertyOp14
 70
     2
102
RTVSPropertyOp15
 70
     0
102
RTVSPropertyOp16
 70
     0
102
RTVSPropertyOp17
 70
     0
102
RTVSPropertyOp18
 70
     0
102
RTVSPropertyOp19
 70
     0
102
RTVSPropertyOp20
 70
     0
102
RTVSPropertyOp21
 70
     0
102
RTVSPropertyOp22
 70
     0
102
RTVSPropertyOp23
 70
     0
102
RTVSPropertyOp24
 70
     0
102
RTVSPropertyOp25
 70
     0
102
RTVSPropertyOp26
 70
     0
102
RTVSPropertyOp27
 70
     0
102
RTVSPropertyOp28
 70
     1
102
RTVSPropertyOp29
 70
     1
102
RTVSPropertyOp30
 70
     1
102
RTVSPropertyOp31
 70
     1
102
RTVSPropertyOp32
 70
     1
  0
XRECORD
  5
2E2
102
{ACAD_REACTORS
330
2E1
102
}
330
2E1
100
AcDbXrecord
280
     1
102
RTVSPropertyOp0
 70
     1
102
RTVSPropertyOp1
 70
     1
102
RTVSPropertyOp2
 70
     1
102
RTVSPropertyOp3
 70
     1
102
RTVSPropertyOp4
 70
     1
102
RTVSPropertyOp5
 70
     1
102
RTVSPropertyOp6
 70
     1
102
RTVSPropertyOp7
 70
     1
102
RTVSPropertyOp8
 70
     1
102
RTVSPropertyOp9
 70
     1
102
RTVSPropertyOp10
 70
     1
102
RTVSPropertyOp11
 70
     1
102
RTVSPropertyOp12
 70
     1
102
RTVSPropertyOp13
 70
     1
102
RTVSPropertyOp14
 70
     1
102
RTVSPropertyOp15
 70
     1
102
RTVSPropertyOp16
 70
     1
102
RTVSPropertyOp17
 70
     1
102
RTVSPropertyOp18
 70
     1
102
RTVSPropertyOp19
 70
     1
102
RTVSPropertyOp20
 70
     1
102
RTVSPropertyOp21
 70
     1
102
RTVSPropertyOp22
 70
     1
102
RTVSPropertyOp23
 70
     1
102
RTVSPropertyOp24
 70
     1
102
RTVSPropertyOp25
 70
     1
102
RTVSPropertyOp26
 70
     1
102
RTVSPropertyOp27
 70
     1
102
RTVSPropertyOp28
 70
     1
102
RTVSPropertyOp29
 70
     1
102
RTVSPropertyOp30
 70
     1
102
RTVSPropertyOp31
 70
     1
102
RTVSPropertyOp32
 70
     1
  0
XRECORD
  5
30F
102
{ACAD_REACTORS
330
30E
102
}
330
30E
100
AcDbXrecord
280
     1
102
RTVSPropertyOp0
 70
     1
102
RTVSPropertyOp1
 70
     1
102
RTVSPropertyOp2
 70
     1
102
RTVSPropertyOp3
 70
     1
102
RTVSPropertyOp4
 70
     1
102
RTVSPropertyOp5
 70
     1
102
RTVSPropertyOp6
 70
     1
102
RTVSPropertyOp7
 70
     1
102
RTVSPropertyOp8
 70
     1
102
RTVSPropertyOp9
 70
     1
102
RTVSPropertyOp10
 70
     1
102
RTVSPropertyOp11
 70
     1
102
RTVSPropertyOp12
 70
     1
102
RTVSPropertyOp13
 70
     1
102
RTVSPropertyOp14
 70
     1
102
RTVSPropertyOp15
 70
     1
102
RTVSPropertyOp16
 70
     1
102
RTVSPropertyOp17
 70
     1
102
RTVSPropertyOp18
 70
     1
102
RTVSPropertyOp19
 70
     1
102
RTVSPropertyOp20
 70
     1
102
RTVSPropertyOp21
 70
     1
102
RTVSPropertyOp22
 70
     1
102
RTVSPropertyOp23
 70
     1
102
RTVSPropertyOp24
 70
     1
102
RTVSPropertyOp25
 70
     1
102
RTVSPropertyOp26
 70
     1
102
RTVSPropertyOp27
 70
     1
102
RTVSPropertyOp28
 70
     1
102
RTVSPropertyOp29
 70
     1
102
RTVSPropertyOp30
 70
     1
102
RTVSPropertyOp31
 70
     1
102
RTVSPropertyOp32
 70
     1
  0
XRECORD
  5
30D
102
{ACAD_REACTORS
330
30C
102
}
330
30C
100
AcDbXrecord
280
     1
102
RTVSPropertyOp0
 70
     1
102
RTVSPropertyOp1
 70
     1
102
RTVSPropertyOp2
 70
     1
102
RTVSPropertyOp3
 70
     1
102
RTVSPropertyOp4
 70
     1
102
RTVSPropertyOp5
 70
     1
102
RTVSPropertyOp6
 70
     1
102
RTVSPropertyOp7
 70
     1
102
RTVSPropertyOp8
 70
     1
102
RTVSPropertyOp9
 70
     1
102
RTVSPropertyOp10
 70
     1
102
RTVSPropertyOp11
 70
     1
102
RTVSPropertyOp12
 70
     1
102
RTVSPropertyOp13
 70
     1
102
RTVSPropertyOp14
 70
     1
102
RTVSPropertyOp15
 70
     1
102
RTVSPropertyOp16
 70
     1
102
RTVSPropertyOp17
 70
     1
102
RTVSPropertyOp18
 70
     1
102
RTVSPropertyOp19
 70
     1
102
RTVSPropertyOp20
 70
     1
102
RTVSPropertyOp21
 70
     1
102
RTVSPropertyOp22
 70
     1
102
RTVSPropertyOp23
 70
     1
102
RTVSPropertyOp24
 70
     1
102
RTVSPropertyOp25
 70
     1
102
RTVSPropertyOp26
 70
     1
102
RTVSPropertyOp27
 70
     1
102
RTVSPropertyOp28
 70
     1
102
RTVSPropertyOp29
 70
     1
102
RTVSPropertyOp30
 70
     1
102
RTVSPropertyOp31
 70
     1
102
RTVSPropertyOp32
 70
     1
  0
XRECORD
  5
307
102
{ACAD_REACTORS
330
306
102
}
330
306
100
AcDbXrecord
280
     1
102
RTVSPropertyOp0
 70
     1
102
RTVSPropertyOp1
 70
     1
102
RTVSPropertyOp2
 70
     1
102
RTVSPropertyOp3
 70
     1
102
RTVSPropertyOp4
 70
     1
102
RTVSPropertyOp5
 70
     1
102
RTVSPropertyOp6
 70
     1
102
RTVSPropertyOp7
 70
     1
102
RTVSPropertyOp8
 70
     1
102
RTVSPropertyOp9
 70
     1
102
RTVSPropertyOp10
 70
     1
102
RTVSPropertyOp11
 70
     1
102
RTVSPropertyOp12
 70
     1
102
RTVSPropertyOp13
 70
     1
102
RTVSPropertyOp14
 70
     1
102
RTVSPropertyOp15
 70
     1
102
RTVSPropertyOp16
 70
     1
102
RTVSPropertyOp17
 70
     1
102
RTVSPropertyOp18
 70
     1
102
RTVSPropertyOp19
 70
     1
102
RTVSPropertyOp20
 70
     1
102
RTVSPropertyOp21
 70
     1
102
RTVSPropertyOp22
 70
     1
102
RTVSPropertyOp23
 70
     1
102
RTVSPropertyOp24
 70
     1
102
RTVSPropertyOp25
 70
     1
102
RTVSPropertyOp26
 70
     1
102
RTVSPropertyOp27
 70
     1
102
RTVSPropertyOp28
 70
     1
102
RTVSPropertyOp29
 70
     1
102
RTVSPropertyOp30
 70
     1
102
RTVSPropertyOp31
 70
     1
102
RTVSPropertyOp32
 70
     1
  0
XRECORD
  5
309
102
{ACAD_REACTORS
330
308
102
}
330
308
100
AcDbXrecord
280
     1
102
RTVSPropertyOp0
 70
     1
102
RTVSPropertyOp1
 70
     1
102
RTVSPropertyOp2
 70
     1
102
RTVSPropertyOp3
 70
     1
102
RTVSPropertyOp4
 70
     1
102
RTVSPropertyOp5
 70
     1
102
RTVSPropertyOp6
 70
     1
102
RTVSPropertyOp7
 70
     1
102
RTVSPropertyOp8
 70
     1
102
RTVSPropertyOp9
 70
     1
102
RTVSPropertyOp10
 70
     1
102
RTVSPropertyOp11
 70
     1
102
RTVSPropertyOp12
 70
     1
102
RTVSPropertyOp13
 70
     1
102
RTVSPropertyOp14
 70
     1
102
RTVSPropertyOp15
 70
     1
102
RTVSPropertyOp16
 70
     1
102
RTVSPropertyOp17
 70
     1
102
RTVSPropertyOp18
 70
     1
102
RTVSPropertyOp19
 70
     1
102
RTVSPropertyOp20
 70
     1
102
RTVSPropertyOp21
 70
     1
102
RTVSPropertyOp22
 70
     1
102
RTVSPropertyOp23
 70
     1
102
RTVSPropertyOp24
 70
     1
102
RTVSPropertyOp25
 70
     1
102
RTVSPropertyOp26
 70
     1
102
RTVSPropertyOp27
 70
     1
102
RTVSPropertyOp28
 70
     1
102
RTVSPropertyOp29
 70
     1
102
RTVSPropertyOp30
 70
     1
102
RTVSPropertyOp31
 70
     1
102
RTVSPropertyOp32
 70
     1
  0
XRECORD
  5
2E8
102
{ACAD_REACTORS
330
2E7
102
}
330
2E7
100
AcDbXrecord
280
     1
102
RTVSPropertyOp0
 70
     1
102
RTVSPropertyOp1
 70
     1
102
RTVSPropertyOp2
 70
     1
102
RTVSPropertyOp3
 70
     1
102
RTVSPropertyOp4
 70
     1
102
RTVSPropertyOp5
 70
     1
102
RTVSPropertyOp6
 70
     1
102
RTVSPropertyOp7
 70
     1
102
RTVSPropertyOp8
 70
     1
102
RTVSPropertyOp9
 70
     1
102
RTVSPropertyOp10
 70
     1
102
RTVSPropertyOp11
 70
     1
102
RTVSPropertyOp12
 70
     1
102
RTVSPropertyOp13
 70
     1
102
RTVSPropertyOp14
 70
     1
102
RTVSPropertyOp15
 70
     1
102
RTVSPropertyOp16
 70
     1
102
RTVSPropertyOp17
 70
     1
102
RTVSPropertyOp18
 70
     1
102
RTVSPropertyOp19
 70
     1
102
RTVSPropertyOp20
 70
     1
102
RTVSPropertyOp21
 70
     1
102
RTVSPropertyOp22
 70
     1
102
RTVSPropertyOp23
 70
     1
102
RTVSPropertyOp24
 70
     1
102
RTVSPropertyOp25
 70
     1
102
RTVSPropertyOp26
 70
     1
102
RTVSPropertyOp27
 70
     1
102
RTVSPropertyOp28
 70
     1
102
RTVSPropertyOp29
 70
     1
102
RTVSPropertyOp30
 70
     1
102
RTVSPropertyOp31
 70
     1
102
RTVSPropertyOp32
 70
     1
  0
XRECORD
  5
303
102
{ACAD_REACTORS
330
302
102
}
330
302
100
AcDbXrecord
280
     1
102
RTVSPropertyOp0
 70
     1
102
RTVSPropertyOp1
 70
     1
102
RTVSPropertyOp2
 70
     1
102
RTVSPropertyOp3
 70
     1
102
RTVSPropertyOp4
 70
     1
102
RTVSPropertyOp5
 70
     1
102
RTVSPropertyOp6
 70
     1
102
RTVSPropertyOp7
 70
     1
102
RTVSPropertyOp8
 70
     1
102
RTVSPropertyOp9
 70
     1
102
RTVSPropertyOp10
 70
     1
102
RTVSPropertyOp11
 70
     1
102
RTVSPropertyOp12
 70
     1
102
RTVSPropertyOp13
 70
     1
102
RTVSPropertyOp14
 70
     1
102
RTVSPropertyOp15
 70
     1
102
RTVSPropertyOp16
 70
     1
102
RTVSPropertyOp17
 70
     1
102
RTVSPropertyOp18
 70
     1
102
RTVSPropertyOp19
 70
     1
102
RTVSPropertyOp20
 70
     1
102
RTVSPropertyOp21
 70
     1
102
RTVSPropertyOp22
 70
     1
102
RTVSPropertyOp23
 70
     1
102
RTVSPropertyOp24
 70
     1
102
RTVSPropertyOp25
 70
     1
102
RTVSPropertyOp26
 70
     1
102
RTVSPropertyOp27
 70
     1
102
RTVSPropertyOp28
 70
     1
102
RTVSPropertyOp29
 70
     1
102
RTVSPropertyOp30
 70
     1
102
RTVSPropertyOp31
 70
     1
102
RTVSPropertyOp32
 70
     1
  0
XRECORD
  5
30B
102
{ACAD_REACTORS
330
30A
102
}
330
30A
100
AcDbXrecord
280
     1
102
RTVSPropertyOp0
 70
     1
102
RTVSPropertyOp1
 70
     1
102
RTVSPropertyOp2
 70
     1
102
RTVSPropertyOp3
 70
     1
102
RTVSPropertyOp4
 70
     1
102
RTVSPropertyOp5
 70
     1
102
RTVSPropertyOp6
 70
     1
102
RTVSPropertyOp7
 70
     1
102
RTVSPropertyOp8
 70
     1
102
RTVSPropertyOp9
 70
     1
102
RTVSPropertyOp10
 70
     1
102
RTVSPropertyOp11
 70
     1
102
RTVSPropertyOp12
 70
     1
102
RTVSPropertyOp13
 70
     1
102
RTVSPropertyOp14
 70
     1
102
RTVSPropertyOp15
 70
     1
102
RTVSPropertyOp16
 70
     1
102
RTVSPropertyOp17
 70
     1
102
RTVSPropertyOp18
 70
     1
102
RTVSPropertyOp19
 70
     1
102
RTVSPropertyOp20
 70
     1
102
RTVSPropertyOp21
 70
     1
102
RTVSPropertyOp22
 70
     1
102
RTVSPropertyOp23
 70
     1
102
RTVSPropertyOp24
 70
     1
102
RTVSPropertyOp25
 70
     1
102
RTVSPropertyOp26
 70
     1
102
RTVSPropertyOp27
 70
     1
102
RTVSPropertyOp28
 70
     1
102
RTVSPropertyOp29
 70
     1
102
RTVSPropertyOp30
 70
     1
102
RTVSPropertyOp31
 70
     1
102
RTVSPropertyOp32
 70
     1
  0
ENDSEC
  0
EOF
