ISO-10303-21;
HEADER;
/****************************************************************
 * Generated by software with PDE/Lib inside                    *
 * PDElib Version v4.4, created Mon 02/23/2004                  *
 * International Technegroup Inc. (www.iti-oh.com)              *
 ****************************************************************/
FILE_DESCRIPTION(('STEP AP203'),'2;1');
FILE_NAME('30.001.00.stp','2011-03-21T16:14:58',(''),(''),'2009.3.110','THINKDESIGN','');
FILE_SCHEMA(('CONFIG_CONTROL_DESIGN'));
ENDSEC;
DATA;
#2=CARTESIAN_POINT('',(59.999986679765243,19.0,-1.163414E-015));
#3=DIRECTION('',(1.0,0.0,0.0));
#4=DIRECTION('',(0.0,0.0,1.0));
#5=AXIS2_PLACEMENT_3D('',#2,#3,#4);
#6=PLANE('',#5);
#7=CARTESIAN_POINT('',(59.999986679765243,19.0,-1.163414E-015));
#8=VERTEX_POINT('',#7);
#9=CARTESIAN_POINT('',(59.999986679736139,19.0,1.999983419955241));
#10=VERTEX_POINT('',#9);
#11=CARTESIAN_POINT('',(59.999986679765243,19.0,-1.110223E-015));
#12=DIRECTION('',(0.0,0.0,1.0));
#13=VECTOR('',#12,1.999983419955242);
#14=LINE('',#11,#13);
#15=EDGE_CURVE('',#8,#10,#14,.T.);
#16=ORIENTED_EDGE('',*,*,#15,.T.);
#17=CARTESIAN_POINT('',(59.999986679736139,-19.0,1.999983419955241));
#18=VERTEX_POINT('',#17);
#19=CARTESIAN_POINT('',(59.999986679736139,19.0,1.999983419955241));
#20=DIRECTION('',(0.0,-1.0,0.0));
#21=VECTOR('',#20,38.0);
#22=LINE('',#19,#21);
#23=EDGE_CURVE('',#10,#18,#22,.T.);
#24=ORIENTED_EDGE('',*,*,#23,.T.);
#25=CARTESIAN_POINT('',(59.999986679765243,-19.0,-1.163414E-015));
#26=VERTEX_POINT('',#25);
#27=CARTESIAN_POINT('',(59.999986679765243,-19.0,-1.110223E-015));
#28=DIRECTION('',(0.0,0.0,1.0));
#29=VECTOR('',#28,1.999983419955242);
#30=LINE('',#27,#29);
#31=EDGE_CURVE('',#26,#18,#30,.T.);
#32=ORIENTED_EDGE('',*,*,#31,.F.);
#33=CARTESIAN_POINT('',(59.999986679765243,19.0,-1.163414E-015));
#34=DIRECTION('',(0.0,-1.0,0.0));
#35=VECTOR('',#34,38.0);
#36=LINE('',#33,#35);
#37=EDGE_CURVE('',#8,#26,#36,.T.);
#38=ORIENTED_EDGE('',*,*,#37,.F.);
#39=EDGE_LOOP('',(#16,#24,#32,#38));
#40=FACE_OUTER_BOUND('',#39,.T.);
#41=ADVANCED_FACE('',(#40),#6,.T.);
#42=CARTESIAN_POINT('',(55.999989142174400,19.0,1.999983419983890));
#43=DIRECTION('',(0.0,-1.0,6.123234E-017));
#44=DIRECTION('',(1.0,-4.385574E-028,-7.162210E-012));
#45=AXIS2_PLACEMENT_3D('',#42,#43,#44);
#46=CYLINDRICAL_SURFACE('',#45,3.999997537561740);
#47=CARTESIAN_POINT('',(55.999989142174400,19.0,5.999980957545630));
#48=VERTEX_POINT('',#47);
#49=CARTESIAN_POINT('',(55.999989142174400,19.0,1.999983419983890));
#50=DIRECTION('',(0.0,-1.0,6.123234E-017));
#51=DIRECTION('',(0.0,6.123234E-017,1.0));
#52=AXIS2_PLACEMENT_3D('',#49,#50,#51);
#53=CIRCLE('',#52,3.999997537561740);
#54=EDGE_CURVE('',#10,#48,#53,.T.);
#55=ORIENTED_EDGE('',*,*,#54,.T.);
#56=CARTESIAN_POINT('',(55.999989142174400,-19.0,5.999980957545630));
#57=VERTEX_POINT('',#56);
#58=CARTESIAN_POINT('',(55.999989142174400,19.0,5.999980957545630));
#59=DIRECTION('',(0.0,-1.0,0.0));
#60=VECTOR('',#59,38.0);
#61=LINE('',#58,#60);
#62=EDGE_CURVE('',#48,#57,#61,.T.);
#63=ORIENTED_EDGE('',*,*,#62,.T.);
#64=CARTESIAN_POINT('',(55.999989142174400,-19.0,1.999983419983890));
#65=DIRECTION('',(0.0,-1.0,6.123234E-017));
#66=DIRECTION('',(0.0,6.123234E-017,1.0));
#67=AXIS2_PLACEMENT_3D('',#64,#65,#66);
#68=CIRCLE('',#67,3.999997537561740);
#69=EDGE_CURVE('',#18,#57,#68,.T.);
#70=ORIENTED_EDGE('',*,*,#69,.F.);
#71=ORIENTED_EDGE('',*,*,#23,.F.);
#72=EDGE_LOOP('',(#55,#63,#70,#71));
#73=FACE_OUTER_BOUND('',#72,.T.);
#74=ADVANCED_FACE('',(#73),#46,.T.);
#75=CARTESIAN_POINT('',(55.999989142174400,19.0,5.999980957545630));
#76=DIRECTION('',(0.0,0.0,1.0));
#77=DIRECTION('',(-1.0,0.0,0.0));
#78=AXIS2_PLACEMENT_3D('',#75,#76,#77);
#79=PLANE('',#78);
#80=CARTESIAN_POINT('',(10.986685931129159,19.0,5.999980957545630));
#81=VERTEX_POINT('',#80);
#82=CARTESIAN_POINT('',(55.999989142174400,19.0,5.999980957545630));
#83=DIRECTION('',(-1.0,0.0,0.0));
#84=VECTOR('',#83,45.013303211045240);
#85=LINE('',#82,#84);
#86=EDGE_CURVE('',#48,#81,#85,.T.);
#87=ORIENTED_EDGE('',*,*,#86,.T.);
#88=CARTESIAN_POINT('',(10.986685931129159,-19.0,5.999980957545630));
#89=VERTEX_POINT('',#88);
#90=CARTESIAN_POINT('',(10.986685931129159,19.0,5.999980957545630));
#91=DIRECTION('',(0.0,-1.0,0.0));
#92=VECTOR('',#91,38.0);
#93=LINE('',#90,#92);
#94=EDGE_CURVE('',#81,#89,#93,.T.);
#95=ORIENTED_EDGE('',*,*,#94,.T.);
#96=CARTESIAN_POINT('',(55.999989142174400,-19.0,5.999980957545630));
#97=DIRECTION('',(-1.0,0.0,0.0));
#98=VECTOR('',#97,45.013303211045240);
#99=LINE('',#96,#98);
#100=EDGE_CURVE('',#57,#89,#99,.T.);
#101=ORIENTED_EDGE('',*,*,#100,.F.);
#102=ORIENTED_EDGE('',*,*,#62,.F.);
#103=EDGE_LOOP('',(#87,#95,#101,#102));
#104=FACE_OUTER_BOUND('',#103,.T.);
#105=CARTESIAN_POINT('',(24.249994616408458,-0.000004218075901,5.999980957545952));
#106=VERTEX_POINT('',#105);
#107=CARTESIAN_POINT('',(15.749996503442617,-0.000004218075901,5.999980957546038));
#108=VERTEX_POINT('',#107);
#109=CARTESIAN_POINT('',(19.999995559925537,-0.000004218075901,5.999980957545995));
#110=DIRECTION('',(1.010251E-014,6.123234E-017,1.0));
#111=DIRECTION('',(-1.0,6.186003E-031,1.010251E-014));
#112=AXIS2_PLACEMENT_3D('',#109,#110,#111);
#113=CIRCLE('',#112,4.249999056482920);
#114=EDGE_CURVE('',#106,#108,#113,.T.);
#115=ORIENTED_EDGE('',*,*,#114,.F.);
#116=CARTESIAN_POINT('',(19.999995559925537,-0.000004218075901,5.999980957545995));
#117=DIRECTION('',(1.010251E-014,6.123234E-017,1.0));
#118=DIRECTION('',(-1.0,6.186003E-031,1.010251E-014));
#119=AXIS2_PLACEMENT_3D('',#116,#117,#118);
#120=CIRCLE('',#119,4.249999056482920);
#121=EDGE_CURVE('',#108,#106,#120,.T.);
#122=ORIENTED_EDGE('',*,*,#121,.F.);
#123=EDGE_LOOP('',(#115,#122));
#124=FACE_BOUND('',#123,.T.);
#125=CARTESIAN_POINT('',(49.249989066308444,-0.000004218075901,5.999980957545700));
#126=VERTEX_POINT('',#125);
#127=CARTESIAN_POINT('',(40.749990953342603,-0.000004218075901,5.999980957545785));
#128=VERTEX_POINT('',#127);
#129=CARTESIAN_POINT('',(44.999990009825524,-0.000004218075901,5.999980957545742));
#130=DIRECTION('',(1.010251E-014,6.123234E-017,1.0));
#131=DIRECTION('',(-1.0,6.186003E-031,1.010251E-014));
#132=AXIS2_PLACEMENT_3D('',#129,#130,#131);
#133=CIRCLE('',#132,4.249999056482920);
#134=EDGE_CURVE('',#126,#128,#133,.T.);
#135=ORIENTED_EDGE('',*,*,#134,.F.);
#136=CARTESIAN_POINT('',(44.999990009825524,-0.000004218075901,5.999980957545742));
#137=DIRECTION('',(1.010251E-014,6.123234E-017,1.0));
#138=DIRECTION('',(-1.0,6.186003E-031,1.010251E-014));
#139=AXIS2_PLACEMENT_3D('',#136,#137,#138);
#140=CIRCLE('',#139,4.249999056482920);
#141=EDGE_CURVE('',#128,#126,#140,.T.);
#142=ORIENTED_EDGE('',*,*,#141,.F.);
#143=EDGE_LOOP('',(#135,#142));
#144=FACE_BOUND('',#143,.T.);
#145=ADVANCED_FACE('',(#104,#124,#144),#79,.T.);
#146=CARTESIAN_POINT('',(10.986685931129159,19.0,11.003765686464702));
#147=DIRECTION('',(0.0,1.0,-6.123234E-017));
#148=DIRECTION('',(-6.123234E-017,-6.123234E-017,-1.0));
#149=AXIS2_PLACEMENT_3D('',#146,#147,#148);
#150=CYLINDRICAL_SURFACE('',#149,5.003784728919072);
#151=CARTESIAN_POINT('',(5.982901202210087,19.0,11.003765686464702));
#152=VERTEX_POINT('',#151);
#153=CARTESIAN_POINT('',(10.986685931129159,19.0,11.003765686464702));
#154=DIRECTION('',(0.0,1.0,-6.123234E-017));
#155=DIRECTION('',(-1.0,0.0,0.0));
#156=AXIS2_PLACEMENT_3D('',#153,#154,#155);
#157=CIRCLE('',#156,5.003784728919072);
#158=EDGE_CURVE('',#81,#152,#157,.T.);
#159=ORIENTED_EDGE('',*,*,#158,.T.);
#160=CARTESIAN_POINT('',(5.982901202210087,-19.0,11.003765686464702));
#161=VERTEX_POINT('',#160);
#162=CARTESIAN_POINT('',(5.982901202210087,19.0,11.003765686464702));
#163=DIRECTION('',(0.0,-1.0,0.0));
#164=VECTOR('',#163,38.0);
#165=LINE('',#162,#164);
#166=EDGE_CURVE('',#152,#161,#165,.T.);
#167=ORIENTED_EDGE('',*,*,#166,.T.);
#168=CARTESIAN_POINT('',(10.986685931129159,-19.0,11.003765686464702));
#169=DIRECTION('',(0.0,1.0,-6.123234E-017));
#170=DIRECTION('',(-1.0,0.0,0.0));
#171=AXIS2_PLACEMENT_3D('',#168,#169,#170);
#172=CIRCLE('',#171,5.003784728919072);
#173=EDGE_CURVE('',#89,#161,#172,.T.);
#174=ORIENTED_EDGE('',*,*,#173,.F.);
#175=ORIENTED_EDGE('',*,*,#94,.F.);
#176=EDGE_LOOP('',(#159,#167,#174,#175));
#177=FACE_OUTER_BOUND('',#176,.T.);
#178=ADVANCED_FACE('',(#177),#150,.F.);
#179=CARTESIAN_POINT('',(5.982901202210087,19.0,11.003765686464702));
#180=DIRECTION('',(1.0,0.0,0.0));
#181=DIRECTION('',(0.0,0.0,1.0));
#182=AXIS2_PLACEMENT_3D('',#179,#180,#181);
#183=PLANE('',#182);
#184=CARTESIAN_POINT('',(5.982901202210087,19.0,56.369440911028505));
#185=VERTEX_POINT('',#184);
#186=CARTESIAN_POINT('',(5.982901202210087,18.999999999999996,11.003765686464703));
#187=DIRECTION('',(0.0,0.0,1.0));
#188=VECTOR('',#187,45.365675224563802);
#189=LINE('',#186,#188);
#190=EDGE_CURVE('',#152,#185,#189,.T.);
#191=ORIENTED_EDGE('',*,*,#190,.T.);
#192=CARTESIAN_POINT('',(5.982901202210087,-19.0,56.369440911028505));
#193=VERTEX_POINT('',#192);
#194=CARTESIAN_POINT('',(5.982901202210087,19.0,56.369440911028505));
#195=DIRECTION('',(0.0,-1.0,0.0));
#196=VECTOR('',#195,38.0);
#197=LINE('',#194,#196);
#198=EDGE_CURVE('',#185,#193,#197,.T.);
#199=ORIENTED_EDGE('',*,*,#198,.T.);
#200=CARTESIAN_POINT('',(5.982901202210087,-19.000000000000004,11.003765686464703));
#201=DIRECTION('',(0.0,0.0,1.0));
#202=VECTOR('',#201,45.365675224563802);
#203=LINE('',#200,#202);
#204=EDGE_CURVE('',#161,#193,#203,.T.);
#205=ORIENTED_EDGE('',*,*,#204,.F.);
#206=ORIENTED_EDGE('',*,*,#166,.F.);
#207=EDGE_LOOP('',(#191,#199,#205,#206));
#208=FACE_OUTER_BOUND('',#207,.T.);
#209=CARTESIAN_POINT('',(5.982901202210087,-0.000004218076356,40.749990948337199));
#210=VERTEX_POINT('',#209);
#211=CARTESIAN_POINT('',(5.982901202210087,-0.000004218076355,49.249989061303040));
#212=VERTEX_POINT('',#211);
#213=CARTESIAN_POINT('',(5.982901202210087,-0.000004218076356,44.999990004820120));
#214=DIRECTION('',(-1.0,0.0,0.0));
#215=DIRECTION('',(0.0,-6.123234E-017,-1.0));
#216=AXIS2_PLACEMENT_3D('',#213,#214,#215);
#217=CIRCLE('',#216,4.249999056482920);
#218=EDGE_CURVE('',#210,#212,#217,.T.);
#219=ORIENTED_EDGE('',*,*,#218,.T.);
#220=CARTESIAN_POINT('',(5.982901202210087,-0.000004218076356,44.999990004820120));
#221=DIRECTION('',(-1.0,0.0,0.0));
#222=DIRECTION('',(0.0,-6.123234E-017,-1.0));
#223=AXIS2_PLACEMENT_3D('',#220,#221,#222);
#224=CIRCLE('',#223,4.249999056482920);
#225=EDGE_CURVE('',#212,#210,#224,.T.);
#226=ORIENTED_EDGE('',*,*,#225,.T.);
#227=EDGE_LOOP('',(#219,#226));
#228=FACE_BOUND('',#227,.T.);
#229=CARTESIAN_POINT('',(5.982901202210087,-0.000004218076356,15.749996503437087));
#230=VERTEX_POINT('',#229);
#231=CARTESIAN_POINT('',(5.982901202210087,-0.000004218076355,24.249994616402930));
#232=VERTEX_POINT('',#231);
#233=CARTESIAN_POINT('',(5.982901202210087,-0.000004218076356,19.999995559920009));
#234=DIRECTION('',(-1.0,0.0,0.0));
#235=DIRECTION('',(0.0,-6.123234E-017,-1.0));
#236=AXIS2_PLACEMENT_3D('',#233,#234,#235);
#237=CIRCLE('',#236,4.249999056482920);
#238=EDGE_CURVE('',#230,#232,#237,.T.);
#239=ORIENTED_EDGE('',*,*,#238,.T.);
#240=CARTESIAN_POINT('',(5.982901202210087,-0.000004218076356,19.999995559920009));
#241=DIRECTION('',(-1.0,0.0,0.0));
#242=DIRECTION('',(0.0,-6.123234E-017,-1.0));
#243=AXIS2_PLACEMENT_3D('',#240,#241,#242);
#244=CIRCLE('',#243,4.249999056482920);
#245=EDGE_CURVE('',#232,#230,#244,.T.);
#246=ORIENTED_EDGE('',*,*,#245,.T.);
#247=EDGE_LOOP('',(#239,#246));
#248=FACE_BOUND('',#247,.T.);
#249=ADVANCED_FACE('',(#208,#228,#248),#183,.T.);
#250=CARTESIAN_POINT('',(1.999999555991963,19.0,55.999986399850059));
#251=DIRECTION('',(0.0,-1.0,6.123234E-017));
#252=DIRECTION('',(1.0,0.0,0.0));
#253=AXIS2_PLACEMENT_3D('',#250,#251,#252);
#254=CYLINDRICAL_SURFACE('',#253,4.000000269909736);
#255=CARTESIAN_POINT('',(1.999999555991963,19.0,59.999986669759892));
#256=VERTEX_POINT('',#255);
#257=CARTESIAN_POINT('',(1.999999555991963,19.0,55.999986399850059));
#258=DIRECTION('',(0.0,-1.0,6.123234E-017));
#259=DIRECTION('',(1.0,0.0,0.0));
#260=AXIS2_PLACEMENT_3D('',#257,#258,#259);
#261=CIRCLE('',#260,4.000000269909736);
#262=EDGE_CURVE('',#185,#256,#261,.T.);
#263=ORIENTED_EDGE('',*,*,#262,.T.);
#264=CARTESIAN_POINT('',(1.999999555991963,-19.0,59.999986669759892));
#265=VERTEX_POINT('',#264);
#266=CARTESIAN_POINT('',(1.999999555991963,19.0,59.999986669759892));
#267=DIRECTION('',(0.0,-1.0,0.0));
#268=VECTOR('',#267,38.0);
#269=LINE('',#266,#268);
#270=EDGE_CURVE('',#256,#265,#269,.T.);
#271=ORIENTED_EDGE('',*,*,#270,.T.);
#272=CARTESIAN_POINT('',(1.999999555991963,-19.0,55.999986399850059));
#273=DIRECTION('',(0.0,-1.0,6.123234E-017));
#274=DIRECTION('',(1.0,0.0,0.0));
#275=AXIS2_PLACEMENT_3D('',#272,#273,#274);
#276=CIRCLE('',#275,4.000000269909736);
#277=EDGE_CURVE('',#193,#265,#276,.T.);
#278=ORIENTED_EDGE('',*,*,#277,.F.);
#279=ORIENTED_EDGE('',*,*,#198,.F.);
#280=EDGE_LOOP('',(#263,#271,#278,#279));
#281=FACE_OUTER_BOUND('',#280,.T.);
#282=ADVANCED_FACE('',(#281),#254,.T.);
#283=CARTESIAN_POINT('',(1.999999555991963,19.0,59.999986669759892));
#284=DIRECTION('',(0.0,0.0,1.0));
#285=DIRECTION('',(-1.0,0.0,0.0));
#286=AXIS2_PLACEMENT_3D('',#283,#284,#285);
#287=PLANE('',#286);
#288=CARTESIAN_POINT('',(0.0,19.0,59.999986669759892));
#289=VERTEX_POINT('',#288);
#290=CARTESIAN_POINT('',(1.999999555991963,19.0,59.999986669759892));
#291=DIRECTION('',(-1.0,0.0,0.0));
#292=VECTOR('',#291,1.999999555991963);
#293=LINE('',#290,#292);
#294=EDGE_CURVE('',#256,#289,#293,.T.);
#295=ORIENTED_EDGE('',*,*,#294,.T.);
#296=CARTESIAN_POINT('',(0.0,-19.0,59.999986669759892));
#297=VERTEX_POINT('',#296);
#298=CARTESIAN_POINT('',(0.0,19.0,59.999986669759892));
#299=DIRECTION('',(0.0,-1.0,0.0));
#300=VECTOR('',#299,38.0);
#301=LINE('',#298,#300);
#302=EDGE_CURVE('',#289,#297,#301,.T.);
#303=ORIENTED_EDGE('',*,*,#302,.T.);
#304=CARTESIAN_POINT('',(1.999999555991963,-19.0,59.999986669759892));
#305=DIRECTION('',(-1.0,0.0,0.0));
#306=VECTOR('',#305,1.999999555991963);
#307=LINE('',#304,#306);
#308=EDGE_CURVE('',#265,#297,#307,.T.);
#309=ORIENTED_EDGE('',*,*,#308,.F.);
#310=ORIENTED_EDGE('',*,*,#270,.F.);
#311=EDGE_LOOP('',(#295,#303,#309,#310));
#312=FACE_OUTER_BOUND('',#311,.T.);
#313=ADVANCED_FACE('',(#312),#287,.T.);
#314=CARTESIAN_POINT('',(0.0,19.0,59.999986669759892));
#315=DIRECTION('',(-1.0,0.0,0.0));
#316=DIRECTION('',(0.0,0.0,-1.0));
#317=AXIS2_PLACEMENT_3D('',#314,#315,#316);
#318=PLANE('',#317);
#319=CARTESIAN_POINT('',(0.0,19.0,-1.163414E-015));
#320=VERTEX_POINT('',#319);
#321=CARTESIAN_POINT('',(0.0,19.000000000000004,59.999986669759892));
#322=DIRECTION('',(0.0,0.0,-1.0));
#323=VECTOR('',#322,59.999986669759892);
#324=LINE('',#321,#323);
#325=EDGE_CURVE('',#289,#320,#324,.T.);
#326=ORIENTED_EDGE('',*,*,#325,.T.);
#327=CARTESIAN_POINT('',(0.0,-19.0,-1.163414E-015));
#328=VERTEX_POINT('',#327);
#329=CARTESIAN_POINT('',(0.0,19.0,-1.163414E-015));
#330=DIRECTION('',(0.0,-1.0,0.0));
#331=VECTOR('',#330,38.0);
#332=LINE('',#329,#331);
#333=EDGE_CURVE('',#320,#328,#332,.T.);
#334=ORIENTED_EDGE('',*,*,#333,.T.);
#335=CARTESIAN_POINT('',(0.0,-18.999999999999996,59.999986669759892));
#336=DIRECTION('',(0.0,0.0,-1.0));
#337=VECTOR('',#336,59.999986669759892);
#338=LINE('',#335,#337);
#339=EDGE_CURVE('',#297,#328,#338,.T.);
#340=ORIENTED_EDGE('',*,*,#339,.F.);
#341=ORIENTED_EDGE('',*,*,#302,.F.);
#342=EDGE_LOOP('',(#326,#334,#340,#341));
#343=FACE_OUTER_BOUND('',#342,.T.);
#344=CARTESIAN_POINT('',(0.0,-0.000004218076355,49.249989061303040));
#345=VERTEX_POINT('',#344);
#346=CARTESIAN_POINT('',(0.0,-0.000004218076356,40.749990948337199));
#347=VERTEX_POINT('',#346);
#348=CARTESIAN_POINT('',(0.0,-0.000004218076356,44.999990004820120));
#349=DIRECTION('',(-1.0,0.0,0.0));
#350=DIRECTION('',(0.0,-6.123234E-017,-1.0));
#351=AXIS2_PLACEMENT_3D('',#348,#349,#350);
#352=CIRCLE('',#351,4.249999056482920);
#353=EDGE_CURVE('',#345,#347,#352,.T.);
#354=ORIENTED_EDGE('',*,*,#353,.F.);
#355=CARTESIAN_POINT('',(0.0,-0.000004218076356,44.999990004820120));
#356=DIRECTION('',(-1.0,0.0,0.0));
#357=DIRECTION('',(0.0,-6.123234E-017,-1.0));
#358=AXIS2_PLACEMENT_3D('',#355,#356,#357);
#359=CIRCLE('',#358,4.249999056482920);
#360=EDGE_CURVE('',#347,#345,#359,.T.);
#361=ORIENTED_EDGE('',*,*,#360,.F.);
#362=EDGE_LOOP('',(#354,#361));
#363=FACE_BOUND('',#362,.T.);
#364=CARTESIAN_POINT('',(0.0,-0.000004218076355,24.249994616402930));
#365=VERTEX_POINT('',#364);
#366=CARTESIAN_POINT('',(0.0,-0.000004218076356,15.749996503437087));
#367=VERTEX_POINT('',#366);
#368=CARTESIAN_POINT('',(0.0,-0.000004218076356,19.999995559920009));
#369=DIRECTION('',(-1.0,0.0,0.0));
#370=DIRECTION('',(0.0,-6.123234E-017,-1.0));
#371=AXIS2_PLACEMENT_3D('',#368,#369,#370);
#372=CIRCLE('',#371,4.249999056482920);
#373=EDGE_CURVE('',#365,#367,#372,.T.);
#374=ORIENTED_EDGE('',*,*,#373,.F.);
#375=CARTESIAN_POINT('',(0.0,-0.000004218076356,19.999995559920009));
#376=DIRECTION('',(-1.0,0.0,0.0));
#377=DIRECTION('',(0.0,-6.123234E-017,-1.0));
#378=AXIS2_PLACEMENT_3D('',#375,#376,#377);
#379=CIRCLE('',#378,4.249999056482920);
#380=EDGE_CURVE('',#367,#365,#379,.T.);
#381=ORIENTED_EDGE('',*,*,#380,.F.);
#382=EDGE_LOOP('',(#374,#381));
#383=FACE_BOUND('',#382,.T.);
#384=ADVANCED_FACE('',(#343,#363,#383),#318,.T.);
#385=CARTESIAN_POINT('',(0.0,19.0,-1.163414E-015));
#386=DIRECTION('',(0.0,0.0,-1.0));
#387=DIRECTION('',(1.0,0.0,0.0));
#388=AXIS2_PLACEMENT_3D('',#385,#386,#387);
#389=PLANE('',#388);
#390=ORIENTED_EDGE('',*,*,#37,.T.);
#391=CARTESIAN_POINT('',(0.0,-19.0,-1.163414E-015));
#392=DIRECTION('',(1.0,0.0,0.0));
#393=VECTOR('',#392,59.999986679765243);
#394=LINE('',#391,#393);
#395=EDGE_CURVE('',#328,#26,#394,.T.);
#396=ORIENTED_EDGE('',*,*,#395,.F.);
#397=ORIENTED_EDGE('',*,*,#333,.F.);
#398=CARTESIAN_POINT('',(0.0,19.0,-1.163414E-015));
#399=DIRECTION('',(1.0,0.0,0.0));
#400=VECTOR('',#399,59.999986679765243);
#401=LINE('',#398,#400);
#402=EDGE_CURVE('',#320,#8,#401,.T.);
#403=ORIENTED_EDGE('',*,*,#402,.T.);
#404=EDGE_LOOP('',(#390,#396,#397,#403));
#405=FACE_OUTER_BOUND('',#404,.T.);
#406=CARTESIAN_POINT('',(15.749996503442617,-0.000004218075901,-2.752360E-016));
#407=VERTEX_POINT('',#406);
#408=CARTESIAN_POINT('',(24.249994616408458,-0.000004218075901,-4.321089E-014));
#409=VERTEX_POINT('',#408);
#410=CARTESIAN_POINT('',(19.999995559925537,-0.000004218075901,-2.752360E-016));
#411=DIRECTION('',(1.010251E-014,6.123234E-017,1.0));
#412=DIRECTION('',(-1.0,6.186003E-031,1.010251E-014));
#413=AXIS2_PLACEMENT_3D('',#410,#411,#412);
#414=CIRCLE('',#413,4.249999056482920);
#415=EDGE_CURVE('',#407,#409,#414,.T.);
#416=ORIENTED_EDGE('',*,*,#415,.T.);
#417=CARTESIAN_POINT('',(19.999995559925537,-0.000004218075901,-2.752360E-016));
#418=DIRECTION('',(1.010251E-014,6.123234E-017,1.0));
#419=DIRECTION('',(-1.0,6.186003E-031,1.010251E-014));
#420=AXIS2_PLACEMENT_3D('',#417,#418,#419);
#421=CIRCLE('',#420,4.249999056482920);
#422=EDGE_CURVE('',#409,#407,#421,.T.);
#423=ORIENTED_EDGE('',*,*,#422,.T.);
#424=EDGE_LOOP('',(#416,#423));
#425=FACE_BOUND('',#424,.T.);
#426=CARTESIAN_POINT('',(40.749990953342603,-0.000004218075901,-2.752360E-016));
#427=VERTEX_POINT('',#426);
#428=CARTESIAN_POINT('',(49.249989066308444,-0.000004218075901,-4.321089E-014));
#429=VERTEX_POINT('',#428);
#430=CARTESIAN_POINT('',(44.999990009825524,-0.000004218075901,-2.752360E-016));
#431=DIRECTION('',(1.010251E-014,6.123234E-017,1.0));
#432=DIRECTION('',(-1.0,6.186003E-031,1.010251E-014));
#433=AXIS2_PLACEMENT_3D('',#430,#431,#432);
#434=CIRCLE('',#433,4.249999056482920);
#435=EDGE_CURVE('',#427,#429,#434,.T.);
#436=ORIENTED_EDGE('',*,*,#435,.T.);
#437=CARTESIAN_POINT('',(44.999990009825524,-0.000004218075901,-2.752360E-016));
#438=DIRECTION('',(1.010251E-014,6.123234E-017,1.0));
#439=DIRECTION('',(-1.0,6.186003E-031,1.010251E-014));
#440=AXIS2_PLACEMENT_3D('',#437,#438,#439);
#441=CIRCLE('',#440,4.249999056482920);
#442=EDGE_CURVE('',#429,#427,#441,.T.);
#443=ORIENTED_EDGE('',*,*,#442,.T.);
#444=EDGE_LOOP('',(#436,#443));
#445=FACE_BOUND('',#444,.T.);
#446=ADVANCED_FACE('',(#405,#425,#445),#389,.T.);
#447=CARTESIAN_POINT('',(-6.000003403106803,19.0,-6.000003401972664));
#448=DIRECTION('',(0.0,-1.0,0.0));
#449=DIRECTION('',(1.0,0.0,0.0));
#450=AXIS2_PLACEMENT_3D('',#447,#448,#449);
#451=PLANE('',#450);
#452=ORIENTED_EDGE('',*,*,#402,.F.);
#453=ORIENTED_EDGE('',*,*,#325,.F.);
#454=ORIENTED_EDGE('',*,*,#294,.F.);
#455=ORIENTED_EDGE('',*,*,#262,.F.);
#456=ORIENTED_EDGE('',*,*,#190,.F.);
#457=ORIENTED_EDGE('',*,*,#158,.F.);
#458=ORIENTED_EDGE('',*,*,#86,.F.);
#459=ORIENTED_EDGE('',*,*,#54,.F.);
#460=ORIENTED_EDGE('',*,*,#15,.F.);
#461=EDGE_LOOP('',(#452,#453,#454,#455,#456,#457,#458,#459,#460));
#462=FACE_OUTER_BOUND('',#461,.T.);
#463=ADVANCED_FACE('',(#462),#451,.F.);
#464=CARTESIAN_POINT('',(-6.000003403106803,-19.0,-6.000003401972664));
#465=DIRECTION('',(0.0,-1.0,0.0));
#466=DIRECTION('',(1.0,0.0,0.0));
#467=AXIS2_PLACEMENT_3D('',#464,#465,#466);
#468=PLANE('',#467);
#469=ORIENTED_EDGE('',*,*,#31,.T.);
#470=ORIENTED_EDGE('',*,*,#69,.T.);
#471=ORIENTED_EDGE('',*,*,#100,.T.);
#472=ORIENTED_EDGE('',*,*,#173,.T.);
#473=ORIENTED_EDGE('',*,*,#204,.T.);
#474=ORIENTED_EDGE('',*,*,#277,.T.);
#475=ORIENTED_EDGE('',*,*,#308,.T.);
#476=ORIENTED_EDGE('',*,*,#339,.T.);
#477=ORIENTED_EDGE('',*,*,#395,.T.);
#478=EDGE_LOOP('',(#469,#470,#471,#472,#473,#474,#475,#476,#477));
#479=FACE_OUTER_BOUND('',#478,.T.);
#480=ADVANCED_FACE('',(#479),#468,.T.);
#481=CARTESIAN_POINT('',(19.999995559925537,-0.000004218075901,5.999980957545995));
#482=DIRECTION('',(1.010251E-014,6.123234E-017,1.0));
#483=DIRECTION('',(-1.0,6.186003E-031,1.010251E-014));
#484=AXIS2_PLACEMENT_3D('',#481,#482,#483);
#485=CYLINDRICAL_SURFACE('',#484,4.249999056482920);
#486=CARTESIAN_POINT('',(15.749996503442617,-0.000004218075901,5.999980957546038));
#487=DIRECTION('',(0.0,0.0,-1.0));
#488=VECTOR('',#487,5.999980957546038);
#489=LINE('',#486,#488);
#490=EDGE_CURVE('',#108,#407,#489,.T.);
#491=ORIENTED_EDGE('',*,*,#490,.T.);
#492=ORIENTED_EDGE('',*,*,#422,.F.);
#493=ORIENTED_EDGE('',*,*,#415,.F.);
#494=ORIENTED_EDGE('',*,*,#490,.F.);
#495=ORIENTED_EDGE('',*,*,#121,.T.);
#496=ORIENTED_EDGE('',*,*,#114,.T.);
#497=EDGE_LOOP('',(#491,#492,#493,#494,#495,#496));
#498=FACE_OUTER_BOUND('',#497,.T.);
#499=ADVANCED_FACE('',(#498),#485,.F.);
#500=CARTESIAN_POINT('',(44.999990009825524,-0.000004218075901,5.999980957545742));
#501=DIRECTION('',(1.010251E-014,6.123234E-017,1.0));
#502=DIRECTION('',(-1.0,6.186003E-031,1.010251E-014));
#503=AXIS2_PLACEMENT_3D('',#500,#501,#502);
#504=CYLINDRICAL_SURFACE('',#503,4.249999056482920);
#505=CARTESIAN_POINT('',(40.749990953342603,-0.000004218075901,5.999980957545785));
#506=DIRECTION('',(0.0,0.0,-1.0));
#507=VECTOR('',#506,5.999980957545785);
#508=LINE('',#505,#507);
#509=EDGE_CURVE('',#128,#427,#508,.T.);
#510=ORIENTED_EDGE('',*,*,#509,.T.);
#511=ORIENTED_EDGE('',*,*,#442,.F.);
#512=ORIENTED_EDGE('',*,*,#435,.F.);
#513=ORIENTED_EDGE('',*,*,#509,.F.);
#514=ORIENTED_EDGE('',*,*,#141,.T.);
#515=ORIENTED_EDGE('',*,*,#134,.T.);
#516=EDGE_LOOP('',(#510,#511,#512,#513,#514,#515));
#517=FACE_OUTER_BOUND('',#516,.T.);
#518=ADVANCED_FACE('',(#517),#504,.F.);
#519=CARTESIAN_POINT('',(0.0,-0.000004218076356,44.999990004820120));
#520=DIRECTION('',(-1.0,0.0,0.0));
#521=DIRECTION('',(0.0,-6.123234E-017,-1.0));
#522=AXIS2_PLACEMENT_3D('',#519,#520,#521);
#523=CYLINDRICAL_SURFACE('',#522,4.249999056482920);
#524=CARTESIAN_POINT('',(0.0,-0.000004218076356,40.749990948337199));
#525=DIRECTION('',(1.0,0.0,0.0));
#526=VECTOR('',#525,5.982901202210087);
#527=LINE('',#524,#526);
#528=EDGE_CURVE('',#347,#210,#527,.T.);
#529=ORIENTED_EDGE('',*,*,#528,.T.);
#530=ORIENTED_EDGE('',*,*,#225,.F.);
#531=ORIENTED_EDGE('',*,*,#218,.F.);
#532=ORIENTED_EDGE('',*,*,#528,.F.);
#533=ORIENTED_EDGE('',*,*,#360,.T.);
#534=ORIENTED_EDGE('',*,*,#353,.T.);
#535=EDGE_LOOP('',(#529,#530,#531,#532,#533,#534));
#536=FACE_OUTER_BOUND('',#535,.T.);
#537=ADVANCED_FACE('',(#536),#523,.F.);
#538=CARTESIAN_POINT('',(0.0,-0.000004218076356,19.999995559920009));
#539=DIRECTION('',(-1.0,0.0,0.0));
#540=DIRECTION('',(0.0,-6.123234E-017,-1.0));
#541=AXIS2_PLACEMENT_3D('',#538,#539,#540);
#542=CYLINDRICAL_SURFACE('',#541,4.249999056482920);
#543=CARTESIAN_POINT('',(0.0,-0.000004218076356,15.749996503437087));
#544=DIRECTION('',(1.0,0.0,0.0));
#545=VECTOR('',#544,5.982901202210087);
#546=LINE('',#543,#545);
#547=EDGE_CURVE('',#367,#230,#546,.T.);
#548=ORIENTED_EDGE('',*,*,#547,.T.);
#549=ORIENTED_EDGE('',*,*,#245,.F.);
#550=ORIENTED_EDGE('',*,*,#238,.F.);
#551=ORIENTED_EDGE('',*,*,#547,.F.);
#552=ORIENTED_EDGE('',*,*,#380,.T.);
#553=ORIENTED_EDGE('',*,*,#373,.T.);
#554=EDGE_LOOP('',(#548,#549,#550,#551,#552,#553));
#555=FACE_OUTER_BOUND('',#554,.T.);
#556=ADVANCED_FACE('',(#555),#542,.F.);
#557=CLOSED_SHELL('',(#41,#74,#145,#178,#249,#282,#313,#384,#446,#463,#480,#499,#518,#537,#556));
#558=MANIFOLD_SOLID_BREP('',#557);
#564=(NAMED_UNIT(*)PLANE_ANGLE_UNIT()SI_UNIT($,.RADIAN.));
#565=DIMENSIONAL_EXPONENTS(0.0,0.0,0.0,0.0,0.0,0.0,0.0);
#566=PLANE_ANGLE_MEASURE_WITH_UNIT(PLANE_ANGLE_MEASURE(0.017453292500000),#564);
#570=(CONVERSION_BASED_UNIT('DEGREE',#566)NAMED_UNIT(#565)PLANE_ANGLE_UNIT());
#574=(NAMED_UNIT(*)SI_UNIT($,.STERADIAN.)SOLID_ANGLE_UNIT());
#578=(LENGTH_UNIT()NAMED_UNIT(*)SI_UNIT(.MILLI.,.METRE.));
#580=UNCERTAINTY_MEASURE_WITH_UNIT(LENGTH_MEASURE(0.001000000000000),#578,'DISTANCE_ACCURACY_VALUE','');
#582=(GEOMETRIC_REPRESENTATION_CONTEXT(3)GLOBAL_UNCERTAINTY_ASSIGNED_CONTEXT((#580))GLOBAL_UNIT_ASSIGNED_CONTEXT((#570,#574,#578))REPRESENTATION_CONTEXT('thinkdesign','2009.3.110'));
#583=ADVANCED_BREP_SHAPE_REPRESENTATION('',(#558),#582);
#584=APPLICATION_CONTEXT('configuration controlled 3D designs of mechanical parts and assemblies');
#585=APPLICATION_PROTOCOL_DEFINITION('International Standard','config_control_design',1995,#584);
#586=MECHANICAL_CONTEXT('None',#584,'mechanical');
#587=PRODUCT('None','None','None',(#586));
#588=PRODUCT_RELATED_PRODUCT_CATEGORY('detail',$,(#587));
#589=PRODUCT_CATEGORY('part',$);
#590=PRODUCT_CATEGORY_RELATIONSHIP('None','None',#589,#588);
#591=PERSON('PERSON1','None','None',$,$,$);
#592=ORGANIZATION('','None','None');
#593=PERSON_AND_ORGANIZATION(#591,#592);
#594=PERSON_AND_ORGANIZATION_ROLE('design_owner');
#595=CC_DESIGN_PERSON_AND_ORGANIZATION_ASSIGNMENT(#593,#594,(#587));
#596=PRODUCT_DEFINITION_FORMATION_WITH_SPECIFIED_SOURCE('None','None',#587,.NOT_KNOWN.);
#597=PERSON('PERSON2','None','None',$,$,$);
#598=ORGANIZATION('','None','None');
#599=PERSON_AND_ORGANIZATION(#597,#598);
#600=PERSON_AND_ORGANIZATION_ROLE('creator');
#601=CC_DESIGN_PERSON_AND_ORGANIZATION_ASSIGNMENT(#599,#600,(#596));
#602=PERSON('PERSON3','None','None',$,$,$);
#603=ORGANIZATION('','None','None');
#604=PERSON_AND_ORGANIZATION(#602,#603);
#605=PERSON_AND_ORGANIZATION_ROLE('part_supplier');
#606=CC_DESIGN_PERSON_AND_ORGANIZATION_ASSIGNMENT(#604,#605,(#596));
#607=APPROVAL_STATUS('approved');
#608=APPROVAL(#607,'None');
#609=PERSON('PERSON4','None','None',$,$,$);
#610=ORGANIZATION('','None','None');
#611=PERSON_AND_ORGANIZATION(#609,#610);
#612=APPROVAL_ROLE('None');
#613=APPROVAL_PERSON_ORGANIZATION(#611,#608,#612);
#614=CALENDAR_DATE(2011,21,3);
#615=COORDINATED_UNIVERSAL_TIME_OFFSET(0,0,.AHEAD.);
#616=LOCAL_TIME(16,14,58.0,#615);
#617=DATE_AND_TIME(#614,#616);
#618=APPROVAL_DATE_TIME(#617,#608);
#619=CC_DESIGN_APPROVAL(#608,(#596));
#620=SECURITY_CLASSIFICATION_LEVEL('unclassified');
#621=SECURITY_CLASSIFICATION('None','None',#620);
#622=CC_DESIGN_SECURITY_CLASSIFICATION(#621,(#596));
#623=APPROVAL_STATUS('approved');
#624=APPROVAL(#623,'None');
#625=PERSON('PERSON5','None','None',$,$,$);
#626=ORGANIZATION('','None','None');
#627=PERSON_AND_ORGANIZATION(#625,#626);
#628=APPROVAL_ROLE('None');
#629=APPROVAL_PERSON_ORGANIZATION(#627,#624,#628);
#630=CALENDAR_DATE(2011,21,3);
#631=COORDINATED_UNIVERSAL_TIME_OFFSET(0,0,.AHEAD.);
#632=LOCAL_TIME(16,14,58.0,#631);
#633=DATE_AND_TIME(#630,#632);
#634=APPROVAL_DATE_TIME(#633,#624);
#635=CC_DESIGN_APPROVAL(#624,(#621));
#636=PERSON('PERSON6','None','None',$,$,$);
#637=ORGANIZATION('','None','None');
#638=PERSON_AND_ORGANIZATION(#636,#637);
#639=PERSON_AND_ORGANIZATION_ROLE('classification_officer');
#640=CC_DESIGN_PERSON_AND_ORGANIZATION_ASSIGNMENT(#638,#639,(#621));
#641=DATE_TIME_ROLE('classification_date');
#642=CALENDAR_DATE(2011,21,3);
#643=COORDINATED_UNIVERSAL_TIME_OFFSET(0,0,.AHEAD.);
#644=LOCAL_TIME(16,14,58.0,#643);
#645=DATE_AND_TIME(#642,#644);
#646=CC_DESIGN_DATE_AND_TIME_ASSIGNMENT(#645,#641,(#621));
#647=DESIGN_CONTEXT('part definition',#584,'design');
#648=DOCUMENT_TYPE('cad_filename');
#649=DOCUMENT('None','None','None',#648);
#650=PRODUCT_DEFINITION_WITH_ASSOCIATED_DOCUMENTS('None','None',#596,#647,(#649));
#651=PERSON('PERSON7','None','None',$,$,$);
#652=ORGANIZATION('','None','None');
#653=PERSON_AND_ORGANIZATION(#651,#652);
#654=PERSON_AND_ORGANIZATION_ROLE('creator');
#655=CC_DESIGN_PERSON_AND_ORGANIZATION_ASSIGNMENT(#653,#654,(#650));
#656=DATE_TIME_ROLE('creation_date');
#657=CALENDAR_DATE(2011,21,3);
#658=COORDINATED_UNIVERSAL_TIME_OFFSET(0,0,.AHEAD.);
#659=LOCAL_TIME(16,14,58.0,#658);
#660=DATE_AND_TIME(#657,#659);
#661=CC_DESIGN_DATE_AND_TIME_ASSIGNMENT(#660,#656,(#650));
#662=APPROVAL_STATUS('approved');
#663=APPROVAL(#662,'None');
#664=PERSON('PERSON8','None','None',$,$,$);
#665=ORGANIZATION('','None','None');
#666=PERSON_AND_ORGANIZATION(#664,#665);
#667=APPROVAL_ROLE('None');
#668=APPROVAL_PERSON_ORGANIZATION(#666,#663,#667);
#669=CALENDAR_DATE(2011,21,3);
#670=COORDINATED_UNIVERSAL_TIME_OFFSET(0,0,.AHEAD.);
#671=LOCAL_TIME(16,14,58.0,#670);
#672=DATE_AND_TIME(#669,#671);
#673=APPROVAL_DATE_TIME(#672,#663);
#674=CC_DESIGN_APPROVAL(#663,(#650));
#675=PRODUCT_DEFINITION_SHAPE('None','None',#650);
#676=SHAPE_DEFINITION_REPRESENTATION(#675,#583);
#677=DIMENSIONAL_EXPONENTS(0.0,0.0,0.0,0.0,0.0,0.0,0.0);
#678=DIMENSIONAL_EXPONENTS(1.0,0.0,0.0,0.0,0.0,0.0,0.0);
ENDSEC;
END-ISO-10303-21;
