ISO-10303-21;
HEADER;
/* Generated by software containing ST-Developer
 * from STEP Tools, Inc. (www.steptools.com) 
 */

FILE_DESCRIPTION(
/* description */ ('SQUADRETTA 40x40x20 L'),
/* implementation_level */ '2;1');

FILE_NAME(
/* name */ 
'Q:\\Catalogo\\2_Accessori Dierre\\Per Download Web e catalogo cartace
o\\CATALOGO ELEMENTI ASSEMBLAGGIO\\PAGINA 30\\DSQAL0000013.stp',
/* time_stamp */ '2018-03-07T11:29:23+01:00',
/* author */ ('fzagni'),
/* organization */ (''),
/* preprocessor_version */ 'ST-DEVELOPER v16.1',
/* originating_system */ 'Autodesk Inventor 2016',
/* authorisation */ '');

FILE_SCHEMA (('AUTOMOTIVE_DESIGN { 1 0 10303 214 3 1 1 }'));
ENDSEC;

DATA;
#10=MECHANICAL_DESIGN_GEOMETRIC_PRESENTATION_REPRESENTATION('',(#13),#410);
#11=SHAPE_REPRESENTATION_RELATIONSHIP('SRR','None',#419,#12);
#12=ADVANCED_BREP_SHAPE_REPRESENTATION('',(#14),#409);
#13=STYLED_ITEM('',(#428),#14);
#14=MANIFOLD_SOLID_BREP('None',#246);
#15=CYLINDRICAL_SURFACE('',#251,2.99999933398794);
#16=CYLINDRICAL_SURFACE('',#256,2.9999993339884);
#17=CYLINDRICAL_SURFACE('',#261,2.99999933398794);
#18=CYLINDRICAL_SURFACE('',#269,2.74999938948895);
#19=CYLINDRICAL_SURFACE('',#270,2.74999938948895);
#20=FACE_BOUND('',#50,.T.);
#21=FACE_BOUND('',#54,.T.);
#22=FACE_BOUND('',#57,.T.);
#23=FACE_BOUND('',#61,.T.);
#24=FACE_BOUND('',#65,.T.);
#25=FACE_BOUND('',#67,.T.);
#26=CIRCLE('',#249,2.74999938948895);
#27=CIRCLE('',#252,2.99999933398794);
#28=CIRCLE('',#253,2.99999933398794);
#29=CIRCLE('',#255,2.74999938948895);
#30=CIRCLE('',#257,2.9999993339884);
#31=CIRCLE('',#258,2.9999993339884);
#32=CIRCLE('',#260,2.74999938948895);
#33=CIRCLE('',#262,2.99999933398794);
#34=CIRCLE('',#263,2.99999933398794);
#35=CIRCLE('',#266,2.74999938948895);
#36=FACE_OUTER_BOUND('',#49,.T.);
#37=FACE_OUTER_BOUND('',#51,.T.);
#38=FACE_OUTER_BOUND('',#52,.T.);
#39=FACE_OUTER_BOUND('',#53,.T.);
#40=FACE_OUTER_BOUND('',#55,.T.);
#41=FACE_OUTER_BOUND('',#56,.T.);
#42=FACE_OUTER_BOUND('',#58,.T.);
#43=FACE_OUTER_BOUND('',#59,.T.);
#44=FACE_OUTER_BOUND('',#60,.T.);
#45=FACE_OUTER_BOUND('',#62,.T.);
#46=FACE_OUTER_BOUND('',#63,.T.);
#47=FACE_OUTER_BOUND('',#64,.T.);
#48=FACE_OUTER_BOUND('',#66,.T.);
#49=EDGE_LOOP('',(#163,#164,#165,#166));
#50=EDGE_LOOP('',(#167));
#51=EDGE_LOOP('',(#168,#169,#170,#171));
#52=EDGE_LOOP('',(#172,#173,#174,#175));
#53=EDGE_LOOP('',(#176,#177,#178,#179));
#54=EDGE_LOOP('',(#180));
#55=EDGE_LOOP('',(#181,#182,#183,#184));
#56=EDGE_LOOP('',(#185,#186,#187,#188));
#57=EDGE_LOOP('',(#189));
#58=EDGE_LOOP('',(#190,#191,#192,#193));
#59=EDGE_LOOP('',(#194,#195,#196,#197));
#60=EDGE_LOOP('',(#198,#199,#200,#201));
#61=EDGE_LOOP('',(#202));
#62=EDGE_LOOP('',(#203,#204,#205,#206,#207,#208,#209,#210,#211));
#63=EDGE_LOOP('',(#212,#213,#214,#215,#216,#217,#218,#219,#220));
#64=EDGE_LOOP('',(#221));
#65=EDGE_LOOP('',(#222));
#66=EDGE_LOOP('',(#223));
#67=EDGE_LOOP('',(#224));
#68=LINE('',#344,#89);
#69=LINE('',#346,#90);
#70=LINE('',#348,#91);
#71=LINE('',#349,#92);
#72=LINE('',#354,#93);
#73=LINE('',#356,#94);
#74=LINE('',#357,#95);
#75=LINE('',#362,#96);
#76=LINE('',#366,#97);
#77=LINE('',#368,#98);
#78=LINE('',#369,#99);
#79=LINE('',#376,#100);
#80=LINE('',#380,#101);
#81=LINE('',#382,#102);
#82=LINE('',#383,#103);
#83=LINE('',#390,#104);
#84=LINE('',#394,#105);
#85=LINE('',#396,#106);
#86=LINE('',#397,#107);
#87=LINE('',#399,#108);
#88=LINE('',#400,#109);
#89=VECTOR('',#275,39.9999911198402);
#90=VECTOR('',#276,19.);
#91=VECTOR('',#277,39.9999911198402);
#92=VECTOR('',#278,19.);
#93=VECTOR('',#283,0.999999777995981);
#94=VECTOR('',#284,19.);
#95=VECTOR('',#285,0.999999777995981);
#96=VECTOR('',#290,19.);
#97=VECTOR('',#295,29.9999933398799);
#98=VECTOR('',#296,19.);
#99=VECTOR('',#297,29.9999933398799);
#100=VECTOR('',#304,19.);
#101=VECTOR('',#309,29.9999933398799);
#102=VECTOR('',#310,19.);
#103=VECTOR('',#311,29.9999933398799);
#104=VECTOR('',#318,19.);
#105=VECTOR('',#323,0.999999777995981);
#106=VECTOR('',#324,19.);
#107=VECTOR('',#325,0.999999777995981);
#108=VECTOR('',#328,39.9999911198402);
#109=VECTOR('',#329,39.9999911198402);
#110=VERTEX_POINT('',#342);
#111=VERTEX_POINT('',#343);
#112=VERTEX_POINT('',#345);
#113=VERTEX_POINT('',#347);
#114=VERTEX_POINT('',#350);
#115=VERTEX_POINT('',#353);
#116=VERTEX_POINT('',#355);
#117=VERTEX_POINT('',#359);
#118=VERTEX_POINT('',#361);
#119=VERTEX_POINT('',#365);
#120=VERTEX_POINT('',#367);
#121=VERTEX_POINT('',#370);
#122=VERTEX_POINT('',#373);
#123=VERTEX_POINT('',#375);
#124=VERTEX_POINT('',#379);
#125=VERTEX_POINT('',#381);
#126=VERTEX_POINT('',#384);
#127=VERTEX_POINT('',#387);
#128=VERTEX_POINT('',#389);
#129=VERTEX_POINT('',#393);
#130=VERTEX_POINT('',#395);
#131=VERTEX_POINT('',#401);
#132=EDGE_CURVE('',#110,#111,#68,.T.);
#133=EDGE_CURVE('',#111,#112,#69,.T.);
#134=EDGE_CURVE('',#113,#112,#70,.T.);
#135=EDGE_CURVE('',#110,#113,#71,.T.);
#136=EDGE_CURVE('',#114,#114,#26,.T.);
#137=EDGE_CURVE('',#111,#115,#72,.T.);
#138=EDGE_CURVE('',#115,#116,#73,.T.);
#139=EDGE_CURVE('',#112,#116,#74,.T.);
#140=EDGE_CURVE('',#115,#117,#27,.T.);
#141=EDGE_CURVE('',#117,#118,#75,.T.);
#142=EDGE_CURVE('',#116,#118,#28,.T.);
#143=EDGE_CURVE('',#117,#119,#76,.T.);
#144=EDGE_CURVE('',#119,#120,#77,.T.);
#145=EDGE_CURVE('',#118,#120,#78,.T.);
#146=EDGE_CURVE('',#121,#121,#29,.T.);
#147=EDGE_CURVE('',#119,#122,#30,.T.);
#148=EDGE_CURVE('',#122,#123,#79,.T.);
#149=EDGE_CURVE('',#120,#123,#31,.T.);
#150=EDGE_CURVE('',#122,#124,#80,.T.);
#151=EDGE_CURVE('',#124,#125,#81,.T.);
#152=EDGE_CURVE('',#123,#125,#82,.T.);
#153=EDGE_CURVE('',#126,#126,#32,.T.);
#154=EDGE_CURVE('',#124,#127,#33,.T.);
#155=EDGE_CURVE('',#127,#128,#83,.T.);
#156=EDGE_CURVE('',#125,#128,#34,.T.);
#157=EDGE_CURVE('',#127,#129,#84,.T.);
#158=EDGE_CURVE('',#129,#130,#85,.T.);
#159=EDGE_CURVE('',#128,#130,#86,.T.);
#160=EDGE_CURVE('',#130,#113,#87,.T.);
#161=EDGE_CURVE('',#129,#110,#88,.T.);
#162=EDGE_CURVE('',#131,#131,#35,.T.);
#163=ORIENTED_EDGE('',*,*,#132,.T.);
#164=ORIENTED_EDGE('',*,*,#133,.T.);
#165=ORIENTED_EDGE('',*,*,#134,.F.);
#166=ORIENTED_EDGE('',*,*,#135,.F.);
#167=ORIENTED_EDGE('',*,*,#136,.T.);
#168=ORIENTED_EDGE('',*,*,#137,.T.);
#169=ORIENTED_EDGE('',*,*,#138,.T.);
#170=ORIENTED_EDGE('',*,*,#139,.F.);
#171=ORIENTED_EDGE('',*,*,#133,.F.);
#172=ORIENTED_EDGE('',*,*,#140,.T.);
#173=ORIENTED_EDGE('',*,*,#141,.T.);
#174=ORIENTED_EDGE('',*,*,#142,.F.);
#175=ORIENTED_EDGE('',*,*,#138,.F.);
#176=ORIENTED_EDGE('',*,*,#143,.T.);
#177=ORIENTED_EDGE('',*,*,#144,.T.);
#178=ORIENTED_EDGE('',*,*,#145,.F.);
#179=ORIENTED_EDGE('',*,*,#141,.F.);
#180=ORIENTED_EDGE('',*,*,#146,.F.);
#181=ORIENTED_EDGE('',*,*,#147,.T.);
#182=ORIENTED_EDGE('',*,*,#148,.T.);
#183=ORIENTED_EDGE('',*,*,#149,.F.);
#184=ORIENTED_EDGE('',*,*,#144,.F.);
#185=ORIENTED_EDGE('',*,*,#150,.T.);
#186=ORIENTED_EDGE('',*,*,#151,.T.);
#187=ORIENTED_EDGE('',*,*,#152,.F.);
#188=ORIENTED_EDGE('',*,*,#148,.F.);
#189=ORIENTED_EDGE('',*,*,#153,.F.);
#190=ORIENTED_EDGE('',*,*,#154,.T.);
#191=ORIENTED_EDGE('',*,*,#155,.T.);
#192=ORIENTED_EDGE('',*,*,#156,.F.);
#193=ORIENTED_EDGE('',*,*,#151,.F.);
#194=ORIENTED_EDGE('',*,*,#157,.T.);
#195=ORIENTED_EDGE('',*,*,#158,.T.);
#196=ORIENTED_EDGE('',*,*,#159,.F.);
#197=ORIENTED_EDGE('',*,*,#155,.F.);
#198=ORIENTED_EDGE('',*,*,#135,.T.);
#199=ORIENTED_EDGE('',*,*,#160,.F.);
#200=ORIENTED_EDGE('',*,*,#158,.F.);
#201=ORIENTED_EDGE('',*,*,#161,.T.);
#202=ORIENTED_EDGE('',*,*,#162,.T.);
#203=ORIENTED_EDGE('',*,*,#161,.F.);
#204=ORIENTED_EDGE('',*,*,#157,.F.);
#205=ORIENTED_EDGE('',*,*,#154,.F.);
#206=ORIENTED_EDGE('',*,*,#150,.F.);
#207=ORIENTED_EDGE('',*,*,#147,.F.);
#208=ORIENTED_EDGE('',*,*,#143,.F.);
#209=ORIENTED_EDGE('',*,*,#140,.F.);
#210=ORIENTED_EDGE('',*,*,#137,.F.);
#211=ORIENTED_EDGE('',*,*,#132,.F.);
#212=ORIENTED_EDGE('',*,*,#134,.T.);
#213=ORIENTED_EDGE('',*,*,#139,.T.);
#214=ORIENTED_EDGE('',*,*,#142,.T.);
#215=ORIENTED_EDGE('',*,*,#145,.T.);
#216=ORIENTED_EDGE('',*,*,#149,.T.);
#217=ORIENTED_EDGE('',*,*,#152,.T.);
#218=ORIENTED_EDGE('',*,*,#156,.T.);
#219=ORIENTED_EDGE('',*,*,#159,.T.);
#220=ORIENTED_EDGE('',*,*,#160,.T.);
#221=ORIENTED_EDGE('',*,*,#136,.F.);
#222=ORIENTED_EDGE('',*,*,#146,.T.);
#223=ORIENTED_EDGE('',*,*,#162,.F.);
#224=ORIENTED_EDGE('',*,*,#153,.T.);
#225=PLANE('',#248);
#226=PLANE('',#250);
#227=PLANE('',#254);
#228=PLANE('',#259);
#229=PLANE('',#264);
#230=PLANE('',#265);
#231=PLANE('',#267);
#232=PLANE('',#268);
#233=ADVANCED_FACE('',(#36,#20),#225,.T.);
#234=ADVANCED_FACE('',(#37),#226,.T.);
#235=ADVANCED_FACE('',(#38),#15,.T.);
#236=ADVANCED_FACE('',(#39,#21),#227,.T.);
#237=ADVANCED_FACE('',(#40),#16,.F.);
#238=ADVANCED_FACE('',(#41,#22),#228,.T.);
#239=ADVANCED_FACE('',(#42),#17,.T.);
#240=ADVANCED_FACE('',(#43),#229,.T.);
#241=ADVANCED_FACE('',(#44,#23),#230,.T.);
#242=ADVANCED_FACE('',(#45),#231,.F.);
#243=ADVANCED_FACE('',(#46),#232,.T.);
#244=ADVANCED_FACE('',(#47,#24),#18,.F.);
#245=ADVANCED_FACE('',(#48,#25),#19,.F.);
#246=CLOSED_SHELL('',(#233,#234,#235,#236,#237,#238,#239,#240,#241,#242,
#243,#244,#245));
#247=AXIS2_PLACEMENT_3D('placement',#340,#271,#272);
#248=AXIS2_PLACEMENT_3D('',#341,#273,#274);
#249=AXIS2_PLACEMENT_3D('',#351,#279,#280);
#250=AXIS2_PLACEMENT_3D('',#352,#281,#282);
#251=AXIS2_PLACEMENT_3D('',#358,#286,#287);
#252=AXIS2_PLACEMENT_3D('',#360,#288,#289);
#253=AXIS2_PLACEMENT_3D('',#363,#291,#292);
#254=AXIS2_PLACEMENT_3D('',#364,#293,#294);
#255=AXIS2_PLACEMENT_3D('',#371,#298,#299);
#256=AXIS2_PLACEMENT_3D('',#372,#300,#301);
#257=AXIS2_PLACEMENT_3D('',#374,#302,#303);
#258=AXIS2_PLACEMENT_3D('',#377,#305,#306);
#259=AXIS2_PLACEMENT_3D('',#378,#307,#308);
#260=AXIS2_PLACEMENT_3D('',#385,#312,#313);
#261=AXIS2_PLACEMENT_3D('',#386,#314,#315);
#262=AXIS2_PLACEMENT_3D('',#388,#316,#317);
#263=AXIS2_PLACEMENT_3D('',#391,#319,#320);
#264=AXIS2_PLACEMENT_3D('',#392,#321,#322);
#265=AXIS2_PLACEMENT_3D('',#398,#326,#327);
#266=AXIS2_PLACEMENT_3D('',#402,#330,#331);
#267=AXIS2_PLACEMENT_3D('',#403,#332,#333);
#268=AXIS2_PLACEMENT_3D('',#404,#334,#335);
#269=AXIS2_PLACEMENT_3D('',#405,#336,#337);
#270=AXIS2_PLACEMENT_3D('',#406,#338,#339);
#271=DIRECTION('axis',(0.,0.,1.));
#272=DIRECTION('refdir',(1.,0.,0.));
#273=DIRECTION('center_axis',(0.,-1.,0.));
#274=DIRECTION('ref_axis',(0.,0.,-1.));
#275=DIRECTION('',(1.,0.,0.));
#276=DIRECTION('',(0.,0.,1.));
#277=DIRECTION('',(1.,0.,0.));
#278=DIRECTION('',(0.,0.,1.));
#279=DIRECTION('center_axis',(0.,1.,0.));
#280=DIRECTION('ref_axis',(-1.,0.,0.));
#281=DIRECTION('center_axis',(1.,0.,0.));
#282=DIRECTION('ref_axis',(0.,0.,-1.));
#283=DIRECTION('',(0.,1.,0.));
#284=DIRECTION('',(0.,0.,1.));
#285=DIRECTION('',(0.,1.,0.));
#286=DIRECTION('center_axis',(0.,0.,1.));
#287=DIRECTION('ref_axis',(1.,0.,0.));
#288=DIRECTION('center_axis',(0.,0.,1.));
#289=DIRECTION('ref_axis',(1.,0.,0.));
#290=DIRECTION('',(0.,0.,1.));
#291=DIRECTION('center_axis',(0.,0.,1.));
#292=DIRECTION('ref_axis',(1.,0.,0.));
#293=DIRECTION('center_axis',(0.,1.,0.));
#294=DIRECTION('ref_axis',(0.,0.,1.));
#295=DIRECTION('',(-1.,0.,0.));
#296=DIRECTION('',(0.,0.,1.));
#297=DIRECTION('',(-1.,0.,0.));
#298=DIRECTION('center_axis',(0.,1.,0.));
#299=DIRECTION('ref_axis',(-1.,0.,0.));
#300=DIRECTION('center_axis',(0.,0.,-1.));
#301=DIRECTION('ref_axis',(0.,-1.,0.));
#302=DIRECTION('center_axis',(0.,0.,-1.));
#303=DIRECTION('ref_axis',(1.,0.,0.));
#304=DIRECTION('',(0.,0.,1.));
#305=DIRECTION('center_axis',(0.,0.,-1.));
#306=DIRECTION('ref_axis',(1.,0.,0.));
#307=DIRECTION('center_axis',(1.,0.,0.));
#308=DIRECTION('ref_axis',(0.,0.,-1.));
#309=DIRECTION('',(0.,1.,0.));
#310=DIRECTION('',(0.,0.,1.));
#311=DIRECTION('',(0.,1.,0.));
#312=DIRECTION('center_axis',(1.,0.,0.));
#313=DIRECTION('ref_axis',(0.,1.,0.));
#314=DIRECTION('center_axis',(0.,0.,1.));
#315=DIRECTION('ref_axis',(1.,0.,0.));
#316=DIRECTION('center_axis',(0.,0.,1.));
#317=DIRECTION('ref_axis',(1.,0.,0.));
#318=DIRECTION('',(0.,0.,1.));
#319=DIRECTION('center_axis',(0.,0.,1.));
#320=DIRECTION('ref_axis',(1.,0.,0.));
#321=DIRECTION('center_axis',(0.,1.,0.));
#322=DIRECTION('ref_axis',(0.,0.,1.));
#323=DIRECTION('',(-1.,0.,0.));
#324=DIRECTION('',(0.,0.,1.));
#325=DIRECTION('',(-1.,0.,0.));
#326=DIRECTION('center_axis',(-1.,0.,0.));
#327=DIRECTION('ref_axis',(0.,0.,1.));
#328=DIRECTION('',(0.,-1.,0.));
#329=DIRECTION('',(0.,-1.,0.));
#330=DIRECTION('center_axis',(1.,0.,0.));
#331=DIRECTION('ref_axis',(0.,1.,0.));
#332=DIRECTION('center_axis',(0.,0.,1.));
#333=DIRECTION('ref_axis',(1.,0.,0.));
#334=DIRECTION('center_axis',(0.,0.,1.));
#335=DIRECTION('ref_axis',(1.,0.,0.));
#336=DIRECTION('center_axis',(0.,1.,0.));
#337=DIRECTION('ref_axis',(-1.,0.,0.));
#338=DIRECTION('center_axis',(1.,0.,0.));
#339=DIRECTION('ref_axis',(0.,1.,0.));
#340=CARTESIAN_POINT('',(0.,0.,0.));
#341=CARTESIAN_POINT('Origin',(0.,0.,-9.5));
#342=CARTESIAN_POINT('',(0.,0.,-9.5));
#343=CARTESIAN_POINT('',(39.9999911198402,0.,-9.5));
#344=CARTESIAN_POINT('',(0.,0.,-9.5));
#345=CARTESIAN_POINT('',(39.9999911198402,0.,9.5));
#346=CARTESIAN_POINT('',(39.9999911198402,0.,-9.5));
#347=CARTESIAN_POINT('',(0.,0.,9.5));
#348=CARTESIAN_POINT('',(0.,0.,9.5));
#349=CARTESIAN_POINT('',(0.,0.,-9.5));
#350=CARTESIAN_POINT('',(22.749994949409,0.,-4.547474E-13));
#351=CARTESIAN_POINT('Origin',(19.9999955599201,0.,-4.547474E-13));
#352=CARTESIAN_POINT('Origin',(39.9999911198402,0.,-9.5));
#353=CARTESIAN_POINT('',(39.9999911198402,0.999999777995981,-9.5));
#354=CARTESIAN_POINT('',(39.9999911198402,0.,-9.5));
#355=CARTESIAN_POINT('',(39.9999911198402,0.999999777995981,9.5));
#356=CARTESIAN_POINT('',(39.9999911198402,0.999999777995981,-9.5));
#357=CARTESIAN_POINT('',(39.9999911198402,0.,9.5));
#358=CARTESIAN_POINT('Origin',(36.9999917858522,0.999999777995981,-9.5));
#359=CARTESIAN_POINT('',(36.9999917858522,3.99999911198393,-9.5));
#360=CARTESIAN_POINT('Origin',(36.9999917858522,0.999999777995981,-9.5));
#361=CARTESIAN_POINT('',(36.9999917858522,3.99999911198393,9.5));
#362=CARTESIAN_POINT('',(36.9999917858522,3.99999911198393,-9.5));
#363=CARTESIAN_POINT('Origin',(36.9999917858522,0.999999777995981,9.5));
#364=CARTESIAN_POINT('Origin',(36.9999917858522,3.99999911198393,-9.5));
#365=CARTESIAN_POINT('',(6.99999844597233,3.99999911198393,-9.5));
#366=CARTESIAN_POINT('',(36.9999917858522,3.99999911198393,-9.5));
#367=CARTESIAN_POINT('',(6.99999844597233,3.99999911198393,9.5));
#368=CARTESIAN_POINT('',(6.99999844597233,3.99999911198393,-9.5));
#369=CARTESIAN_POINT('',(36.9999917858522,3.99999911198393,9.5));
#370=CARTESIAN_POINT('',(22.749994949409,3.99999911198393,-4.547474E-13));
#371=CARTESIAN_POINT('Origin',(19.9999955599201,3.99999911198393,-4.547474E-13));
#372=CARTESIAN_POINT('Origin',(6.99999844597233,6.99999844597233,-9.5));
#373=CARTESIAN_POINT('',(3.99999911198393,6.99999844597233,-9.5));
#374=CARTESIAN_POINT('Origin',(6.99999844597233,6.99999844597233,-9.5));
#375=CARTESIAN_POINT('',(3.99999911198393,6.99999844597233,9.5));
#376=CARTESIAN_POINT('',(3.99999911198393,6.99999844597233,-9.5));
#377=CARTESIAN_POINT('Origin',(6.99999844597233,6.99999844597233,9.5));
#378=CARTESIAN_POINT('Origin',(3.99999911198393,6.99999844597233,-9.5));
#379=CARTESIAN_POINT('',(3.99999911198393,36.9999917858522,-9.5));
#380=CARTESIAN_POINT('',(3.99999911198393,6.99999844597233,-9.5));
#381=CARTESIAN_POINT('',(3.99999911198393,36.9999917858522,9.5));
#382=CARTESIAN_POINT('',(3.99999911198393,36.9999917858522,-9.5));
#383=CARTESIAN_POINT('',(3.99999911198393,6.99999844597233,9.5));
#384=CARTESIAN_POINT('',(3.99999911198393,17.2499961704311,0.));
#385=CARTESIAN_POINT('Origin',(3.99999911198393,19.9999955599201,0.));
#386=CARTESIAN_POINT('Origin',(0.999999777995981,36.9999917858522,-9.5));
#387=CARTESIAN_POINT('',(0.999999777995981,39.9999911198402,-9.5));
#388=CARTESIAN_POINT('Origin',(0.999999777995981,36.9999917858522,-9.5));
#389=CARTESIAN_POINT('',(0.999999777995981,39.9999911198402,9.5));
#390=CARTESIAN_POINT('',(0.999999777995981,39.9999911198402,-9.5));
#391=CARTESIAN_POINT('Origin',(0.999999777995981,36.9999917858522,9.5));
#392=CARTESIAN_POINT('Origin',(0.999999777995981,39.9999911198402,-9.5));
#393=CARTESIAN_POINT('',(0.,39.9999911198402,-9.5));
#394=CARTESIAN_POINT('',(0.999999777995981,39.9999911198402,-9.5));
#395=CARTESIAN_POINT('',(0.,39.9999911198402,9.5));
#396=CARTESIAN_POINT('',(0.,39.9999911198402,-9.5));
#397=CARTESIAN_POINT('',(0.999999777995981,39.9999911198402,9.5));
#398=CARTESIAN_POINT('Origin',(0.,39.9999911198402,-9.5));
#399=CARTESIAN_POINT('',(0.,39.9999911198402,9.5));
#400=CARTESIAN_POINT('',(0.,39.9999911198402,-9.5));
#401=CARTESIAN_POINT('',(0.,17.2499961704311,0.));
#402=CARTESIAN_POINT('Origin',(0.,19.9999955599201,0.));
#403=CARTESIAN_POINT('Origin',(-4.00000384607529,-4.0000038459857,-9.5));
#404=CARTESIAN_POINT('Origin',(-4.00000384607529,-4.0000038459857,9.5));
#405=CARTESIAN_POINT('Origin',(19.9999955599201,3.99999911198393,-4.547474E-13));
#406=CARTESIAN_POINT('Origin',(3.99999911198393,19.9999955599201,0.));
#407=UNCERTAINTY_MEASURE_WITH_UNIT(LENGTH_MEASURE(0.01),#411,
'DISTANCE_ACCURACY_VALUE',
'Maximum model space distance between geometric entities at asserted c
onnectivities');
#408=UNCERTAINTY_MEASURE_WITH_UNIT(LENGTH_MEASURE(1.E-6),#411,
'DISTANCE_ACCURACY_VALUE',
'Maximum model space distance between geometric entities at asserted c
onnectivities');
#409=(
GEOMETRIC_REPRESENTATION_CONTEXT(3)
GLOBAL_UNCERTAINTY_ASSIGNED_CONTEXT((#407))
GLOBAL_UNIT_ASSIGNED_CONTEXT((#411,#414,#412))
REPRESENTATION_CONTEXT('','3D')
);
#410=(
GEOMETRIC_REPRESENTATION_CONTEXT(3)
GLOBAL_UNCERTAINTY_ASSIGNED_CONTEXT((#408))
GLOBAL_UNIT_ASSIGNED_CONTEXT((#411,#414,#412))
REPRESENTATION_CONTEXT('','3D')
);
#411=(
LENGTH_UNIT()
NAMED_UNIT(*)
SI_UNIT(.MILLI.,.METRE.)
);
#412=(
NAMED_UNIT(*)
SI_UNIT($,.STERADIAN.)
SOLID_ANGLE_UNIT()
);
#413=DIMENSIONAL_EXPONENTS(0.,0.,0.,0.,0.,0.,0.);
#414=(
CONVERSION_BASED_UNIT('degree',#416)
NAMED_UNIT(#413)
PLANE_ANGLE_UNIT()
);
#415=(
NAMED_UNIT(*)
PLANE_ANGLE_UNIT()
SI_UNIT($,.RADIAN.)
);
#416=PLANE_ANGLE_MEASURE_WITH_UNIT(PLANE_ANGLE_MEASURE(0.01745329252),#415);
#417=SHAPE_DEFINITION_REPRESENTATION(#418,#419);
#418=PRODUCT_DEFINITION_SHAPE('',$,#421);
#419=SHAPE_REPRESENTATION('',(#247),#409);
#420=PRODUCT_DEFINITION_CONTEXT('part definition',#425,'design');
#421=PRODUCT_DEFINITION('30.007.00A','30.007.00A',#422,#420);
#422=PRODUCT_DEFINITION_FORMATION('','A',#427);
#423=PRODUCT_RELATED_PRODUCT_CATEGORY('30.007.00A','30.007.00A',(#427));
#424=APPLICATION_PROTOCOL_DEFINITION('international standard',
'automotive_design',2009,#425);
#425=APPLICATION_CONTEXT(
'Core Data for Automotive Mechanical Design Process');
#426=PRODUCT_CONTEXT('part definition',#425,'mechanical');
#427=PRODUCT('30.007.00A','30.007.00A',$,(#426));
#428=PRESENTATION_STYLE_ASSIGNMENT((#429));
#429=SURFACE_STYLE_USAGE(.BOTH.,#430);
#430=SURFACE_SIDE_STYLE('',(#431));
#431=SURFACE_STYLE_FILL_AREA(#432);
#432=FILL_AREA_STYLE('',(#433));
#433=FILL_AREA_STYLE_COLOUR('',#434);
#434=COLOUR_RGB('',0.956862745098039,0.956862745098039,0.956862745098039);
ENDSEC;
END-ISO-10303-21;
