ISO-10303-21;
HEADER;
/* Generated by software containing ST-Developer
 * from STEP Tools, Inc. (www.steptools.com) 
 */

FILE_DESCRIPTION(
/* description */ ('SQUADRETTA 25X40'),
/* implementation_level */ '2;1');

FILE_NAME(
/* name */ 
'Q:\\Catalogo\\2_Accessori Dierre\\Per Download Web e catalogo cartace
o\\CATALOGO ELEMENTI ASSEMBLAGGIO\\PAGINA 30\\DSQAL0000005.stp',
/* time_stamp */ '2018-03-07T11:27:49+01:00',
/* author */ ('fzagni'),
/* organization */ (''),
/* preprocessor_version */ 'ST-DEVELOPER v16.1',
/* originating_system */ 'Autodesk Inventor 2016',
/* authorisation */ '');

FILE_SCHEMA (('AUTOMOTIVE_DESIGN { 1 0 10303 214 3 1 1 }'));
ENDSEC;

DATA;
#10=MECHANICAL_DESIGN_GEOMETRIC_PRESENTATION_REPRESENTATION('',(#13),#401);
#11=SHAPE_REPRESENTATION_RELATIONSHIP('SRR','None',#410,#12);
#12=ADVANCED_BREP_SHAPE_REPRESENTATION('',(#14),#400);
#13=STYLED_ITEM('',(#419),#14);
#14=MANIFOLD_SOLID_BREP('Solido1',#249);
#15=CYLINDRICAL_SURFACE('',#266,4.25);
#16=CYLINDRICAL_SURFACE('',#267,4.25);
#17=FACE_BOUND('',#46,.T.);
#18=FACE_BOUND('',#48,.T.);
#19=FACE_BOUND('',#51,.T.);
#20=FACE_BOUND('',#54,.T.);
#21=FACE_BOUND('',#57,.T.);
#22=FACE_BOUND('',#59,.T.);
#23=CIRCLE('',#256,4.25);
#24=CIRCLE('',#258,4.25);
#25=CIRCLE('',#261,4.25);
#26=CIRCLE('',#264,4.25);
#27=FACE_OUTER_BOUND('',#41,.T.);
#28=FACE_OUTER_BOUND('',#42,.T.);
#29=FACE_OUTER_BOUND('',#43,.T.);
#30=FACE_OUTER_BOUND('',#44,.T.);
#31=FACE_OUTER_BOUND('',#45,.T.);
#32=FACE_OUTER_BOUND('',#47,.T.);
#33=FACE_OUTER_BOUND('',#49,.T.);
#34=FACE_OUTER_BOUND('',#50,.T.);
#35=FACE_OUTER_BOUND('',#52,.T.);
#36=FACE_OUTER_BOUND('',#53,.T.);
#37=FACE_OUTER_BOUND('',#55,.T.);
#38=FACE_OUTER_BOUND('',#56,.T.);
#39=FACE_OUTER_BOUND('',#58,.T.);
#40=FACE_OUTER_BOUND('',#60,.T.);
#41=EDGE_LOOP('',(#163,#164,#165,#166,#167));
#42=EDGE_LOOP('',(#168,#169,#170,#171));
#43=EDGE_LOOP('',(#172,#173,#174,#175));
#44=EDGE_LOOP('',(#176,#177,#178,#179,#180,#181));
#45=EDGE_LOOP('',(#182,#183,#184,#185));
#46=EDGE_LOOP('',(#186));
#47=EDGE_LOOP('',(#187,#188,#189,#190));
#48=EDGE_LOOP('',(#191));
#49=EDGE_LOOP('',(#192,#193,#194,#195,#196,#197));
#50=EDGE_LOOP('',(#198,#199,#200,#201));
#51=EDGE_LOOP('',(#202));
#52=EDGE_LOOP('',(#203,#204,#205));
#53=EDGE_LOOP('',(#206,#207,#208,#209));
#54=EDGE_LOOP('',(#210));
#55=EDGE_LOOP('',(#211,#212,#213));
#56=EDGE_LOOP('',(#214));
#57=EDGE_LOOP('',(#215));
#58=EDGE_LOOP('',(#216));
#59=EDGE_LOOP('',(#217));
#60=EDGE_LOOP('',(#218,#219,#220,#221,#222));
#61=LINE('',#337,#87);
#62=LINE('',#339,#88);
#63=LINE('',#341,#89);
#64=LINE('',#343,#90);
#65=LINE('',#344,#91);
#66=LINE('',#347,#92);
#67=LINE('',#349,#93);
#68=LINE('',#350,#94);
#69=LINE('',#354,#95);
#70=LINE('',#356,#96);
#71=LINE('',#358,#97);
#72=LINE('',#359,#98);
#73=LINE('',#361,#99);
#74=LINE('',#363,#100);
#75=LINE('',#364,#101);
#76=LINE('',#367,#102);
#77=LINE('',#368,#103);
#78=LINE('',#373,#104);
#79=LINE('',#374,#105);
#80=LINE('',#378,#106);
#81=LINE('',#379,#107);
#82=LINE('',#382,#108);
#83=LINE('',#384,#109);
#84=LINE('',#385,#110);
#85=LINE('',#389,#111);
#86=LINE('',#391,#112);
#87=VECTOR('',#273,49.4974746830583);
#88=VECTOR('',#274,5.);
#89=VECTOR('',#275,40.);
#90=VECTOR('',#276,40.);
#91=VECTOR('',#277,5.);
#92=VECTOR('',#280,3.);
#93=VECTOR('',#281,49.4974746830583);
#94=VECTOR('',#282,3.);
#95=VECTOR('',#285,49.4974746830583);
#96=VECTOR('',#286,3.);
#97=VECTOR('',#287,49.4974746830583);
#98=VECTOR('',#288,3.);
#99=VECTOR('',#291,19.);
#100=VECTOR('',#292,5.);
#101=VECTOR('',#293,25.);
#102=VECTOR('',#296,40.);
#103=VECTOR('',#297,25.);
#104=VECTOR('',#302,40.);
#105=VECTOR('',#303,25.);
#106=VECTOR('',#308,5.);
#107=VECTOR('',#309,19.);
#108=VECTOR('',#312,35.);
#109=VECTOR('',#313,19.);
#110=VECTOR('',#314,35.);
#111=VECTOR('',#319,35.);
#112=VECTOR('',#322,35.);
#113=VERTEX_POINT('',#335);
#114=VERTEX_POINT('',#336);
#115=VERTEX_POINT('',#338);
#116=VERTEX_POINT('',#340);
#117=VERTEX_POINT('',#342);
#118=VERTEX_POINT('',#346);
#119=VERTEX_POINT('',#348);
#120=VERTEX_POINT('',#352);
#121=VERTEX_POINT('',#353);
#122=VERTEX_POINT('',#355);
#123=VERTEX_POINT('',#357);
#124=VERTEX_POINT('',#362);
#125=VERTEX_POINT('',#366);
#126=VERTEX_POINT('',#369);
#127=VERTEX_POINT('',#372);
#128=VERTEX_POINT('',#375);
#129=VERTEX_POINT('',#381);
#130=VERTEX_POINT('',#383);
#131=VERTEX_POINT('',#386);
#132=VERTEX_POINT('',#392);
#133=EDGE_CURVE('',#113,#114,#61,.T.);
#134=EDGE_CURVE('',#115,#114,#62,.T.);
#135=EDGE_CURVE('',#116,#115,#63,.T.);
#136=EDGE_CURVE('',#117,#116,#64,.T.);
#137=EDGE_CURVE('',#113,#117,#65,.T.);
#138=EDGE_CURVE('',#113,#118,#66,.T.);
#139=EDGE_CURVE('',#118,#119,#67,.T.);
#140=EDGE_CURVE('',#114,#119,#68,.T.);
#141=EDGE_CURVE('',#120,#121,#69,.T.);
#142=EDGE_CURVE('',#120,#122,#70,.T.);
#143=EDGE_CURVE('',#122,#123,#71,.T.);
#144=EDGE_CURVE('',#121,#123,#72,.T.);
#145=EDGE_CURVE('',#121,#119,#73,.T.);
#146=EDGE_CURVE('',#124,#123,#74,.T.);
#147=EDGE_CURVE('',#115,#124,#75,.T.);
#148=EDGE_CURVE('',#125,#124,#76,.T.);
#149=EDGE_CURVE('',#116,#125,#77,.T.);
#150=EDGE_CURVE('',#126,#126,#23,.T.);
#151=EDGE_CURVE('',#127,#125,#78,.T.);
#152=EDGE_CURVE('',#117,#127,#79,.T.);
#153=EDGE_CURVE('',#128,#128,#24,.T.);
#154=EDGE_CURVE('',#122,#127,#80,.T.);
#155=EDGE_CURVE('',#120,#118,#81,.T.);
#156=EDGE_CURVE('',#120,#129,#82,.T.);
#157=EDGE_CURVE('',#129,#130,#83,.T.);
#158=EDGE_CURVE('',#130,#118,#84,.T.);
#159=EDGE_CURVE('',#131,#131,#25,.T.);
#160=EDGE_CURVE('',#119,#130,#85,.T.);
#161=EDGE_CURVE('',#121,#129,#86,.T.);
#162=EDGE_CURVE('',#132,#132,#26,.T.);
#163=ORIENTED_EDGE('',*,*,#133,.T.);
#164=ORIENTED_EDGE('',*,*,#134,.F.);
#165=ORIENTED_EDGE('',*,*,#135,.F.);
#166=ORIENTED_EDGE('',*,*,#136,.F.);
#167=ORIENTED_EDGE('',*,*,#137,.F.);
#168=ORIENTED_EDGE('',*,*,#133,.F.);
#169=ORIENTED_EDGE('',*,*,#138,.T.);
#170=ORIENTED_EDGE('',*,*,#139,.T.);
#171=ORIENTED_EDGE('',*,*,#140,.F.);
#172=ORIENTED_EDGE('',*,*,#141,.F.);
#173=ORIENTED_EDGE('',*,*,#142,.T.);
#174=ORIENTED_EDGE('',*,*,#143,.T.);
#175=ORIENTED_EDGE('',*,*,#144,.F.);
#176=ORIENTED_EDGE('',*,*,#140,.T.);
#177=ORIENTED_EDGE('',*,*,#145,.F.);
#178=ORIENTED_EDGE('',*,*,#144,.T.);
#179=ORIENTED_EDGE('',*,*,#146,.F.);
#180=ORIENTED_EDGE('',*,*,#147,.F.);
#181=ORIENTED_EDGE('',*,*,#134,.T.);
#182=ORIENTED_EDGE('',*,*,#135,.T.);
#183=ORIENTED_EDGE('',*,*,#147,.T.);
#184=ORIENTED_EDGE('',*,*,#148,.F.);
#185=ORIENTED_EDGE('',*,*,#149,.F.);
#186=ORIENTED_EDGE('',*,*,#150,.T.);
#187=ORIENTED_EDGE('',*,*,#136,.T.);
#188=ORIENTED_EDGE('',*,*,#149,.T.);
#189=ORIENTED_EDGE('',*,*,#151,.F.);
#190=ORIENTED_EDGE('',*,*,#152,.F.);
#191=ORIENTED_EDGE('',*,*,#153,.T.);
#192=ORIENTED_EDGE('',*,*,#138,.F.);
#193=ORIENTED_EDGE('',*,*,#137,.T.);
#194=ORIENTED_EDGE('',*,*,#152,.T.);
#195=ORIENTED_EDGE('',*,*,#154,.F.);
#196=ORIENTED_EDGE('',*,*,#142,.F.);
#197=ORIENTED_EDGE('',*,*,#155,.T.);
#198=ORIENTED_EDGE('',*,*,#155,.F.);
#199=ORIENTED_EDGE('',*,*,#156,.T.);
#200=ORIENTED_EDGE('',*,*,#157,.T.);
#201=ORIENTED_EDGE('',*,*,#158,.T.);
#202=ORIENTED_EDGE('',*,*,#159,.F.);
#203=ORIENTED_EDGE('',*,*,#139,.F.);
#204=ORIENTED_EDGE('',*,*,#158,.F.);
#205=ORIENTED_EDGE('',*,*,#160,.F.);
#206=ORIENTED_EDGE('',*,*,#145,.T.);
#207=ORIENTED_EDGE('',*,*,#160,.T.);
#208=ORIENTED_EDGE('',*,*,#157,.F.);
#209=ORIENTED_EDGE('',*,*,#161,.F.);
#210=ORIENTED_EDGE('',*,*,#162,.F.);
#211=ORIENTED_EDGE('',*,*,#141,.T.);
#212=ORIENTED_EDGE('',*,*,#161,.T.);
#213=ORIENTED_EDGE('',*,*,#156,.F.);
#214=ORIENTED_EDGE('',*,*,#150,.F.);
#215=ORIENTED_EDGE('',*,*,#162,.T.);
#216=ORIENTED_EDGE('',*,*,#153,.F.);
#217=ORIENTED_EDGE('',*,*,#159,.T.);
#218=ORIENTED_EDGE('',*,*,#143,.F.);
#219=ORIENTED_EDGE('',*,*,#154,.T.);
#220=ORIENTED_EDGE('',*,*,#151,.T.);
#221=ORIENTED_EDGE('',*,*,#148,.T.);
#222=ORIENTED_EDGE('',*,*,#146,.T.);
#223=PLANE('',#251);
#224=PLANE('',#252);
#225=PLANE('',#253);
#226=PLANE('',#254);
#227=PLANE('',#255);
#228=PLANE('',#257);
#229=PLANE('',#259);
#230=PLANE('',#260);
#231=PLANE('',#262);
#232=PLANE('',#263);
#233=PLANE('',#265);
#234=PLANE('',#268);
#235=ADVANCED_FACE('',(#27),#223,.F.);
#236=ADVANCED_FACE('',(#28),#224,.F.);
#237=ADVANCED_FACE('',(#29),#225,.F.);
#238=ADVANCED_FACE('',(#30),#226,.T.);
#239=ADVANCED_FACE('',(#31,#17),#227,.T.);
#240=ADVANCED_FACE('',(#32,#18),#228,.T.);
#241=ADVANCED_FACE('',(#33),#229,.T.);
#242=ADVANCED_FACE('',(#34,#19),#230,.T.);
#243=ADVANCED_FACE('',(#35),#231,.F.);
#244=ADVANCED_FACE('',(#36,#20),#232,.F.);
#245=ADVANCED_FACE('',(#37),#233,.F.);
#246=ADVANCED_FACE('',(#38,#21),#15,.F.);
#247=ADVANCED_FACE('',(#39,#22),#16,.F.);
#248=ADVANCED_FACE('',(#40),#234,.T.);
#249=CLOSED_SHELL('',(#235,#236,#237,#238,#239,#240,#241,#242,#243,#244,
#245,#246,#247,#248));
#250=AXIS2_PLACEMENT_3D('placement',#333,#269,#270);
#251=AXIS2_PLACEMENT_3D('',#334,#271,#272);
#252=AXIS2_PLACEMENT_3D('',#345,#278,#279);
#253=AXIS2_PLACEMENT_3D('',#351,#283,#284);
#254=AXIS2_PLACEMENT_3D('',#360,#289,#290);
#255=AXIS2_PLACEMENT_3D('',#365,#294,#295);
#256=AXIS2_PLACEMENT_3D('',#370,#298,#299);
#257=AXIS2_PLACEMENT_3D('',#371,#300,#301);
#258=AXIS2_PLACEMENT_3D('',#376,#304,#305);
#259=AXIS2_PLACEMENT_3D('',#377,#306,#307);
#260=AXIS2_PLACEMENT_3D('',#380,#310,#311);
#261=AXIS2_PLACEMENT_3D('',#387,#315,#316);
#262=AXIS2_PLACEMENT_3D('',#388,#317,#318);
#263=AXIS2_PLACEMENT_3D('',#390,#320,#321);
#264=AXIS2_PLACEMENT_3D('',#393,#323,#324);
#265=AXIS2_PLACEMENT_3D('',#394,#325,#326);
#266=AXIS2_PLACEMENT_3D('',#395,#327,#328);
#267=AXIS2_PLACEMENT_3D('',#396,#329,#330);
#268=AXIS2_PLACEMENT_3D('',#397,#331,#332);
#269=DIRECTION('axis',(0.,0.,1.));
#270=DIRECTION('refdir',(1.,0.,0.));
#271=DIRECTION('center_axis',(0.,0.,1.));
#272=DIRECTION('ref_axis',(1.,0.,0.));
#273=DIRECTION('',(0.707106781186547,-0.707106781186547,0.));
#274=DIRECTION('',(0.,1.,0.));
#275=DIRECTION('',(1.,0.,0.));
#276=DIRECTION('',(0.,-1.,0.));
#277=DIRECTION('',(-1.,0.,0.));
#278=DIRECTION('center_axis',(-0.707106781186548,-0.707106781186548,0.));
#279=DIRECTION('ref_axis',(0.707106781186548,-0.707106781186547,0.));
#280=DIRECTION('',(0.,0.,1.));
#281=DIRECTION('',(0.707106781186547,-0.707106781186547,0.));
#282=DIRECTION('',(0.,0.,1.));
#283=DIRECTION('center_axis',(-0.707106781186548,-0.707106781186548,0.));
#284=DIRECTION('ref_axis',(0.707106781186548,-0.707106781186547,0.));
#285=DIRECTION('',(0.707106781186547,-0.707106781186547,0.));
#286=DIRECTION('',(0.,0.,1.));
#287=DIRECTION('',(0.707106781186547,-0.707106781186547,0.));
#288=DIRECTION('',(0.,0.,1.));
#289=DIRECTION('center_axis',(1.,0.,0.));
#290=DIRECTION('ref_axis',(0.,1.,0.));
#291=DIRECTION('',(0.,0.,-1.));
#292=DIRECTION('',(0.,1.,0.));
#293=DIRECTION('',(0.,0.,1.));
#294=DIRECTION('center_axis',(0.,-1.,0.));
#295=DIRECTION('ref_axis',(1.,0.,0.));
#296=DIRECTION('',(1.,0.,0.));
#297=DIRECTION('',(0.,0.,1.));
#298=DIRECTION('center_axis',(0.,1.,0.));
#299=DIRECTION('ref_axis',(-1.,0.,0.));
#300=DIRECTION('center_axis',(-1.,0.,0.));
#301=DIRECTION('ref_axis',(0.,-1.,0.));
#302=DIRECTION('',(0.,-1.,0.));
#303=DIRECTION('',(0.,0.,1.));
#304=DIRECTION('center_axis',(1.,0.,0.));
#305=DIRECTION('ref_axis',(0.,1.,0.));
#306=DIRECTION('center_axis',(0.,1.,0.));
#307=DIRECTION('ref_axis',(-1.,0.,0.));
#308=DIRECTION('',(-1.,0.,0.));
#309=DIRECTION('',(0.,0.,-1.));
#310=DIRECTION('center_axis',(1.,0.,0.));
#311=DIRECTION('ref_axis',(0.,0.,-1.));
#312=DIRECTION('',(0.,-1.,0.));
#313=DIRECTION('',(0.,0.,-1.));
#314=DIRECTION('',(0.,1.,0.));
#315=DIRECTION('center_axis',(1.,0.,0.));
#316=DIRECTION('ref_axis',(0.,1.,0.));
#317=DIRECTION('center_axis',(0.,0.,-1.));
#318=DIRECTION('ref_axis',(0.,1.,0.));
#319=DIRECTION('',(-1.,0.,0.));
#320=DIRECTION('center_axis',(0.,-1.,0.));
#321=DIRECTION('ref_axis',(0.,0.,-1.));
#322=DIRECTION('',(-1.,0.,0.));
#323=DIRECTION('center_axis',(0.,1.,0.));
#324=DIRECTION('ref_axis',(-1.,0.,0.));
#325=DIRECTION('center_axis',(0.,0.,1.));
#326=DIRECTION('ref_axis',(0.,-1.,0.));
#327=DIRECTION('center_axis',(0.,1.,0.));
#328=DIRECTION('ref_axis',(-1.,0.,0.));
#329=DIRECTION('center_axis',(1.,0.,0.));
#330=DIRECTION('ref_axis',(0.,1.,0.));
#331=DIRECTION('center_axis',(0.,0.,1.));
#332=DIRECTION('ref_axis',(1.,0.,0.));
#333=CARTESIAN_POINT('',(0.,0.,0.));
#334=CARTESIAN_POINT('Origin',(0.,0.,-12.5));
#335=CARTESIAN_POINT('',(-15.,20.,-12.5));
#336=CARTESIAN_POINT('',(20.,-15.,-12.5));
#337=CARTESIAN_POINT('',(-15.,20.,-12.5));
#338=CARTESIAN_POINT('',(20.,-20.,-12.5));
#339=CARTESIAN_POINT('',(20.,-20.,-12.5));
#340=CARTESIAN_POINT('',(-20.,-20.,-12.5));
#341=CARTESIAN_POINT('',(-20.,-20.,-12.5));
#342=CARTESIAN_POINT('',(-20.,20.,-12.5));
#343=CARTESIAN_POINT('',(-20.,20.,-12.5));
#344=CARTESIAN_POINT('',(-15.,20.,-12.5));
#345=CARTESIAN_POINT('Origin',(-15.,20.,12.5));
#346=CARTESIAN_POINT('',(-15.,20.,-9.5));
#347=CARTESIAN_POINT('',(-15.,20.,-12.5));
#348=CARTESIAN_POINT('',(20.,-15.,-9.5));
#349=CARTESIAN_POINT('',(-15.,20.,-9.5));
#350=CARTESIAN_POINT('',(20.,-15.,-12.5));
#351=CARTESIAN_POINT('Origin',(-15.,20.,12.5));
#352=CARTESIAN_POINT('',(-15.,20.,9.5));
#353=CARTESIAN_POINT('',(20.,-15.,9.5));
#354=CARTESIAN_POINT('',(-15.,20.,9.5));
#355=CARTESIAN_POINT('',(-15.,20.,12.5));
#356=CARTESIAN_POINT('',(-15.,20.,9.5));
#357=CARTESIAN_POINT('',(20.,-15.,12.5));
#358=CARTESIAN_POINT('',(-15.,20.,12.5));
#359=CARTESIAN_POINT('',(20.,-15.,9.5));
#360=CARTESIAN_POINT('Origin',(20.,-20.,-12.5));
#361=CARTESIAN_POINT('',(20.,-15.,9.5));
#362=CARTESIAN_POINT('',(20.,-20.,12.5));
#363=CARTESIAN_POINT('',(20.,-20.,12.5));
#364=CARTESIAN_POINT('',(20.,-20.,-12.5));
#365=CARTESIAN_POINT('Origin',(-20.,-20.,-12.5));
#366=CARTESIAN_POINT('',(-20.,-20.,12.5));
#367=CARTESIAN_POINT('',(-20.,-20.,12.5));
#368=CARTESIAN_POINT('',(-20.,-20.,-12.5));
#369=CARTESIAN_POINT('',(6.75,-20.,0.));
#370=CARTESIAN_POINT('Origin',(2.5,-20.,0.));
#371=CARTESIAN_POINT('Origin',(-20.,20.,-12.5));
#372=CARTESIAN_POINT('',(-20.,20.,12.5));
#373=CARTESIAN_POINT('',(-20.,20.,12.5));
#374=CARTESIAN_POINT('',(-20.,20.,-12.5));
#375=CARTESIAN_POINT('',(-20.,-1.75,0.));
#376=CARTESIAN_POINT('Origin',(-20.,2.5,0.));
#377=CARTESIAN_POINT('Origin',(20.,20.,-12.5));
#378=CARTESIAN_POINT('',(-15.,20.,12.5));
#379=CARTESIAN_POINT('',(-15.,20.,9.5));
#380=CARTESIAN_POINT('Origin',(-15.,0.,-12.5));
#381=CARTESIAN_POINT('',(-15.,-15.,9.5));
#382=CARTESIAN_POINT('',(-15.,20.,9.5));
#383=CARTESIAN_POINT('',(-15.,-15.,-9.5));
#384=CARTESIAN_POINT('',(-15.,-15.,9.5));
#385=CARTESIAN_POINT('',(-15.,-15.,-9.5));
#386=CARTESIAN_POINT('',(-15.,-1.75,0.));
#387=CARTESIAN_POINT('Origin',(-15.,2.5,0.));
#388=CARTESIAN_POINT('Origin',(20.,-15.,-9.5));
#389=CARTESIAN_POINT('',(20.,-15.,-9.5));
#390=CARTESIAN_POINT('Origin',(20.,-15.,9.5));
#391=CARTESIAN_POINT('',(20.,-15.,9.5));
#392=CARTESIAN_POINT('',(6.75,-15.,0.));
#393=CARTESIAN_POINT('Origin',(2.5,-15.,0.));
#394=CARTESIAN_POINT('Origin',(20.,20.,9.5));
#395=CARTESIAN_POINT('Origin',(2.5,-20.,0.));
#396=CARTESIAN_POINT('Origin',(-20.,2.5,0.));
#397=CARTESIAN_POINT('Origin',(0.,0.,12.5));
#398=UNCERTAINTY_MEASURE_WITH_UNIT(LENGTH_MEASURE(0.01),#402,
'DISTANCE_ACCURACY_VALUE',
'Maximum model space distance between geometric entities at asserted c
onnectivities');
#399=UNCERTAINTY_MEASURE_WITH_UNIT(LENGTH_MEASURE(1.E-6),#402,
'DISTANCE_ACCURACY_VALUE',
'Maximum model space distance between geometric entities at asserted c
onnectivities');
#400=(
GEOMETRIC_REPRESENTATION_CONTEXT(3)
GLOBAL_UNCERTAINTY_ASSIGNED_CONTEXT((#398))
GLOBAL_UNIT_ASSIGNED_CONTEXT((#402,#405,#403))
REPRESENTATION_CONTEXT('','3D')
);
#401=(
GEOMETRIC_REPRESENTATION_CONTEXT(3)
GLOBAL_UNCERTAINTY_ASSIGNED_CONTEXT((#399))
GLOBAL_UNIT_ASSIGNED_CONTEXT((#402,#405,#403))
REPRESENTATION_CONTEXT('','3D')
);
#402=(
LENGTH_UNIT()
NAMED_UNIT(*)
SI_UNIT(.MILLI.,.METRE.)
);
#403=(
NAMED_UNIT(*)
SI_UNIT($,.STERADIAN.)
SOLID_ANGLE_UNIT()
);
#404=DIMENSIONAL_EXPONENTS(0.,0.,0.,0.,0.,0.,0.);
#405=(
CONVERSION_BASED_UNIT('degree',#407)
NAMED_UNIT(#404)
PLANE_ANGLE_UNIT()
);
#406=(
NAMED_UNIT(*)
PLANE_ANGLE_UNIT()
SI_UNIT($,.RADIAN.)
);
#407=PLANE_ANGLE_MEASURE_WITH_UNIT(PLANE_ANGLE_MEASURE(0.01745329252),#406);
#408=SHAPE_DEFINITION_REPRESENTATION(#409,#410);
#409=PRODUCT_DEFINITION_SHAPE('',$,#412);
#410=SHAPE_REPRESENTATION('',(#250),#400);
#411=PRODUCT_DEFINITION_CONTEXT('part definition',#416,'design');
#412=PRODUCT_DEFINITION('F3DTM0006952','F3DTM0006952',#413,#411);
#413=PRODUCT_DEFINITION_FORMATION('','A',#418);
#414=PRODUCT_RELATED_PRODUCT_CATEGORY('F3DTM0006952','F3DTM0006952',(#418));
#415=APPLICATION_PROTOCOL_DEFINITION('international standard',
'automotive_design',2009,#416);
#416=APPLICATION_CONTEXT(
'Core Data for Automotive Mechanical Design Process');
#417=PRODUCT_CONTEXT('part definition',#416,'mechanical');
#418=PRODUCT('F3DTM0006952','F3DTM0006952',$,(#417));
#419=PRESENTATION_STYLE_ASSIGNMENT((#420));
#420=SURFACE_STYLE_USAGE(.BOTH.,#421);
#421=SURFACE_SIDE_STYLE('',(#422));
#422=SURFACE_STYLE_FILL_AREA(#423);
#423=FILL_AREA_STYLE('',(#424));
#424=FILL_AREA_STYLE_COLOUR('',#425);
#425=COLOUR_RGB('',0.690196078431373,0.67843137254902,0.67843137254902);
ENDSEC;
END-ISO-10303-21;
