ISO-10303-21;
HEADER;
/* Generated by software containing ST-Developer
 * from STEP Tools, Inc. (www.steptools.com) 
 */

FILE_DESCRIPTION(
/* description */ ('PIASTRA 45X90 SP.10 ALLUMINIO ANODIZZATO'),
/* implementation_level */ '2;1');

FILE_NAME(
/* name */ 
'C:\\Users\\tecnico7\\Desktop\\NUOVI DISEGNI 3D\\DPSXX0001724.stp',
/* time_stamp */ '2022-11-22T10:42:03+01:00',
/* author */ ('tecnico7'),
/* organization */ (''),
/* preprocessor_version */ 'ST-DEVELOPER v18.1',
/* originating_system */ 'Autodesk Inventor 2022',
/* authorisation */ '');

FILE_SCHEMA (('AUTOMOTIVE_DESIGN { 1 0 10303 214 3 1 1 }'));
ENDSEC;

DATA;
#10=MECHANICAL_DESIGN_GEOMETRIC_PRESENTATION_REPRESENTATION('',(#13),#539);
#11=SHAPE_REPRESENTATION_RELATIONSHIP('SRR','None',#546,#12);
#12=ADVANCED_BREP_SHAPE_REPRESENTATION('',(#14),#538);
#13=STYLED_ITEM('',(#555),#14);
#14=MANIFOLD_SOLID_BREP('Solido1',#302);
#15=FACE_BOUND('',#51,.T.);
#16=FACE_BOUND('',#52,.T.);
#17=FACE_BOUND('',#53,.T.);
#18=FACE_BOUND('',#60,.T.);
#19=FACE_BOUND('',#64,.T.);
#20=FACE_BOUND('',#70,.T.);
#21=FACE_BOUND('',#71,.T.);
#22=FACE_BOUND('',#72,.T.);
#23=PLANE('',#328);
#24=PLANE('',#329);
#25=PLANE('',#338);
#26=PLANE('',#341);
#27=PLANE('',#344);
#28=PLANE('',#350);
#29=PLANE('',#358);
#30=PLANE('',#359);
#31=FACE_OUTER_BOUND('',#48,.T.);
#32=FACE_OUTER_BOUND('',#49,.T.);
#33=FACE_OUTER_BOUND('',#50,.T.);
#34=FACE_OUTER_BOUND('',#54,.T.);
#35=FACE_OUTER_BOUND('',#55,.T.);
#36=FACE_OUTER_BOUND('',#56,.T.);
#37=FACE_OUTER_BOUND('',#57,.T.);
#38=FACE_OUTER_BOUND('',#58,.T.);
#39=FACE_OUTER_BOUND('',#59,.T.);
#40=FACE_OUTER_BOUND('',#61,.T.);
#41=FACE_OUTER_BOUND('',#62,.T.);
#42=FACE_OUTER_BOUND('',#63,.T.);
#43=FACE_OUTER_BOUND('',#65,.T.);
#44=FACE_OUTER_BOUND('',#66,.T.);
#45=FACE_OUTER_BOUND('',#67,.T.);
#46=FACE_OUTER_BOUND('',#68,.T.);
#47=FACE_OUTER_BOUND('',#69,.T.);
#48=EDGE_LOOP('',(#198,#199,#200,#201));
#49=EDGE_LOOP('',(#202,#203,#204,#205));
#50=EDGE_LOOP('',(#206,#207,#208,#209,#210,#211,#212,#213));
#51=EDGE_LOOP('',(#214));
#52=EDGE_LOOP('',(#215));
#53=EDGE_LOOP('',(#216));
#54=EDGE_LOOP('',(#217,#218,#219,#220));
#55=EDGE_LOOP('',(#221,#222,#223,#224));
#56=EDGE_LOOP('',(#225,#226,#227,#228));
#57=EDGE_LOOP('',(#229,#230,#231,#232));
#58=EDGE_LOOP('',(#233,#234,#235,#236));
#59=EDGE_LOOP('',(#237));
#60=EDGE_LOOP('',(#238));
#61=EDGE_LOOP('',(#239,#240,#241,#242));
#62=EDGE_LOOP('',(#243,#244,#245,#246));
#63=EDGE_LOOP('',(#247));
#64=EDGE_LOOP('',(#248));
#65=EDGE_LOOP('',(#249,#250,#251,#252));
#66=EDGE_LOOP('',(#253,#254,#255,#256));
#67=EDGE_LOOP('',(#257,#258,#259,#260));
#68=EDGE_LOOP('',(#261,#262,#263,#264));
#69=EDGE_LOOP('',(#265,#266,#267,#268,#269,#270,#271,#272));
#70=EDGE_LOOP('',(#273));
#71=EDGE_LOOP('',(#274));
#72=EDGE_LOOP('',(#275));
#73=LINE('',#459,#94);
#74=LINE('',#462,#95);
#75=LINE('',#465,#96);
#76=LINE('',#467,#97);
#77=LINE('',#468,#98);
#78=LINE('',#471,#99);
#79=LINE('',#475,#100);
#80=LINE('',#479,#101);
#81=LINE('',#490,#102);
#82=LINE('',#493,#103);
#83=LINE('',#494,#104);
#84=LINE('',#499,#105);
#85=LINE('',#500,#106);
#86=LINE('',#502,#107);
#87=LINE('',#506,#108);
#88=LINE('',#515,#109);
#89=LINE('',#517,#110);
#90=LINE('',#526,#111);
#91=LINE('',#528,#112);
#92=LINE('',#532,#113);
#93=LINE('',#534,#114);
#94=VECTOR('',#366,10.);
#95=VECTOR('',#369,10.);
#96=VECTOR('',#372,10.);
#97=VECTOR('',#373,10.);
#98=VECTOR('',#374,10.);
#99=VECTOR('',#377,10.);
#100=VECTOR('',#380,10.);
#101=VECTOR('',#383,10.);
#102=VECTOR('',#396,10.);
#103=VECTOR('',#399,10.);
#104=VECTOR('',#400,10.);
#105=VECTOR('',#405,10.);
#106=VECTOR('',#406,10.);
#107=VECTOR('',#409,10.);
#108=VECTOR('',#414,10.);
#109=VECTOR('',#425,6.75);
#110=VECTOR('',#428,4.25);
#111=VECTOR('',#439,6.75);
#112=VECTOR('',#442,4.25);
#113=VECTOR('',#447,4.188);
#114=VECTOR('',#450,10.);
#115=CIRCLE('',#326,3.);
#116=CIRCLE('',#327,3.);
#117=CIRCLE('',#330,3.);
#118=CIRCLE('',#331,3.);
#119=CIRCLE('',#332,3.);
#120=CIRCLE('',#333,4.25);
#121=CIRCLE('',#334,4.25);
#122=CIRCLE('',#335,4.188);
#123=CIRCLE('',#337,3.);
#124=CIRCLE('',#340,3.);
#125=CIRCLE('',#343,3.);
#126=CIRCLE('',#345,6.75);
#127=CIRCLE('',#346,4.25);
#128=CIRCLE('',#348,6.75);
#129=CIRCLE('',#351,6.75);
#130=CIRCLE('',#352,4.25);
#131=CIRCLE('',#354,6.75);
#132=CIRCLE('',#357,4.188);
#133=VERTEX_POINT('',#455);
#134=VERTEX_POINT('',#456);
#135=VERTEX_POINT('',#458);
#136=VERTEX_POINT('',#460);
#137=VERTEX_POINT('',#464);
#138=VERTEX_POINT('',#466);
#139=VERTEX_POINT('',#470);
#140=VERTEX_POINT('',#472);
#141=VERTEX_POINT('',#474);
#142=VERTEX_POINT('',#476);
#143=VERTEX_POINT('',#478);
#144=VERTEX_POINT('',#481);
#145=VERTEX_POINT('',#483);
#146=VERTEX_POINT('',#485);
#147=VERTEX_POINT('',#488);
#148=VERTEX_POINT('',#492);
#149=VERTEX_POINT('',#496);
#150=VERTEX_POINT('',#497);
#151=VERTEX_POINT('',#504);
#152=VERTEX_POINT('',#508);
#153=VERTEX_POINT('',#510);
#154=VERTEX_POINT('',#513);
#155=VERTEX_POINT('',#519);
#156=VERTEX_POINT('',#521);
#157=VERTEX_POINT('',#524);
#158=VERTEX_POINT('',#530);
#159=EDGE_CURVE('',#133,#134,#115,.T.);
#160=EDGE_CURVE('',#134,#135,#73,.T.);
#161=EDGE_CURVE('',#135,#136,#116,.T.);
#162=EDGE_CURVE('',#136,#133,#74,.T.);
#163=EDGE_CURVE('',#137,#136,#75,.T.);
#164=EDGE_CURVE('',#138,#137,#76,.T.);
#165=EDGE_CURVE('',#133,#138,#77,.T.);
#166=EDGE_CURVE('',#135,#139,#78,.T.);
#167=EDGE_CURVE('',#140,#139,#117,.T.);
#168=EDGE_CURVE('',#140,#141,#79,.T.);
#169=EDGE_CURVE('',#142,#141,#118,.T.);
#170=EDGE_CURVE('',#142,#143,#80,.T.);
#171=EDGE_CURVE('',#137,#143,#119,.T.);
#172=EDGE_CURVE('',#144,#144,#120,.T.);
#173=EDGE_CURVE('',#145,#145,#121,.T.);
#174=EDGE_CURVE('',#146,#146,#122,.T.);
#175=EDGE_CURVE('',#147,#138,#123,.T.);
#176=EDGE_CURVE('',#143,#147,#81,.T.);
#177=EDGE_CURVE('',#148,#142,#82,.T.);
#178=EDGE_CURVE('',#147,#148,#83,.T.);
#179=EDGE_CURVE('',#149,#150,#124,.T.);
#180=EDGE_CURVE('',#150,#140,#84,.T.);
#181=EDGE_CURVE('',#139,#149,#85,.T.);
#182=EDGE_CURVE('',#149,#134,#86,.T.);
#183=EDGE_CURVE('',#151,#148,#125,.T.);
#184=EDGE_CURVE('',#141,#151,#87,.T.);
#185=EDGE_CURVE('',#152,#152,#126,.T.);
#186=EDGE_CURVE('',#153,#153,#127,.T.);
#187=EDGE_CURVE('',#154,#154,#128,.T.);
#188=EDGE_CURVE('',#154,#152,#88,.T.);
#189=EDGE_CURVE('',#153,#144,#89,.T.);
#190=EDGE_CURVE('',#155,#155,#129,.T.);
#191=EDGE_CURVE('',#156,#156,#130,.T.);
#192=EDGE_CURVE('',#157,#157,#131,.T.);
#193=EDGE_CURVE('',#157,#155,#90,.T.);
#194=EDGE_CURVE('',#156,#145,#91,.T.);
#195=EDGE_CURVE('',#158,#158,#132,.T.);
#196=EDGE_CURVE('',#158,#146,#92,.T.);
#197=EDGE_CURVE('',#151,#150,#93,.T.);
#198=ORIENTED_EDGE('',*,*,#159,.T.);
#199=ORIENTED_EDGE('',*,*,#160,.T.);
#200=ORIENTED_EDGE('',*,*,#161,.T.);
#201=ORIENTED_EDGE('',*,*,#162,.T.);
#202=ORIENTED_EDGE('',*,*,#162,.F.);
#203=ORIENTED_EDGE('',*,*,#163,.F.);
#204=ORIENTED_EDGE('',*,*,#164,.F.);
#205=ORIENTED_EDGE('',*,*,#165,.F.);
#206=ORIENTED_EDGE('',*,*,#161,.F.);
#207=ORIENTED_EDGE('',*,*,#166,.T.);
#208=ORIENTED_EDGE('',*,*,#167,.F.);
#209=ORIENTED_EDGE('',*,*,#168,.T.);
#210=ORIENTED_EDGE('',*,*,#169,.F.);
#211=ORIENTED_EDGE('',*,*,#170,.T.);
#212=ORIENTED_EDGE('',*,*,#171,.F.);
#213=ORIENTED_EDGE('',*,*,#163,.T.);
#214=ORIENTED_EDGE('',*,*,#172,.T.);
#215=ORIENTED_EDGE('',*,*,#173,.T.);
#216=ORIENTED_EDGE('',*,*,#174,.T.);
#217=ORIENTED_EDGE('',*,*,#175,.T.);
#218=ORIENTED_EDGE('',*,*,#164,.T.);
#219=ORIENTED_EDGE('',*,*,#171,.T.);
#220=ORIENTED_EDGE('',*,*,#176,.T.);
#221=ORIENTED_EDGE('',*,*,#176,.F.);
#222=ORIENTED_EDGE('',*,*,#170,.F.);
#223=ORIENTED_EDGE('',*,*,#177,.F.);
#224=ORIENTED_EDGE('',*,*,#178,.F.);
#225=ORIENTED_EDGE('',*,*,#179,.T.);
#226=ORIENTED_EDGE('',*,*,#180,.T.);
#227=ORIENTED_EDGE('',*,*,#167,.T.);
#228=ORIENTED_EDGE('',*,*,#181,.T.);
#229=ORIENTED_EDGE('',*,*,#160,.F.);
#230=ORIENTED_EDGE('',*,*,#182,.F.);
#231=ORIENTED_EDGE('',*,*,#181,.F.);
#232=ORIENTED_EDGE('',*,*,#166,.F.);
#233=ORIENTED_EDGE('',*,*,#183,.T.);
#234=ORIENTED_EDGE('',*,*,#177,.T.);
#235=ORIENTED_EDGE('',*,*,#169,.T.);
#236=ORIENTED_EDGE('',*,*,#184,.T.);
#237=ORIENTED_EDGE('',*,*,#185,.T.);
#238=ORIENTED_EDGE('',*,*,#186,.F.);
#239=ORIENTED_EDGE('',*,*,#187,.F.);
#240=ORIENTED_EDGE('',*,*,#188,.T.);
#241=ORIENTED_EDGE('',*,*,#185,.F.);
#242=ORIENTED_EDGE('',*,*,#188,.F.);
#243=ORIENTED_EDGE('',*,*,#186,.T.);
#244=ORIENTED_EDGE('',*,*,#189,.T.);
#245=ORIENTED_EDGE('',*,*,#172,.F.);
#246=ORIENTED_EDGE('',*,*,#189,.F.);
#247=ORIENTED_EDGE('',*,*,#190,.T.);
#248=ORIENTED_EDGE('',*,*,#191,.F.);
#249=ORIENTED_EDGE('',*,*,#192,.F.);
#250=ORIENTED_EDGE('',*,*,#193,.T.);
#251=ORIENTED_EDGE('',*,*,#190,.F.);
#252=ORIENTED_EDGE('',*,*,#193,.F.);
#253=ORIENTED_EDGE('',*,*,#191,.T.);
#254=ORIENTED_EDGE('',*,*,#194,.T.);
#255=ORIENTED_EDGE('',*,*,#173,.F.);
#256=ORIENTED_EDGE('',*,*,#194,.F.);
#257=ORIENTED_EDGE('',*,*,#195,.F.);
#258=ORIENTED_EDGE('',*,*,#196,.T.);
#259=ORIENTED_EDGE('',*,*,#174,.F.);
#260=ORIENTED_EDGE('',*,*,#196,.F.);
#261=ORIENTED_EDGE('',*,*,#180,.F.);
#262=ORIENTED_EDGE('',*,*,#197,.F.);
#263=ORIENTED_EDGE('',*,*,#184,.F.);
#264=ORIENTED_EDGE('',*,*,#168,.F.);
#265=ORIENTED_EDGE('',*,*,#159,.F.);
#266=ORIENTED_EDGE('',*,*,#165,.T.);
#267=ORIENTED_EDGE('',*,*,#175,.F.);
#268=ORIENTED_EDGE('',*,*,#178,.T.);
#269=ORIENTED_EDGE('',*,*,#183,.F.);
#270=ORIENTED_EDGE('',*,*,#197,.T.);
#271=ORIENTED_EDGE('',*,*,#179,.F.);
#272=ORIENTED_EDGE('',*,*,#182,.T.);
#273=ORIENTED_EDGE('',*,*,#187,.T.);
#274=ORIENTED_EDGE('',*,*,#192,.T.);
#275=ORIENTED_EDGE('',*,*,#195,.T.);
#276=CYLINDRICAL_SURFACE('',#325,3.);
#277=CYLINDRICAL_SURFACE('',#336,3.);
#278=CYLINDRICAL_SURFACE('',#339,3.);
#279=CYLINDRICAL_SURFACE('',#342,3.);
#280=CYLINDRICAL_SURFACE('',#347,6.75);
#281=CYLINDRICAL_SURFACE('',#349,4.25);
#282=CYLINDRICAL_SURFACE('',#353,6.75);
#283=CYLINDRICAL_SURFACE('',#355,4.25);
#284=CYLINDRICAL_SURFACE('',#356,4.188);
#285=ADVANCED_FACE('',(#31),#276,.T.);
#286=ADVANCED_FACE('',(#32),#23,.T.);
#287=ADVANCED_FACE('',(#33,#15,#16,#17),#24,.F.);
#288=ADVANCED_FACE('',(#34),#277,.T.);
#289=ADVANCED_FACE('',(#35),#25,.T.);
#290=ADVANCED_FACE('',(#36),#278,.T.);
#291=ADVANCED_FACE('',(#37),#26,.T.);
#292=ADVANCED_FACE('',(#38),#279,.T.);
#293=ADVANCED_FACE('',(#39,#18),#27,.T.);
#294=ADVANCED_FACE('',(#40),#280,.F.);
#295=ADVANCED_FACE('',(#41),#281,.F.);
#296=ADVANCED_FACE('',(#42,#19),#28,.T.);
#297=ADVANCED_FACE('',(#43),#282,.F.);
#298=ADVANCED_FACE('',(#44),#283,.F.);
#299=ADVANCED_FACE('',(#45),#284,.F.);
#300=ADVANCED_FACE('',(#46),#29,.T.);
#301=ADVANCED_FACE('',(#47,#20,#21,#22),#30,.T.);
#302=CLOSED_SHELL('',(#285,#286,#287,#288,#289,#290,#291,#292,#293,#294,
#295,#296,#297,#298,#299,#300,#301));
#303=DERIVED_UNIT_ELEMENT(#306,1.);
#304=DERIVED_UNIT_ELEMENT(#541,-3.);
#305=DIMENSIONAL_EXPONENTS(1.,0.,0.,0.,0.,0.,0.);
#306=(
CONVERSION_BASED_UNIT('gram',#308)
MASS_UNIT()
NAMED_UNIT(#305)
);
#307=(
MASS_UNIT()
NAMED_UNIT(*)
SI_UNIT(.KILO.,.GRAM.)
);
#308=MASS_MEASURE_WITH_UNIT(MASS_MEASURE(0.001),#307);
#309=DERIVED_UNIT((#303,#304));
#310=MEASURE_REPRESENTATION_ITEM('density measure',
POSITIVE_RATIO_MEASURE(2.7),#309);
#311=PROPERTY_DEFINITION_REPRESENTATION(#316,#313);
#312=PROPERTY_DEFINITION_REPRESENTATION(#317,#314);
#313=REPRESENTATION('material name',(#315),#538);
#314=REPRESENTATION('density',(#310),#538);
#315=DESCRIPTIVE_REPRESENTATION_ITEM('Alluminio 6060','Alluminio 6060');
#316=PROPERTY_DEFINITION('material property','material name',#548);
#317=PROPERTY_DEFINITION('material property','density of part',#548);
#318=DATE_TIME_ROLE('creation_date');
#319=APPLIED_DATE_AND_TIME_ASSIGNMENT(#320,#318,(#548));
#320=DATE_AND_TIME(#321,#322);
#321=CALENDAR_DATE(2017,31,7);
#322=LOCAL_TIME(0,0,0.,#323);
#323=COORDINATED_UNIVERSAL_TIME_OFFSET(0,0,.BEHIND.);
#324=AXIS2_PLACEMENT_3D('placement',#453,#360,#361);
#325=AXIS2_PLACEMENT_3D('',#454,#362,#363);
#326=AXIS2_PLACEMENT_3D('',#457,#364,#365);
#327=AXIS2_PLACEMENT_3D('',#461,#367,#368);
#328=AXIS2_PLACEMENT_3D('',#463,#370,#371);
#329=AXIS2_PLACEMENT_3D('',#469,#375,#376);
#330=AXIS2_PLACEMENT_3D('',#473,#378,#379);
#331=AXIS2_PLACEMENT_3D('',#477,#381,#382);
#332=AXIS2_PLACEMENT_3D('',#480,#384,#385);
#333=AXIS2_PLACEMENT_3D('',#482,#386,#387);
#334=AXIS2_PLACEMENT_3D('',#484,#388,#389);
#335=AXIS2_PLACEMENT_3D('',#486,#390,#391);
#336=AXIS2_PLACEMENT_3D('',#487,#392,#393);
#337=AXIS2_PLACEMENT_3D('',#489,#394,#395);
#338=AXIS2_PLACEMENT_3D('',#491,#397,#398);
#339=AXIS2_PLACEMENT_3D('',#495,#401,#402);
#340=AXIS2_PLACEMENT_3D('',#498,#403,#404);
#341=AXIS2_PLACEMENT_3D('',#501,#407,#408);
#342=AXIS2_PLACEMENT_3D('',#503,#410,#411);
#343=AXIS2_PLACEMENT_3D('',#505,#412,#413);
#344=AXIS2_PLACEMENT_3D('',#507,#415,#416);
#345=AXIS2_PLACEMENT_3D('',#509,#417,#418);
#346=AXIS2_PLACEMENT_3D('',#511,#419,#420);
#347=AXIS2_PLACEMENT_3D('',#512,#421,#422);
#348=AXIS2_PLACEMENT_3D('',#514,#423,#424);
#349=AXIS2_PLACEMENT_3D('',#516,#426,#427);
#350=AXIS2_PLACEMENT_3D('',#518,#429,#430);
#351=AXIS2_PLACEMENT_3D('',#520,#431,#432);
#352=AXIS2_PLACEMENT_3D('',#522,#433,#434);
#353=AXIS2_PLACEMENT_3D('',#523,#435,#436);
#354=AXIS2_PLACEMENT_3D('',#525,#437,#438);
#355=AXIS2_PLACEMENT_3D('',#527,#440,#441);
#356=AXIS2_PLACEMENT_3D('',#529,#443,#444);
#357=AXIS2_PLACEMENT_3D('',#531,#445,#446);
#358=AXIS2_PLACEMENT_3D('',#533,#448,#449);
#359=AXIS2_PLACEMENT_3D('',#535,#451,#452);
#360=DIRECTION('axis',(0.,0.,1.));
#361=DIRECTION('refdir',(1.,0.,0.));
#362=DIRECTION('center_axis',(0.,0.,1.));
#363=DIRECTION('ref_axis',(0.707106781186549,-0.707106781186546,0.));
#364=DIRECTION('center_axis',(0.,0.,-1.));
#365=DIRECTION('ref_axis',(0.707106781186549,-0.707106781186546,0.));
#366=DIRECTION('',(0.,0.,-1.));
#367=DIRECTION('center_axis',(0.,0.,1.));
#368=DIRECTION('ref_axis',(0.707106781186549,-0.707106781186546,0.));
#369=DIRECTION('',(0.,0.,1.));
#370=DIRECTION('center_axis',(1.,0.,0.));
#371=DIRECTION('ref_axis',(0.,1.,0.));
#372=DIRECTION('',(0.,-1.,0.));
#373=DIRECTION('',(0.,0.,-1.));
#374=DIRECTION('',(0.,1.,0.));
#375=DIRECTION('center_axis',(0.,0.,1.));
#376=DIRECTION('ref_axis',(1.,0.,0.));
#377=DIRECTION('',(-1.,0.,0.));
#378=DIRECTION('center_axis',(0.,0.,1.));
#379=DIRECTION('ref_axis',(-0.707106781186549,-0.707106781186546,0.));
#380=DIRECTION('',(0.,1.,0.));
#381=DIRECTION('center_axis',(0.,0.,1.));
#382=DIRECTION('ref_axis',(-0.707106781186549,0.707106781186546,0.));
#383=DIRECTION('',(1.,0.,0.));
#384=DIRECTION('center_axis',(0.,0.,1.));
#385=DIRECTION('ref_axis',(0.707106781186549,0.707106781186546,0.));
#386=DIRECTION('center_axis',(0.,0.,1.));
#387=DIRECTION('ref_axis',(1.,0.,0.));
#388=DIRECTION('center_axis',(0.,0.,1.));
#389=DIRECTION('ref_axis',(1.,0.,0.));
#390=DIRECTION('center_axis',(0.,0.,1.));
#391=DIRECTION('ref_axis',(1.,0.,0.));
#392=DIRECTION('center_axis',(0.,0.,1.));
#393=DIRECTION('ref_axis',(0.707106781186549,0.707106781186546,0.));
#394=DIRECTION('center_axis',(0.,0.,-1.));
#395=DIRECTION('ref_axis',(0.707106781186549,0.707106781186546,0.));
#396=DIRECTION('',(0.,0.,1.));
#397=DIRECTION('center_axis',(0.,1.,0.));
#398=DIRECTION('ref_axis',(-1.,0.,0.));
#399=DIRECTION('',(0.,0.,-1.));
#400=DIRECTION('',(-1.,0.,0.));
#401=DIRECTION('center_axis',(0.,0.,1.));
#402=DIRECTION('ref_axis',(-0.707106781186549,-0.707106781186546,0.));
#403=DIRECTION('center_axis',(0.,0.,-1.));
#404=DIRECTION('ref_axis',(-0.707106781186549,-0.707106781186546,0.));
#405=DIRECTION('',(0.,0.,-1.));
#406=DIRECTION('',(0.,0.,1.));
#407=DIRECTION('center_axis',(0.,-1.,0.));
#408=DIRECTION('ref_axis',(1.,0.,0.));
#409=DIRECTION('',(1.,0.,0.));
#410=DIRECTION('center_axis',(0.,0.,1.));
#411=DIRECTION('ref_axis',(-0.707106781186549,0.707106781186546,0.));
#412=DIRECTION('center_axis',(0.,0.,-1.));
#413=DIRECTION('ref_axis',(-0.707106781186549,0.707106781186546,0.));
#414=DIRECTION('',(0.,0.,1.));
#415=DIRECTION('center_axis',(0.,0.,1.));
#416=DIRECTION('ref_axis',(1.,0.,0.));
#417=DIRECTION('center_axis',(0.,0.,1.));
#418=DIRECTION('ref_axis',(1.,0.,0.));
#419=DIRECTION('center_axis',(0.,0.,1.));
#420=DIRECTION('ref_axis',(1.,0.,0.));
#421=DIRECTION('center_axis',(0.,0.,1.));
#422=DIRECTION('ref_axis',(1.,0.,0.));
#423=DIRECTION('center_axis',(0.,0.,-1.));
#424=DIRECTION('ref_axis',(1.,0.,0.));
#425=DIRECTION('',(0.,0.,-1.));
#426=DIRECTION('center_axis',(0.,0.,1.));
#427=DIRECTION('ref_axis',(1.,0.,0.));
#428=DIRECTION('',(0.,0.,-1.));
#429=DIRECTION('center_axis',(0.,0.,1.));
#430=DIRECTION('ref_axis',(1.,0.,0.));
#431=DIRECTION('center_axis',(0.,0.,1.));
#432=DIRECTION('ref_axis',(1.,0.,0.));
#433=DIRECTION('center_axis',(0.,0.,1.));
#434=DIRECTION('ref_axis',(1.,0.,0.));
#435=DIRECTION('center_axis',(0.,0.,1.));
#436=DIRECTION('ref_axis',(1.,0.,0.));
#437=DIRECTION('center_axis',(0.,0.,-1.));
#438=DIRECTION('ref_axis',(1.,0.,0.));
#439=DIRECTION('',(0.,0.,-1.));
#440=DIRECTION('center_axis',(0.,0.,1.));
#441=DIRECTION('ref_axis',(1.,0.,0.));
#442=DIRECTION('',(0.,0.,-1.));
#443=DIRECTION('center_axis',(0.,0.,1.));
#444=DIRECTION('ref_axis',(1.,0.,0.));
#445=DIRECTION('center_axis',(0.,0.,-1.));
#446=DIRECTION('ref_axis',(1.,0.,0.));
#447=DIRECTION('',(0.,0.,-1.));
#448=DIRECTION('center_axis',(-1.,0.,0.));
#449=DIRECTION('ref_axis',(0.,-1.,0.));
#450=DIRECTION('',(0.,-1.,0.));
#451=DIRECTION('center_axis',(0.,0.,1.));
#452=DIRECTION('ref_axis',(1.,0.,0.));
#453=CARTESIAN_POINT('',(0.,0.,0.));
#454=CARTESIAN_POINT('Origin',(42.,-19.5,0.));
#455=CARTESIAN_POINT('',(45.,-19.5,10.));
#456=CARTESIAN_POINT('',(42.,-22.5,10.));
#457=CARTESIAN_POINT('Origin',(42.,-19.5,10.));
#458=CARTESIAN_POINT('',(42.,-22.5,0.));
#459=CARTESIAN_POINT('',(42.,-22.5,0.));
#460=CARTESIAN_POINT('',(45.,-19.5,0.));
#461=CARTESIAN_POINT('Origin',(42.,-19.5,0.));
#462=CARTESIAN_POINT('',(45.,-19.5,0.));
#463=CARTESIAN_POINT('Origin',(45.,-22.5,0.));
#464=CARTESIAN_POINT('',(45.,19.5,0.));
#465=CARTESIAN_POINT('',(45.,22.5,0.));
#466=CARTESIAN_POINT('',(45.,19.5,10.));
#467=CARTESIAN_POINT('',(45.,19.5,0.));
#468=CARTESIAN_POINT('',(45.,22.5,10.));
#469=CARTESIAN_POINT('Origin',(0.,0.,0.));
#470=CARTESIAN_POINT('',(-42.,-22.5,0.));
#471=CARTESIAN_POINT('',(45.,-22.5,0.));
#472=CARTESIAN_POINT('',(-45.,-19.5,0.));
#473=CARTESIAN_POINT('Origin',(-42.,-19.5,0.));
#474=CARTESIAN_POINT('',(-45.,19.5,0.));
#475=CARTESIAN_POINT('',(-45.,-22.5,0.));
#476=CARTESIAN_POINT('',(-42.,22.5,0.));
#477=CARTESIAN_POINT('Origin',(-42.,19.5,0.));
#478=CARTESIAN_POINT('',(42.,22.5,0.));
#479=CARTESIAN_POINT('',(-45.,22.5,0.));
#480=CARTESIAN_POINT('Origin',(42.,19.5,0.));
#481=CARTESIAN_POINT('',(-26.75,-5.20474889637625E-16,0.));
#482=CARTESIAN_POINT('Origin',(-22.5,0.,0.));
#483=CARTESIAN_POINT('',(18.25,-5.20474889637625E-16,0.));
#484=CARTESIAN_POINT('Origin',(22.5,0.,0.));
#485=CARTESIAN_POINT('',(-4.188,-5.12882079482912E-16,0.));
#486=CARTESIAN_POINT('Origin',(0.,0.,0.));
#487=CARTESIAN_POINT('Origin',(42.,19.5,0.));
#488=CARTESIAN_POINT('',(42.,22.5,10.));
#489=CARTESIAN_POINT('Origin',(42.,19.5,10.));
#490=CARTESIAN_POINT('',(42.,22.5,0.));
#491=CARTESIAN_POINT('Origin',(45.,22.5,0.));
#492=CARTESIAN_POINT('',(-42.,22.5,10.));
#493=CARTESIAN_POINT('',(-42.,22.5,0.));
#494=CARTESIAN_POINT('',(-45.,22.5,10.));
#495=CARTESIAN_POINT('Origin',(-42.,-19.5,0.));
#496=CARTESIAN_POINT('',(-42.,-22.5,10.));
#497=CARTESIAN_POINT('',(-45.,-19.5,10.));
#498=CARTESIAN_POINT('Origin',(-42.,-19.5,10.));
#499=CARTESIAN_POINT('',(-45.,-19.5,0.));
#500=CARTESIAN_POINT('',(-42.,-22.5,0.));
#501=CARTESIAN_POINT('Origin',(-45.,-22.5,0.));
#502=CARTESIAN_POINT('',(45.,-22.5,10.));
#503=CARTESIAN_POINT('Origin',(-42.,19.5,0.));
#504=CARTESIAN_POINT('',(-45.,19.5,10.));
#505=CARTESIAN_POINT('Origin',(-42.,19.5,10.));
#506=CARTESIAN_POINT('',(-45.,19.5,0.));
#507=CARTESIAN_POINT('Origin',(-22.5,0.,1.5));
#508=CARTESIAN_POINT('',(-29.25,-8.26636589424463E-16,1.5));
#509=CARTESIAN_POINT('Origin',(-22.5,0.,1.5));
#510=CARTESIAN_POINT('',(-26.75,-5.20474889637625E-16,1.5));
#511=CARTESIAN_POINT('Origin',(-22.5,0.,1.5));
#512=CARTESIAN_POINT('Origin',(-22.5,0.,5.75));
#513=CARTESIAN_POINT('',(-29.25,-8.26636589424463E-16,10.));
#514=CARTESIAN_POINT('Origin',(-22.5,0.,10.));
#515=CARTESIAN_POINT('',(-29.25,-8.26636589424463E-16,5.75));
#516=CARTESIAN_POINT('Origin',(-22.5,0.,5.));
#517=CARTESIAN_POINT('',(-26.75,-5.20474889637625E-16,5.));
#518=CARTESIAN_POINT('Origin',(22.5,0.,1.5));
#519=CARTESIAN_POINT('',(15.75,-8.26636589424463E-16,1.5));
#520=CARTESIAN_POINT('Origin',(22.5,0.,1.5));
#521=CARTESIAN_POINT('',(18.25,-5.20474889637625E-16,1.5));
#522=CARTESIAN_POINT('Origin',(22.5,0.,1.5));
#523=CARTESIAN_POINT('Origin',(22.5,0.,5.75));
#524=CARTESIAN_POINT('',(15.75,-8.26636589424463E-16,10.));
#525=CARTESIAN_POINT('Origin',(22.5,0.,10.));
#526=CARTESIAN_POINT('',(15.75,-8.26636589424463E-16,5.75));
#527=CARTESIAN_POINT('Origin',(22.5,0.,5.));
#528=CARTESIAN_POINT('',(18.25,-5.20474889637625E-16,5.));
#529=CARTESIAN_POINT('Origin',(0.,0.,-91.1187420807834));
#530=CARTESIAN_POINT('',(-4.188,-5.12882079482912E-16,10.));
#531=CARTESIAN_POINT('Origin',(0.,0.,10.));
#532=CARTESIAN_POINT('',(-4.188,-5.12882079482912E-16,-91.1187420807834));
#533=CARTESIAN_POINT('Origin',(-45.,22.5,0.));
#534=CARTESIAN_POINT('',(-45.,-22.5,10.));
#535=CARTESIAN_POINT('Origin',(0.,0.,10.));
#536=UNCERTAINTY_MEASURE_WITH_UNIT(LENGTH_MEASURE(0.01),#540,
'DISTANCE_ACCURACY_VALUE',
'Maximum model space distance between geometric entities at asserted c
onnectivities');
#537=UNCERTAINTY_MEASURE_WITH_UNIT(LENGTH_MEASURE(0.01),#540,
'DISTANCE_ACCURACY_VALUE',
'Maximum model space distance between geometric entities at asserted c
onnectivities');
#538=(
GEOMETRIC_REPRESENTATION_CONTEXT(3)
GLOBAL_UNCERTAINTY_ASSIGNED_CONTEXT((#536))
GLOBAL_UNIT_ASSIGNED_CONTEXT((#540,#542,#543))
REPRESENTATION_CONTEXT('','3D')
);
#539=(
GEOMETRIC_REPRESENTATION_CONTEXT(3)
GLOBAL_UNCERTAINTY_ASSIGNED_CONTEXT((#537))
GLOBAL_UNIT_ASSIGNED_CONTEXT((#540,#542,#543))
REPRESENTATION_CONTEXT('','3D')
);
#540=(
LENGTH_UNIT()
NAMED_UNIT(*)
SI_UNIT(.MILLI.,.METRE.)
);
#541=(
LENGTH_UNIT()
NAMED_UNIT(*)
SI_UNIT(.CENTI.,.METRE.)
);
#542=(
NAMED_UNIT(*)
PLANE_ANGLE_UNIT()
SI_UNIT($,.RADIAN.)
);
#543=(
NAMED_UNIT(*)
SI_UNIT($,.STERADIAN.)
SOLID_ANGLE_UNIT()
);
#544=SHAPE_DEFINITION_REPRESENTATION(#545,#546);
#545=PRODUCT_DEFINITION_SHAPE('',$,#548);
#546=SHAPE_REPRESENTATION('',(#324),#538);
#547=PRODUCT_DEFINITION_CONTEXT('part definition',#552,'design');
#548=PRODUCT_DEFINITION('DPSXX0001724','DPSXX0001724',#549,#547);
#549=PRODUCT_DEFINITION_FORMATION('A',$,#554);
#550=PRODUCT_RELATED_PRODUCT_CATEGORY('DPSXX0001724','DPSXX0001724',(#554));
#551=APPLICATION_PROTOCOL_DEFINITION('international standard',
'automotive_design',2009,#552);
#552=APPLICATION_CONTEXT(
'Core Data for Automotive Mechanical Design Process');
#553=PRODUCT_CONTEXT('part definition',#552,'mechanical');
#554=PRODUCT('DPSXX0001724','DPSXX0001724',
'PIASTRA 45X90 SP.10 ALLUMINIO ANODIZZATO',(#553));
#555=PRESENTATION_STYLE_ASSIGNMENT((#556));
#556=SURFACE_STYLE_USAGE(.BOTH.,#559);
#557=SURFACE_STYLE_RENDERING_WITH_PROPERTIES($,#563,(#558));
#558=SURFACE_STYLE_TRANSPARENT(0.);
#559=SURFACE_SIDE_STYLE('',(#560,#557));
#560=SURFACE_STYLE_FILL_AREA(#561);
#561=FILL_AREA_STYLE('',(#562));
#562=FILL_AREA_STYLE_COLOUR('',#563);
#563=COLOUR_RGB('',0.956862745098039,0.956862745098039,0.956862745098039);
ENDSEC;
END-ISO-10303-21;
