ISO-10303-21;
HEADER;
/* Generated by software containing ST-Developer
 * from STEP Tools, Inc. (www.steptools.com) 
 */

FILE_DESCRIPTION(
/* description */ ('PIASTRA 80X80 SP.12 ALLUMINIO'),
/* implementation_level */ '2;1');

FILE_NAME(
/* name */ 
'C:\\Users\\tecnico7\\Desktop\\NUOVI DISEGNI 3D\\DPSXX0001718.stp',
/* time_stamp */ '2022-12-05T11:28:36+01:00',
/* author */ ('tecnico7'),
/* organization */ (''),
/* preprocessor_version */ 'ST-DEVELOPER v18.1',
/* originating_system */ 'Autodesk Inventor 2022',
/* authorisation */ '');

FILE_SCHEMA (('AUTOMOTIVE_DESIGN { 1 0 10303 214 3 1 1 }'));
ENDSEC;

DATA;
#10=MECHANICAL_DESIGN_GEOMETRIC_PRESENTATION_REPRESENTATION('',(#13),#567);
#11=SHAPE_REPRESENTATION_RELATIONSHIP('SRR','None',#574,#12);
#12=ADVANCED_BREP_SHAPE_REPRESENTATION('',(#14),#566);
#13=STYLED_ITEM('',(#583),#14);
#14=MANIFOLD_SOLID_BREP('Importato1',#322);
#15=FACE_BOUND('',#72,.T.);
#16=FACE_BOUND('',#73,.T.);
#17=FACE_BOUND('',#74,.T.);
#18=FACE_BOUND('',#75,.T.);
#19=FACE_BOUND('',#76,.T.);
#20=FACE_BOUND('',#78,.T.);
#21=FACE_BOUND('',#79,.T.);
#22=FACE_BOUND('',#80,.T.);
#23=FACE_BOUND('',#81,.T.);
#24=FACE_BOUND('',#82,.T.);
#25=FACE_BOUND('',#84,.T.);
#26=FACE_BOUND('',#86,.T.);
#27=FACE_BOUND('',#88,.T.);
#28=FACE_BOUND('',#90,.T.);
#29=PLANE('',#372);
#30=PLANE('',#373);
#31=PLANE('',#374);
#32=PLANE('',#375);
#33=PLANE('',#376);
#34=PLANE('',#377);
#35=PLANE('',#378);
#36=PLANE('',#379);
#37=PLANE('',#380);
#38=PLANE('',#381);
#39=FACE_OUTER_BOUND('',#58,.T.);
#40=FACE_OUTER_BOUND('',#59,.T.);
#41=FACE_OUTER_BOUND('',#60,.T.);
#42=FACE_OUTER_BOUND('',#61,.T.);
#43=FACE_OUTER_BOUND('',#62,.T.);
#44=FACE_OUTER_BOUND('',#63,.T.);
#45=FACE_OUTER_BOUND('',#64,.T.);
#46=FACE_OUTER_BOUND('',#65,.T.);
#47=FACE_OUTER_BOUND('',#66,.T.);
#48=FACE_OUTER_BOUND('',#67,.T.);
#49=FACE_OUTER_BOUND('',#68,.T.);
#50=FACE_OUTER_BOUND('',#69,.T.);
#51=FACE_OUTER_BOUND('',#70,.T.);
#52=FACE_OUTER_BOUND('',#71,.T.);
#53=FACE_OUTER_BOUND('',#77,.T.);
#54=FACE_OUTER_BOUND('',#83,.T.);
#55=FACE_OUTER_BOUND('',#85,.T.);
#56=FACE_OUTER_BOUND('',#87,.T.);
#57=FACE_OUTER_BOUND('',#89,.T.);
#58=EDGE_LOOP('',(#216,#217,#218,#219));
#59=EDGE_LOOP('',(#220,#221,#222,#223));
#60=EDGE_LOOP('',(#224,#225,#226,#227));
#61=EDGE_LOOP('',(#228,#229,#230,#231));
#62=EDGE_LOOP('',(#232,#233,#234,#235));
#63=EDGE_LOOP('',(#236,#237,#238,#239));
#64=EDGE_LOOP('',(#240,#241,#242,#243));
#65=EDGE_LOOP('',(#244,#245,#246,#247));
#66=EDGE_LOOP('',(#248,#249,#250,#251));
#67=EDGE_LOOP('',(#252,#253,#254,#255));
#68=EDGE_LOOP('',(#256,#257,#258,#259));
#69=EDGE_LOOP('',(#260,#261,#262,#263));
#70=EDGE_LOOP('',(#264,#265,#266,#267));
#71=EDGE_LOOP('',(#268,#269,#270,#271));
#72=EDGE_LOOP('',(#272));
#73=EDGE_LOOP('',(#273));
#74=EDGE_LOOP('',(#274));
#75=EDGE_LOOP('',(#275));
#76=EDGE_LOOP('',(#276));
#77=EDGE_LOOP('',(#277,#278,#279,#280));
#78=EDGE_LOOP('',(#281));
#79=EDGE_LOOP('',(#282));
#80=EDGE_LOOP('',(#283));
#81=EDGE_LOOP('',(#284));
#82=EDGE_LOOP('',(#285));
#83=EDGE_LOOP('',(#286));
#84=EDGE_LOOP('',(#287));
#85=EDGE_LOOP('',(#288));
#86=EDGE_LOOP('',(#289));
#87=EDGE_LOOP('',(#290));
#88=EDGE_LOOP('',(#291));
#89=EDGE_LOOP('',(#292));
#90=EDGE_LOOP('',(#293));
#91=LINE('',#484,#112);
#92=LINE('',#490,#113);
#93=LINE('',#496,#114);
#94=LINE('',#502,#115);
#95=LINE('',#508,#116);
#96=LINE('',#514,#117);
#97=LINE('',#520,#118);
#98=LINE('',#526,#119);
#99=LINE('',#532,#120);
#100=LINE('',#537,#121);
#101=LINE('',#539,#122);
#102=LINE('',#541,#123);
#103=LINE('',#542,#124);
#104=LINE('',#545,#125);
#105=LINE('',#547,#126);
#106=LINE('',#548,#127);
#107=LINE('',#551,#128);
#108=LINE('',#553,#129);
#109=LINE('',#554,#130);
#110=LINE('',#556,#131);
#111=LINE('',#557,#132);
#112=VECTOR('',#388,7.);
#113=VECTOR('',#395,4.25);
#114=VECTOR('',#402,8.);
#115=VECTOR('',#409,4.25);
#116=VECTOR('',#416,8.);
#117=VECTOR('',#423,4.25);
#118=VECTOR('',#430,8.);
#119=VECTOR('',#437,4.25);
#120=VECTOR('',#444,8.);
#121=VECTOR('',#449,80.);
#122=VECTOR('',#450,12.);
#123=VECTOR('',#451,80.);
#124=VECTOR('',#452,12.);
#125=VECTOR('',#455,80.);
#126=VECTOR('',#456,80.);
#127=VECTOR('',#457,12.);
#128=VECTOR('',#460,80.);
#129=VECTOR('',#461,80.);
#130=VECTOR('',#462,12.);
#131=VECTOR('',#465,80.);
#132=VECTOR('',#466,80.);
#133=CIRCLE('',#346,6.);
#134=CIRCLE('',#347,6.);
#135=CIRCLE('',#349,4.25);
#136=CIRCLE('',#350,4.25);
#137=CIRCLE('',#352,8.);
#138=CIRCLE('',#353,8.);
#139=CIRCLE('',#355,4.25);
#140=CIRCLE('',#356,4.25);
#141=CIRCLE('',#358,8.);
#142=CIRCLE('',#359,8.);
#143=CIRCLE('',#361,4.25);
#144=CIRCLE('',#362,4.25);
#145=CIRCLE('',#364,8.);
#146=CIRCLE('',#365,8.);
#147=CIRCLE('',#367,4.25);
#148=CIRCLE('',#368,4.25);
#149=CIRCLE('',#370,8.);
#150=CIRCLE('',#371,8.);
#151=VERTEX_POINT('',#481);
#152=VERTEX_POINT('',#483);
#153=VERTEX_POINT('',#487);
#154=VERTEX_POINT('',#489);
#155=VERTEX_POINT('',#493);
#156=VERTEX_POINT('',#495);
#157=VERTEX_POINT('',#499);
#158=VERTEX_POINT('',#501);
#159=VERTEX_POINT('',#505);
#160=VERTEX_POINT('',#507);
#161=VERTEX_POINT('',#511);
#162=VERTEX_POINT('',#513);
#163=VERTEX_POINT('',#517);
#164=VERTEX_POINT('',#519);
#165=VERTEX_POINT('',#523);
#166=VERTEX_POINT('',#525);
#167=VERTEX_POINT('',#529);
#168=VERTEX_POINT('',#531);
#169=VERTEX_POINT('',#535);
#170=VERTEX_POINT('',#536);
#171=VERTEX_POINT('',#538);
#172=VERTEX_POINT('',#540);
#173=VERTEX_POINT('',#544);
#174=VERTEX_POINT('',#546);
#175=VERTEX_POINT('',#550);
#176=VERTEX_POINT('',#552);
#177=EDGE_CURVE('',#151,#151,#133,.F.);
#178=EDGE_CURVE('',#151,#152,#91,.T.);
#179=EDGE_CURVE('',#152,#152,#134,.T.);
#180=EDGE_CURVE('',#153,#153,#135,.T.);
#181=EDGE_CURVE('',#153,#154,#92,.T.);
#182=EDGE_CURVE('',#154,#154,#136,.T.);
#183=EDGE_CURVE('',#155,#155,#137,.T.);
#184=EDGE_CURVE('',#155,#156,#93,.T.);
#185=EDGE_CURVE('',#156,#156,#138,.T.);
#186=EDGE_CURVE('',#157,#157,#139,.T.);
#187=EDGE_CURVE('',#157,#158,#94,.T.);
#188=EDGE_CURVE('',#158,#158,#140,.T.);
#189=EDGE_CURVE('',#159,#159,#141,.T.);
#190=EDGE_CURVE('',#159,#160,#95,.T.);
#191=EDGE_CURVE('',#160,#160,#142,.T.);
#192=EDGE_CURVE('',#161,#161,#143,.T.);
#193=EDGE_CURVE('',#161,#162,#96,.T.);
#194=EDGE_CURVE('',#162,#162,#144,.T.);
#195=EDGE_CURVE('',#163,#163,#145,.T.);
#196=EDGE_CURVE('',#163,#164,#97,.T.);
#197=EDGE_CURVE('',#164,#164,#146,.T.);
#198=EDGE_CURVE('',#165,#165,#147,.T.);
#199=EDGE_CURVE('',#165,#166,#98,.T.);
#200=EDGE_CURVE('',#166,#166,#148,.T.);
#201=EDGE_CURVE('',#167,#167,#149,.T.);
#202=EDGE_CURVE('',#167,#168,#99,.T.);
#203=EDGE_CURVE('',#168,#168,#150,.T.);
#204=EDGE_CURVE('',#169,#170,#100,.T.);
#205=EDGE_CURVE('',#171,#169,#101,.T.);
#206=EDGE_CURVE('',#171,#172,#102,.T.);
#207=EDGE_CURVE('',#172,#170,#103,.T.);
#208=EDGE_CURVE('',#170,#173,#104,.T.);
#209=EDGE_CURVE('',#172,#174,#105,.T.);
#210=EDGE_CURVE('',#174,#173,#106,.T.);
#211=EDGE_CURVE('',#173,#175,#107,.T.);
#212=EDGE_CURVE('',#174,#176,#108,.T.);
#213=EDGE_CURVE('',#176,#175,#109,.T.);
#214=EDGE_CURVE('',#175,#169,#110,.T.);
#215=EDGE_CURVE('',#176,#171,#111,.T.);
#216=ORIENTED_EDGE('',*,*,#177,.T.);
#217=ORIENTED_EDGE('',*,*,#178,.T.);
#218=ORIENTED_EDGE('',*,*,#179,.T.);
#219=ORIENTED_EDGE('',*,*,#178,.F.);
#220=ORIENTED_EDGE('',*,*,#180,.F.);
#221=ORIENTED_EDGE('',*,*,#181,.T.);
#222=ORIENTED_EDGE('',*,*,#182,.T.);
#223=ORIENTED_EDGE('',*,*,#181,.F.);
#224=ORIENTED_EDGE('',*,*,#183,.F.);
#225=ORIENTED_EDGE('',*,*,#184,.T.);
#226=ORIENTED_EDGE('',*,*,#185,.F.);
#227=ORIENTED_EDGE('',*,*,#184,.F.);
#228=ORIENTED_EDGE('',*,*,#186,.F.);
#229=ORIENTED_EDGE('',*,*,#187,.T.);
#230=ORIENTED_EDGE('',*,*,#188,.T.);
#231=ORIENTED_EDGE('',*,*,#187,.F.);
#232=ORIENTED_EDGE('',*,*,#189,.F.);
#233=ORIENTED_EDGE('',*,*,#190,.T.);
#234=ORIENTED_EDGE('',*,*,#191,.F.);
#235=ORIENTED_EDGE('',*,*,#190,.F.);
#236=ORIENTED_EDGE('',*,*,#192,.F.);
#237=ORIENTED_EDGE('',*,*,#193,.T.);
#238=ORIENTED_EDGE('',*,*,#194,.T.);
#239=ORIENTED_EDGE('',*,*,#193,.F.);
#240=ORIENTED_EDGE('',*,*,#195,.F.);
#241=ORIENTED_EDGE('',*,*,#196,.T.);
#242=ORIENTED_EDGE('',*,*,#197,.F.);
#243=ORIENTED_EDGE('',*,*,#196,.F.);
#244=ORIENTED_EDGE('',*,*,#198,.F.);
#245=ORIENTED_EDGE('',*,*,#199,.T.);
#246=ORIENTED_EDGE('',*,*,#200,.T.);
#247=ORIENTED_EDGE('',*,*,#199,.F.);
#248=ORIENTED_EDGE('',*,*,#201,.F.);
#249=ORIENTED_EDGE('',*,*,#202,.T.);
#250=ORIENTED_EDGE('',*,*,#203,.F.);
#251=ORIENTED_EDGE('',*,*,#202,.F.);
#252=ORIENTED_EDGE('',*,*,#204,.F.);
#253=ORIENTED_EDGE('',*,*,#205,.F.);
#254=ORIENTED_EDGE('',*,*,#206,.T.);
#255=ORIENTED_EDGE('',*,*,#207,.T.);
#256=ORIENTED_EDGE('',*,*,#208,.F.);
#257=ORIENTED_EDGE('',*,*,#207,.F.);
#258=ORIENTED_EDGE('',*,*,#209,.T.);
#259=ORIENTED_EDGE('',*,*,#210,.T.);
#260=ORIENTED_EDGE('',*,*,#211,.F.);
#261=ORIENTED_EDGE('',*,*,#210,.F.);
#262=ORIENTED_EDGE('',*,*,#212,.T.);
#263=ORIENTED_EDGE('',*,*,#213,.T.);
#264=ORIENTED_EDGE('',*,*,#214,.F.);
#265=ORIENTED_EDGE('',*,*,#213,.F.);
#266=ORIENTED_EDGE('',*,*,#215,.T.);
#267=ORIENTED_EDGE('',*,*,#205,.T.);
#268=ORIENTED_EDGE('',*,*,#206,.F.);
#269=ORIENTED_EDGE('',*,*,#215,.F.);
#270=ORIENTED_EDGE('',*,*,#212,.F.);
#271=ORIENTED_EDGE('',*,*,#209,.F.);
#272=ORIENTED_EDGE('',*,*,#182,.F.);
#273=ORIENTED_EDGE('',*,*,#188,.F.);
#274=ORIENTED_EDGE('',*,*,#194,.F.);
#275=ORIENTED_EDGE('',*,*,#200,.F.);
#276=ORIENTED_EDGE('',*,*,#177,.F.);
#277=ORIENTED_EDGE('',*,*,#204,.T.);
#278=ORIENTED_EDGE('',*,*,#208,.T.);
#279=ORIENTED_EDGE('',*,*,#211,.T.);
#280=ORIENTED_EDGE('',*,*,#214,.T.);
#281=ORIENTED_EDGE('',*,*,#183,.T.);
#282=ORIENTED_EDGE('',*,*,#189,.T.);
#283=ORIENTED_EDGE('',*,*,#195,.T.);
#284=ORIENTED_EDGE('',*,*,#201,.T.);
#285=ORIENTED_EDGE('',*,*,#179,.F.);
#286=ORIENTED_EDGE('',*,*,#203,.T.);
#287=ORIENTED_EDGE('',*,*,#198,.T.);
#288=ORIENTED_EDGE('',*,*,#197,.T.);
#289=ORIENTED_EDGE('',*,*,#192,.T.);
#290=ORIENTED_EDGE('',*,*,#191,.T.);
#291=ORIENTED_EDGE('',*,*,#186,.T.);
#292=ORIENTED_EDGE('',*,*,#185,.T.);
#293=ORIENTED_EDGE('',*,*,#180,.T.);
#294=CYLINDRICAL_SURFACE('',#345,6.);
#295=CYLINDRICAL_SURFACE('',#348,4.25);
#296=CYLINDRICAL_SURFACE('',#351,8.);
#297=CYLINDRICAL_SURFACE('',#354,4.25);
#298=CYLINDRICAL_SURFACE('',#357,8.);
#299=CYLINDRICAL_SURFACE('',#360,4.25);
#300=CYLINDRICAL_SURFACE('',#363,8.);
#301=CYLINDRICAL_SURFACE('',#366,4.25);
#302=CYLINDRICAL_SURFACE('',#369,8.);
#303=ADVANCED_FACE('',(#39),#294,.F.);
#304=ADVANCED_FACE('',(#40),#295,.F.);
#305=ADVANCED_FACE('',(#41),#296,.F.);
#306=ADVANCED_FACE('',(#42),#297,.F.);
#307=ADVANCED_FACE('',(#43),#298,.F.);
#308=ADVANCED_FACE('',(#44),#299,.F.);
#309=ADVANCED_FACE('',(#45),#300,.F.);
#310=ADVANCED_FACE('',(#46),#301,.F.);
#311=ADVANCED_FACE('',(#47),#302,.F.);
#312=ADVANCED_FACE('',(#48),#29,.T.);
#313=ADVANCED_FACE('',(#49),#30,.T.);
#314=ADVANCED_FACE('',(#50),#31,.T.);
#315=ADVANCED_FACE('',(#51),#32,.T.);
#316=ADVANCED_FACE('',(#52,#15,#16,#17,#18,#19),#33,.T.);
#317=ADVANCED_FACE('',(#53,#20,#21,#22,#23,#24),#34,.F.);
#318=ADVANCED_FACE('',(#54,#25),#35,.F.);
#319=ADVANCED_FACE('',(#55,#26),#36,.F.);
#320=ADVANCED_FACE('',(#56,#27),#37,.F.);
#321=ADVANCED_FACE('',(#57,#28),#38,.F.);
#322=CLOSED_SHELL('',(#303,#304,#305,#306,#307,#308,#309,#310,#311,#312,
#313,#314,#315,#316,#317,#318,#319,#320,#321));
#323=DERIVED_UNIT_ELEMENT(#326,1.);
#324=DERIVED_UNIT_ELEMENT(#569,-3.);
#325=DIMENSIONAL_EXPONENTS(1.,0.,0.,0.,0.,0.,0.);
#326=(
CONVERSION_BASED_UNIT('gram',#328)
MASS_UNIT()
NAMED_UNIT(#325)
);
#327=(
MASS_UNIT()
NAMED_UNIT(*)
SI_UNIT(.KILO.,.GRAM.)
);
#328=MASS_MEASURE_WITH_UNIT(MASS_MEASURE(0.001),#327);
#329=DERIVED_UNIT((#323,#324));
#330=MEASURE_REPRESENTATION_ITEM('density measure',
POSITIVE_RATIO_MEASURE(2.71),#329);
#331=PROPERTY_DEFINITION_REPRESENTATION(#336,#333);
#332=PROPERTY_DEFINITION_REPRESENTATION(#337,#334);
#333=REPRESENTATION('material name',(#335),#566);
#334=REPRESENTATION('density',(#330),#566);
#335=DESCRIPTIVE_REPRESENTATION_ITEM('ALLUMINIO','ALLUMINIO');
#336=PROPERTY_DEFINITION('material property','material name',#576);
#337=PROPERTY_DEFINITION('material property','density of part',#576);
#338=DATE_TIME_ROLE('creation_date');
#339=APPLIED_DATE_AND_TIME_ASSIGNMENT(#340,#338,(#576));
#340=DATE_AND_TIME(#341,#342);
#341=CALENDAR_DATE(2022,27,9);
#342=LOCAL_TIME(0,0,0.,#343);
#343=COORDINATED_UNIVERSAL_TIME_OFFSET(0,0,.BEHIND.);
#344=AXIS2_PLACEMENT_3D('placement',#479,#382,#383);
#345=AXIS2_PLACEMENT_3D('',#480,#384,#385);
#346=AXIS2_PLACEMENT_3D('',#482,#386,#387);
#347=AXIS2_PLACEMENT_3D('',#485,#389,#390);
#348=AXIS2_PLACEMENT_3D('',#486,#391,#392);
#349=AXIS2_PLACEMENT_3D('',#488,#393,#394);
#350=AXIS2_PLACEMENT_3D('',#491,#396,#397);
#351=AXIS2_PLACEMENT_3D('',#492,#398,#399);
#352=AXIS2_PLACEMENT_3D('',#494,#400,#401);
#353=AXIS2_PLACEMENT_3D('',#497,#403,#404);
#354=AXIS2_PLACEMENT_3D('',#498,#405,#406);
#355=AXIS2_PLACEMENT_3D('',#500,#407,#408);
#356=AXIS2_PLACEMENT_3D('',#503,#410,#411);
#357=AXIS2_PLACEMENT_3D('',#504,#412,#413);
#358=AXIS2_PLACEMENT_3D('',#506,#414,#415);
#359=AXIS2_PLACEMENT_3D('',#509,#417,#418);
#360=AXIS2_PLACEMENT_3D('',#510,#419,#420);
#361=AXIS2_PLACEMENT_3D('',#512,#421,#422);
#362=AXIS2_PLACEMENT_3D('',#515,#424,#425);
#363=AXIS2_PLACEMENT_3D('',#516,#426,#427);
#364=AXIS2_PLACEMENT_3D('',#518,#428,#429);
#365=AXIS2_PLACEMENT_3D('',#521,#431,#432);
#366=AXIS2_PLACEMENT_3D('',#522,#433,#434);
#367=AXIS2_PLACEMENT_3D('',#524,#435,#436);
#368=AXIS2_PLACEMENT_3D('',#527,#438,#439);
#369=AXIS2_PLACEMENT_3D('',#528,#440,#441);
#370=AXIS2_PLACEMENT_3D('',#530,#442,#443);
#371=AXIS2_PLACEMENT_3D('',#533,#445,#446);
#372=AXIS2_PLACEMENT_3D('',#534,#447,#448);
#373=AXIS2_PLACEMENT_3D('',#543,#453,#454);
#374=AXIS2_PLACEMENT_3D('',#549,#458,#459);
#375=AXIS2_PLACEMENT_3D('',#555,#463,#464);
#376=AXIS2_PLACEMENT_3D('',#558,#467,#468);
#377=AXIS2_PLACEMENT_3D('',#559,#469,#470);
#378=AXIS2_PLACEMENT_3D('',#560,#471,#472);
#379=AXIS2_PLACEMENT_3D('',#561,#473,#474);
#380=AXIS2_PLACEMENT_3D('',#562,#475,#476);
#381=AXIS2_PLACEMENT_3D('',#563,#477,#478);
#382=DIRECTION('axis',(0.,0.,1.));
#383=DIRECTION('refdir',(1.,0.,0.));
#384=DIRECTION('center_axis',(0.,0.,1.));
#385=DIRECTION('ref_axis',(0.,1.,0.));
#386=DIRECTION('center_axis',(0.,0.,1.));
#387=DIRECTION('ref_axis',(0.,1.,0.));
#388=DIRECTION('',(0.,0.,1.));
#389=DIRECTION('center_axis',(0.,0.,1.));
#390=DIRECTION('ref_axis',(0.,1.,0.));
#391=DIRECTION('center_axis',(0.,0.,-1.));
#392=DIRECTION('ref_axis',(-1.,0.,0.));
#393=DIRECTION('center_axis',(0.,0.,-1.));
#394=DIRECTION('ref_axis',(-1.,0.,0.));
#395=DIRECTION('',(0.,0.,-1.));
#396=DIRECTION('center_axis',(0.,0.,-1.));
#397=DIRECTION('ref_axis',(-1.,0.,0.));
#398=DIRECTION('center_axis',(0.,0.,-1.));
#399=DIRECTION('ref_axis',(-1.,0.,0.));
#400=DIRECTION('center_axis',(0.,0.,-1.));
#401=DIRECTION('ref_axis',(0.,-1.,0.));
#402=DIRECTION('',(0.,0.,-1.));
#403=DIRECTION('center_axis',(0.,0.,1.));
#404=DIRECTION('ref_axis',(0.,-1.,0.));
#405=DIRECTION('center_axis',(0.,0.,-1.));
#406=DIRECTION('ref_axis',(-1.,0.,0.));
#407=DIRECTION('center_axis',(0.,0.,-1.));
#408=DIRECTION('ref_axis',(-1.,0.,0.));
#409=DIRECTION('',(0.,0.,-1.));
#410=DIRECTION('center_axis',(0.,0.,-1.));
#411=DIRECTION('ref_axis',(-1.,0.,0.));
#412=DIRECTION('center_axis',(0.,0.,-1.));
#413=DIRECTION('ref_axis',(-1.,0.,0.));
#414=DIRECTION('center_axis',(0.,0.,-1.));
#415=DIRECTION('ref_axis',(0.,-1.,0.));
#416=DIRECTION('',(0.,0.,-1.));
#417=DIRECTION('center_axis',(0.,0.,1.));
#418=DIRECTION('ref_axis',(0.,-1.,0.));
#419=DIRECTION('center_axis',(0.,0.,-1.));
#420=DIRECTION('ref_axis',(-1.,0.,0.));
#421=DIRECTION('center_axis',(0.,0.,-1.));
#422=DIRECTION('ref_axis',(-1.,0.,0.));
#423=DIRECTION('',(0.,0.,-1.));
#424=DIRECTION('center_axis',(0.,0.,-1.));
#425=DIRECTION('ref_axis',(-1.,0.,0.));
#426=DIRECTION('center_axis',(0.,0.,-1.));
#427=DIRECTION('ref_axis',(-1.,0.,0.));
#428=DIRECTION('center_axis',(0.,0.,-1.));
#429=DIRECTION('ref_axis',(0.,-1.,0.));
#430=DIRECTION('',(0.,0.,-1.));
#431=DIRECTION('center_axis',(0.,0.,1.));
#432=DIRECTION('ref_axis',(0.,-1.,0.));
#433=DIRECTION('center_axis',(0.,0.,-1.));
#434=DIRECTION('ref_axis',(-1.,0.,0.));
#435=DIRECTION('center_axis',(0.,0.,-1.));
#436=DIRECTION('ref_axis',(-1.,0.,0.));
#437=DIRECTION('',(0.,0.,-1.));
#438=DIRECTION('center_axis',(0.,0.,-1.));
#439=DIRECTION('ref_axis',(-1.,0.,0.));
#440=DIRECTION('center_axis',(0.,0.,-1.));
#441=DIRECTION('ref_axis',(-1.,0.,0.));
#442=DIRECTION('center_axis',(0.,0.,-1.));
#443=DIRECTION('ref_axis',(0.,-1.,0.));
#444=DIRECTION('',(0.,0.,-1.));
#445=DIRECTION('center_axis',(0.,0.,1.));
#446=DIRECTION('ref_axis',(0.,-1.,0.));
#447=DIRECTION('center_axis',(-1.,0.,0.));
#448=DIRECTION('ref_axis',(0.,0.,1.));
#449=DIRECTION('',(0.,-1.,0.));
#450=DIRECTION('',(0.,0.,1.));
#451=DIRECTION('',(0.,-1.,0.));
#452=DIRECTION('',(0.,0.,1.));
#453=DIRECTION('center_axis',(0.,-1.,0.));
#454=DIRECTION('ref_axis',(0.,0.,-1.));
#455=DIRECTION('',(1.,0.,0.));
#456=DIRECTION('',(1.,0.,0.));
#457=DIRECTION('',(0.,0.,1.));
#458=DIRECTION('center_axis',(1.,0.,0.));
#459=DIRECTION('ref_axis',(0.,0.,-1.));
#460=DIRECTION('',(0.,1.,0.));
#461=DIRECTION('',(0.,1.,0.));
#462=DIRECTION('',(0.,0.,1.));
#463=DIRECTION('center_axis',(0.,1.,0.));
#464=DIRECTION('ref_axis',(0.,0.,1.));
#465=DIRECTION('',(-1.,0.,0.));
#466=DIRECTION('',(-1.,0.,0.));
#467=DIRECTION('center_axis',(0.,0.,-1.));
#468=DIRECTION('ref_axis',(-1.,0.,0.));
#469=DIRECTION('center_axis',(0.,0.,-1.));
#470=DIRECTION('ref_axis',(-1.,0.,0.));
#471=DIRECTION('center_axis',(0.,0.,-1.));
#472=DIRECTION('ref_axis',(-1.,0.,0.));
#473=DIRECTION('center_axis',(0.,0.,-1.));
#474=DIRECTION('ref_axis',(-1.,0.,0.));
#475=DIRECTION('center_axis',(0.,0.,-1.));
#476=DIRECTION('ref_axis',(-1.,0.,0.));
#477=DIRECTION('center_axis',(0.,0.,-1.));
#478=DIRECTION('ref_axis',(-1.,0.,0.));
#479=CARTESIAN_POINT('',(0.,0.,0.));
#480=CARTESIAN_POINT('Origin',(-40.,-3.552714E-15,-9.999994E-9));
#481=CARTESIAN_POINT('',(-40.,-6.,0.));
#482=CARTESIAN_POINT('Origin',(-40.,-3.552714E-15,0.));
#483=CARTESIAN_POINT('',(-40.,-6.,12.));
#484=CARTESIAN_POINT('',(-40.,-6.,-9.999994E-9));
#485=CARTESIAN_POINT('Origin',(-40.,-3.552714E-15,12.));
#486=CARTESIAN_POINT('Origin',(-60.,20.,4.00000001));
#487=CARTESIAN_POINT('',(-55.75,20.,4.));
#488=CARTESIAN_POINT('Origin',(-60.,20.,4.));
#489=CARTESIAN_POINT('',(-55.75,20.,0.));
#490=CARTESIAN_POINT('',(-55.75,20.,4.00000001));
#491=CARTESIAN_POINT('Origin',(-60.,20.,0.));
#492=CARTESIAN_POINT('Origin',(-60.,20.,12.00000001));
#493=CARTESIAN_POINT('',(-52.,20.,12.));
#494=CARTESIAN_POINT('Origin',(-60.,20.,12.));
#495=CARTESIAN_POINT('',(-52.,20.,4.));
#496=CARTESIAN_POINT('',(-52.,20.,12.00000001));
#497=CARTESIAN_POINT('Origin',(-60.,20.,4.));
#498=CARTESIAN_POINT('Origin',(-20.,20.,4.00000001));
#499=CARTESIAN_POINT('',(-15.75,20.,4.));
#500=CARTESIAN_POINT('Origin',(-20.,20.,4.));
#501=CARTESIAN_POINT('',(-15.75,20.,0.));
#502=CARTESIAN_POINT('',(-15.75,20.,4.00000001));
#503=CARTESIAN_POINT('Origin',(-20.,20.,0.));
#504=CARTESIAN_POINT('Origin',(-20.,20.,12.00000001));
#505=CARTESIAN_POINT('',(-12.,20.,12.));
#506=CARTESIAN_POINT('Origin',(-20.,20.,12.));
#507=CARTESIAN_POINT('',(-12.,20.,4.));
#508=CARTESIAN_POINT('',(-12.,20.,12.00000001));
#509=CARTESIAN_POINT('Origin',(-20.,20.,4.));
#510=CARTESIAN_POINT('Origin',(-20.,-20.,4.00000001));
#511=CARTESIAN_POINT('',(-15.75,-20.,4.));
#512=CARTESIAN_POINT('Origin',(-20.,-20.,4.));
#513=CARTESIAN_POINT('',(-15.75,-20.,0.));
#514=CARTESIAN_POINT('',(-15.75,-20.,4.00000001));
#515=CARTESIAN_POINT('Origin',(-20.,-20.,0.));
#516=CARTESIAN_POINT('Origin',(-20.,-20.,12.00000001));
#517=CARTESIAN_POINT('',(-12.,-20.,12.));
#518=CARTESIAN_POINT('Origin',(-20.,-20.,12.));
#519=CARTESIAN_POINT('',(-12.,-20.,4.));
#520=CARTESIAN_POINT('',(-12.,-20.,12.00000001));
#521=CARTESIAN_POINT('Origin',(-20.,-20.,4.));
#522=CARTESIAN_POINT('Origin',(-60.,-20.,4.00000001));
#523=CARTESIAN_POINT('',(-55.75,-20.,4.));
#524=CARTESIAN_POINT('Origin',(-60.,-20.,4.));
#525=CARTESIAN_POINT('',(-55.75,-20.,0.));
#526=CARTESIAN_POINT('',(-55.75,-20.,4.00000001));
#527=CARTESIAN_POINT('Origin',(-60.,-20.,0.));
#528=CARTESIAN_POINT('Origin',(-60.,-20.,12.00000001));
#529=CARTESIAN_POINT('',(-52.,-20.,12.));
#530=CARTESIAN_POINT('Origin',(-60.,-20.,12.));
#531=CARTESIAN_POINT('',(-52.,-20.,4.));
#532=CARTESIAN_POINT('',(-52.,-20.,12.00000001));
#533=CARTESIAN_POINT('Origin',(-60.,-20.,4.));
#534=CARTESIAN_POINT('Origin',(-80.,-44.,-0.6));
#535=CARTESIAN_POINT('',(-80.,40.,12.));
#536=CARTESIAN_POINT('',(-80.,-40.,12.));
#537=CARTESIAN_POINT('',(-80.,40.,12.));
#538=CARTESIAN_POINT('',(-80.,40.,0.));
#539=CARTESIAN_POINT('',(-80.,40.,0.));
#540=CARTESIAN_POINT('',(-80.,-40.,0.));
#541=CARTESIAN_POINT('',(-80.,40.,0.));
#542=CARTESIAN_POINT('',(-80.,-40.,0.));
#543=CARTESIAN_POINT('Origin',(-84.,-40.,-0.6));
#544=CARTESIAN_POINT('',(4.440892E-15,-40.,12.));
#545=CARTESIAN_POINT('',(-80.,-40.,12.));
#546=CARTESIAN_POINT('',(4.440892E-15,-40.,0.));
#547=CARTESIAN_POINT('',(-80.,-40.,0.));
#548=CARTESIAN_POINT('',(4.440892E-15,-40.,0.));
#549=CARTESIAN_POINT('Origin',(0.,-44.,12.6));
#550=CARTESIAN_POINT('',(0.,40.,12.));
#551=CARTESIAN_POINT('',(0.,-40.,12.));
#552=CARTESIAN_POINT('',(0.,40.,0.));
#553=CARTESIAN_POINT('',(0.,-40.,0.));
#554=CARTESIAN_POINT('',(0.,40.,0.));
#555=CARTESIAN_POINT('Origin',(-84.,40.,-0.6));
#556=CARTESIAN_POINT('',(0.,40.,12.));
#557=CARTESIAN_POINT('',(0.,40.,0.));
#558=CARTESIAN_POINT('Origin',(4.,-44.,0.));
#559=CARTESIAN_POINT('Origin',(4.,-44.,12.));
#560=CARTESIAN_POINT('Origin',(-51.2,-28.8,4.));
#561=CARTESIAN_POINT('Origin',(-11.2,-28.8,4.));
#562=CARTESIAN_POINT('Origin',(-11.2,11.2,4.));
#563=CARTESIAN_POINT('Origin',(-51.2,11.2,4.));
#564=UNCERTAINTY_MEASURE_WITH_UNIT(LENGTH_MEASURE(0.01),#568,
'DISTANCE_ACCURACY_VALUE',
'Maximum model space distance between geometric entities at asserted c
onnectivities');
#565=UNCERTAINTY_MEASURE_WITH_UNIT(LENGTH_MEASURE(0.01),#568,
'DISTANCE_ACCURACY_VALUE',
'Maximum model space distance between geometric entities at asserted c
onnectivities');
#566=(
GEOMETRIC_REPRESENTATION_CONTEXT(3)
GLOBAL_UNCERTAINTY_ASSIGNED_CONTEXT((#564))
GLOBAL_UNIT_ASSIGNED_CONTEXT((#568,#570,#571))
REPRESENTATION_CONTEXT('','3D')
);
#567=(
GEOMETRIC_REPRESENTATION_CONTEXT(3)
GLOBAL_UNCERTAINTY_ASSIGNED_CONTEXT((#565))
GLOBAL_UNIT_ASSIGNED_CONTEXT((#568,#570,#571))
REPRESENTATION_CONTEXT('','3D')
);
#568=(
LENGTH_UNIT()
NAMED_UNIT(*)
SI_UNIT(.MILLI.,.METRE.)
);
#569=(
LENGTH_UNIT()
NAMED_UNIT(*)
SI_UNIT(.CENTI.,.METRE.)
);
#570=(
NAMED_UNIT(*)
PLANE_ANGLE_UNIT()
SI_UNIT($,.RADIAN.)
);
#571=(
NAMED_UNIT(*)
SI_UNIT($,.STERADIAN.)
SOLID_ANGLE_UNIT()
);
#572=SHAPE_DEFINITION_REPRESENTATION(#573,#574);
#573=PRODUCT_DEFINITION_SHAPE('',$,#576);
#574=SHAPE_REPRESENTATION('',(#344),#566);
#575=PRODUCT_DEFINITION_CONTEXT('part definition',#580,'design');
#576=PRODUCT_DEFINITION('DPSXX0001718','DPSXX0001718',#577,#575);
#577=PRODUCT_DEFINITION_FORMATION('A',$,#582);
#578=PRODUCT_RELATED_PRODUCT_CATEGORY('DPSXX0001718','DPSXX0001718',(#582));
#579=APPLICATION_PROTOCOL_DEFINITION('international standard',
'automotive_design',2009,#580);
#580=APPLICATION_CONTEXT(
'Core Data for Automotive Mechanical Design Process');
#581=PRODUCT_CONTEXT('part definition',#580,'mechanical');
#582=PRODUCT('DPSXX0001718','DPSXX0001718',
'PIASTRA 80X80 SP.12 ALLUMINIO',(#581));
#583=PRESENTATION_STYLE_ASSIGNMENT((#584));
#584=SURFACE_STYLE_USAGE(.BOTH.,#587);
#585=SURFACE_STYLE_RENDERING_WITH_PROPERTIES($,#591,(#586));
#586=SURFACE_STYLE_TRANSPARENT(0.);
#587=SURFACE_SIDE_STYLE('',(#588,#585));
#588=SURFACE_STYLE_FILL_AREA(#589);
#589=FILL_AREA_STYLE('',(#590));
#590=FILL_AREA_STYLE_COLOUR('',#591);
#591=COLOUR_RGB('',0.752941176470588,0.752941176470588,0.752941176470588);
ENDSEC;
END-ISO-10303-21;
