ISO-10303-21;
HEADER;
/* Generated by software containing ST-Developer
 * from STEP Tools, Inc. (www.steptools.com) 
 */

FILE_DESCRIPTION(
/* description */ ('PIASTRA GIUNZIONE A 8 FORI ZINCATA'),
/* implementation_level */ '2;1');

FILE_NAME(
/* name */ 
'C:\\Users\\tecnico7\\Desktop\\tavole temporanee\\DPSXX0001711.stp',
/* time_stamp */ '2022-11-16T16:37:44+01:00',
/* author */ ('tecnico7'),
/* organization */ (''),
/* preprocessor_version */ 'ST-DEVELOPER v18.1',
/* originating_system */ 'Autodesk Inventor 2022',
/* authorisation */ '');

FILE_SCHEMA (('AUTOMOTIVE_DESIGN { 1 0 10303 214 3 1 1 }'));
ENDSEC;

DATA;
#10=MECHANICAL_DESIGN_GEOMETRIC_PRESENTATION_REPRESENTATION('',(#13),#644);
#11=SHAPE_REPRESENTATION_RELATIONSHIP('SRR','None',#651,#12);
#12=ADVANCED_BREP_SHAPE_REPRESENTATION('',(#14),#643);
#13=STYLED_ITEM('',(#660),#14);
#14=MANIFOLD_SOLID_BREP('Solido1',#367);
#15=FACE_BOUND('',#64,.T.);
#16=FACE_BOUND('',#65,.T.);
#17=FACE_BOUND('',#66,.T.);
#18=FACE_BOUND('',#67,.T.);
#19=FACE_BOUND('',#68,.T.);
#20=FACE_BOUND('',#69,.T.);
#21=FACE_BOUND('',#70,.T.);
#22=FACE_BOUND('',#71,.T.);
#23=FACE_BOUND('',#73,.T.);
#24=FACE_BOUND('',#74,.T.);
#25=FACE_BOUND('',#75,.T.);
#26=FACE_BOUND('',#76,.T.);
#27=FACE_BOUND('',#77,.T.);
#28=FACE_BOUND('',#78,.T.);
#29=FACE_BOUND('',#79,.T.);
#30=FACE_BOUND('',#80,.T.);
#31=PLANE('',#414);
#32=PLANE('',#419);
#33=PLANE('',#424);
#34=PLANE('',#425);
#35=PLANE('',#426);
#36=PLANE('',#427);
#37=FACE_OUTER_BOUND('',#55,.T.);
#38=FACE_OUTER_BOUND('',#56,.T.);
#39=FACE_OUTER_BOUND('',#57,.T.);
#40=FACE_OUTER_BOUND('',#58,.T.);
#41=FACE_OUTER_BOUND('',#59,.T.);
#42=FACE_OUTER_BOUND('',#60,.T.);
#43=FACE_OUTER_BOUND('',#61,.T.);
#44=FACE_OUTER_BOUND('',#62,.T.);
#45=FACE_OUTER_BOUND('',#63,.T.);
#46=FACE_OUTER_BOUND('',#72,.T.);
#47=FACE_OUTER_BOUND('',#81,.T.);
#48=FACE_OUTER_BOUND('',#82,.T.);
#49=FACE_OUTER_BOUND('',#83,.T.);
#50=FACE_OUTER_BOUND('',#84,.T.);
#51=FACE_OUTER_BOUND('',#85,.T.);
#52=FACE_OUTER_BOUND('',#86,.T.);
#53=FACE_OUTER_BOUND('',#87,.T.);
#54=FACE_OUTER_BOUND('',#88,.T.);
#55=EDGE_LOOP('',(#241,#242,#243,#244));
#56=EDGE_LOOP('',(#245,#246,#247,#248));
#57=EDGE_LOOP('',(#249,#250,#251,#252));
#58=EDGE_LOOP('',(#253,#254,#255,#256));
#59=EDGE_LOOP('',(#257,#258,#259,#260));
#60=EDGE_LOOP('',(#261,#262,#263,#264));
#61=EDGE_LOOP('',(#265,#266,#267,#268));
#62=EDGE_LOOP('',(#269,#270,#271,#272));
#63=EDGE_LOOP('',(#273,#274,#275,#276,#277,#278,#279,#280));
#64=EDGE_LOOP('',(#281));
#65=EDGE_LOOP('',(#282));
#66=EDGE_LOOP('',(#283));
#67=EDGE_LOOP('',(#284));
#68=EDGE_LOOP('',(#285));
#69=EDGE_LOOP('',(#286));
#70=EDGE_LOOP('',(#287));
#71=EDGE_LOOP('',(#288));
#72=EDGE_LOOP('',(#289,#290,#291,#292,#293,#294,#295,#296));
#73=EDGE_LOOP('',(#297));
#74=EDGE_LOOP('',(#298));
#75=EDGE_LOOP('',(#299));
#76=EDGE_LOOP('',(#300));
#77=EDGE_LOOP('',(#301));
#78=EDGE_LOOP('',(#302));
#79=EDGE_LOOP('',(#303));
#80=EDGE_LOOP('',(#304));
#81=EDGE_LOOP('',(#305,#306,#307,#308));
#82=EDGE_LOOP('',(#309,#310,#311,#312));
#83=EDGE_LOOP('',(#313,#314,#315,#316));
#84=EDGE_LOOP('',(#317,#318,#319,#320));
#85=EDGE_LOOP('',(#321,#322,#323,#324));
#86=EDGE_LOOP('',(#325,#326,#327,#328));
#87=EDGE_LOOP('',(#329,#330,#331,#332));
#88=EDGE_LOOP('',(#333,#334,#335,#336));
#89=LINE('',#547,#113);
#90=LINE('',#553,#114);
#91=LINE('',#559,#115);
#92=LINE('',#565,#116);
#93=LINE('',#571,#117);
#94=LINE('',#577,#118);
#95=LINE('',#583,#119);
#96=LINE('',#589,#120);
#97=LINE('',#594,#121);
#98=LINE('',#598,#122);
#99=LINE('',#602,#123);
#100=LINE('',#606,#124);
#101=LINE('',#611,#125);
#102=LINE('',#615,#126);
#103=LINE('',#619,#127);
#104=LINE('',#623,#128);
#105=LINE('',#626,#129);
#106=LINE('',#627,#130);
#107=LINE('',#629,#131);
#108=LINE('',#630,#132);
#109=LINE('',#632,#133);
#110=LINE('',#633,#134);
#111=LINE('',#635,#135);
#112=LINE('',#636,#136);
#113=VECTOR('',#438,4.5);
#114=VECTOR('',#445,4.5);
#115=VECTOR('',#452,4.5);
#116=VECTOR('',#459,4.5);
#117=VECTOR('',#466,4.5);
#118=VECTOR('',#473,4.5);
#119=VECTOR('',#480,4.5);
#120=VECTOR('',#487,4.5);
#121=VECTOR('',#492,1000.);
#122=VECTOR('',#495,1000.);
#123=VECTOR('',#498,1000.);
#124=VECTOR('',#501,1000.);
#125=VECTOR('',#506,1000.);
#126=VECTOR('',#509,1000.);
#127=VECTOR('',#512,1000.);
#128=VECTOR('',#515,1000.);
#129=VECTOR('',#520,1000.);
#130=VECTOR('',#521,1000.);
#131=VECTOR('',#524,1000.);
#132=VECTOR('',#525,1000.);
#133=VECTOR('',#528,1000.);
#134=VECTOR('',#529,1000.);
#135=VECTOR('',#532,1000.);
#136=VECTOR('',#533,1000.);
#137=CIRCLE('',#391,4.5);
#138=CIRCLE('',#392,4.5);
#139=CIRCLE('',#394,4.5);
#140=CIRCLE('',#395,4.5);
#141=CIRCLE('',#397,4.5);
#142=CIRCLE('',#398,4.5);
#143=CIRCLE('',#400,4.5);
#144=CIRCLE('',#401,4.5);
#145=CIRCLE('',#403,4.5);
#146=CIRCLE('',#404,4.5);
#147=CIRCLE('',#406,4.5);
#148=CIRCLE('',#407,4.5);
#149=CIRCLE('',#409,4.5);
#150=CIRCLE('',#410,4.5);
#151=CIRCLE('',#412,4.5);
#152=CIRCLE('',#413,4.5);
#153=CIRCLE('',#415,3.);
#154=CIRCLE('',#416,3.);
#155=CIRCLE('',#417,3.);
#156=CIRCLE('',#418,3.);
#157=CIRCLE('',#420,3.);
#158=CIRCLE('',#421,3.);
#159=CIRCLE('',#422,3.);
#160=CIRCLE('',#423,3.);
#161=VERTEX_POINT('',#544);
#162=VERTEX_POINT('',#546);
#163=VERTEX_POINT('',#550);
#164=VERTEX_POINT('',#552);
#165=VERTEX_POINT('',#556);
#166=VERTEX_POINT('',#558);
#167=VERTEX_POINT('',#562);
#168=VERTEX_POINT('',#564);
#169=VERTEX_POINT('',#568);
#170=VERTEX_POINT('',#570);
#171=VERTEX_POINT('',#574);
#172=VERTEX_POINT('',#576);
#173=VERTEX_POINT('',#580);
#174=VERTEX_POINT('',#582);
#175=VERTEX_POINT('',#586);
#176=VERTEX_POINT('',#588);
#177=VERTEX_POINT('',#592);
#178=VERTEX_POINT('',#593);
#179=VERTEX_POINT('',#595);
#180=VERTEX_POINT('',#597);
#181=VERTEX_POINT('',#599);
#182=VERTEX_POINT('',#601);
#183=VERTEX_POINT('',#603);
#184=VERTEX_POINT('',#605);
#185=VERTEX_POINT('',#609);
#186=VERTEX_POINT('',#610);
#187=VERTEX_POINT('',#612);
#188=VERTEX_POINT('',#614);
#189=VERTEX_POINT('',#616);
#190=VERTEX_POINT('',#618);
#191=VERTEX_POINT('',#620);
#192=VERTEX_POINT('',#622);
#193=EDGE_CURVE('',#161,#161,#137,.T.);
#194=EDGE_CURVE('',#161,#162,#89,.T.);
#195=EDGE_CURVE('',#162,#162,#138,.T.);
#196=EDGE_CURVE('',#163,#163,#139,.T.);
#197=EDGE_CURVE('',#163,#164,#90,.T.);
#198=EDGE_CURVE('',#164,#164,#140,.T.);
#199=EDGE_CURVE('',#165,#165,#141,.T.);
#200=EDGE_CURVE('',#165,#166,#91,.T.);
#201=EDGE_CURVE('',#166,#166,#142,.T.);
#202=EDGE_CURVE('',#167,#167,#143,.T.);
#203=EDGE_CURVE('',#167,#168,#92,.T.);
#204=EDGE_CURVE('',#168,#168,#144,.T.);
#205=EDGE_CURVE('',#169,#169,#145,.T.);
#206=EDGE_CURVE('',#169,#170,#93,.T.);
#207=EDGE_CURVE('',#170,#170,#146,.T.);
#208=EDGE_CURVE('',#171,#171,#147,.T.);
#209=EDGE_CURVE('',#171,#172,#94,.T.);
#210=EDGE_CURVE('',#172,#172,#148,.T.);
#211=EDGE_CURVE('',#173,#173,#149,.T.);
#212=EDGE_CURVE('',#173,#174,#95,.T.);
#213=EDGE_CURVE('',#174,#174,#150,.T.);
#214=EDGE_CURVE('',#175,#175,#151,.T.);
#215=EDGE_CURVE('',#175,#176,#96,.T.);
#216=EDGE_CURVE('',#176,#176,#152,.T.);
#217=EDGE_CURVE('',#177,#178,#97,.T.);
#218=EDGE_CURVE('',#178,#179,#153,.T.);
#219=EDGE_CURVE('',#179,#180,#98,.T.);
#220=EDGE_CURVE('',#180,#181,#154,.T.);
#221=EDGE_CURVE('',#181,#182,#99,.T.);
#222=EDGE_CURVE('',#182,#183,#155,.T.);
#223=EDGE_CURVE('',#183,#184,#100,.T.);
#224=EDGE_CURVE('',#184,#177,#156,.T.);
#225=EDGE_CURVE('',#185,#186,#101,.T.);
#226=EDGE_CURVE('',#185,#187,#157,.T.);
#227=EDGE_CURVE('',#188,#187,#102,.T.);
#228=EDGE_CURVE('',#188,#189,#158,.T.);
#229=EDGE_CURVE('',#190,#189,#103,.T.);
#230=EDGE_CURVE('',#190,#191,#159,.T.);
#231=EDGE_CURVE('',#192,#191,#104,.T.);
#232=EDGE_CURVE('',#192,#186,#160,.T.);
#233=EDGE_CURVE('',#189,#184,#105,.T.);
#234=EDGE_CURVE('',#183,#190,#106,.T.);
#235=EDGE_CURVE('',#187,#178,#107,.T.);
#236=EDGE_CURVE('',#177,#188,#108,.T.);
#237=EDGE_CURVE('',#179,#185,#109,.T.);
#238=EDGE_CURVE('',#186,#180,#110,.T.);
#239=EDGE_CURVE('',#191,#182,#111,.T.);
#240=EDGE_CURVE('',#181,#192,#112,.T.);
#241=ORIENTED_EDGE('',*,*,#193,.T.);
#242=ORIENTED_EDGE('',*,*,#194,.T.);
#243=ORIENTED_EDGE('',*,*,#195,.F.);
#244=ORIENTED_EDGE('',*,*,#194,.F.);
#245=ORIENTED_EDGE('',*,*,#196,.T.);
#246=ORIENTED_EDGE('',*,*,#197,.T.);
#247=ORIENTED_EDGE('',*,*,#198,.F.);
#248=ORIENTED_EDGE('',*,*,#197,.F.);
#249=ORIENTED_EDGE('',*,*,#199,.T.);
#250=ORIENTED_EDGE('',*,*,#200,.T.);
#251=ORIENTED_EDGE('',*,*,#201,.F.);
#252=ORIENTED_EDGE('',*,*,#200,.F.);
#253=ORIENTED_EDGE('',*,*,#202,.T.);
#254=ORIENTED_EDGE('',*,*,#203,.T.);
#255=ORIENTED_EDGE('',*,*,#204,.F.);
#256=ORIENTED_EDGE('',*,*,#203,.F.);
#257=ORIENTED_EDGE('',*,*,#205,.T.);
#258=ORIENTED_EDGE('',*,*,#206,.T.);
#259=ORIENTED_EDGE('',*,*,#207,.F.);
#260=ORIENTED_EDGE('',*,*,#206,.F.);
#261=ORIENTED_EDGE('',*,*,#208,.T.);
#262=ORIENTED_EDGE('',*,*,#209,.T.);
#263=ORIENTED_EDGE('',*,*,#210,.F.);
#264=ORIENTED_EDGE('',*,*,#209,.F.);
#265=ORIENTED_EDGE('',*,*,#211,.T.);
#266=ORIENTED_EDGE('',*,*,#212,.T.);
#267=ORIENTED_EDGE('',*,*,#213,.F.);
#268=ORIENTED_EDGE('',*,*,#212,.F.);
#269=ORIENTED_EDGE('',*,*,#214,.T.);
#270=ORIENTED_EDGE('',*,*,#215,.T.);
#271=ORIENTED_EDGE('',*,*,#216,.F.);
#272=ORIENTED_EDGE('',*,*,#215,.F.);
#273=ORIENTED_EDGE('',*,*,#217,.T.);
#274=ORIENTED_EDGE('',*,*,#218,.T.);
#275=ORIENTED_EDGE('',*,*,#219,.T.);
#276=ORIENTED_EDGE('',*,*,#220,.T.);
#277=ORIENTED_EDGE('',*,*,#221,.T.);
#278=ORIENTED_EDGE('',*,*,#222,.T.);
#279=ORIENTED_EDGE('',*,*,#223,.T.);
#280=ORIENTED_EDGE('',*,*,#224,.T.);
#281=ORIENTED_EDGE('',*,*,#211,.F.);
#282=ORIENTED_EDGE('',*,*,#205,.F.);
#283=ORIENTED_EDGE('',*,*,#199,.F.);
#284=ORIENTED_EDGE('',*,*,#193,.F.);
#285=ORIENTED_EDGE('',*,*,#196,.F.);
#286=ORIENTED_EDGE('',*,*,#202,.F.);
#287=ORIENTED_EDGE('',*,*,#208,.F.);
#288=ORIENTED_EDGE('',*,*,#214,.F.);
#289=ORIENTED_EDGE('',*,*,#225,.F.);
#290=ORIENTED_EDGE('',*,*,#226,.T.);
#291=ORIENTED_EDGE('',*,*,#227,.F.);
#292=ORIENTED_EDGE('',*,*,#228,.T.);
#293=ORIENTED_EDGE('',*,*,#229,.F.);
#294=ORIENTED_EDGE('',*,*,#230,.T.);
#295=ORIENTED_EDGE('',*,*,#231,.F.);
#296=ORIENTED_EDGE('',*,*,#232,.T.);
#297=ORIENTED_EDGE('',*,*,#213,.T.);
#298=ORIENTED_EDGE('',*,*,#207,.T.);
#299=ORIENTED_EDGE('',*,*,#201,.T.);
#300=ORIENTED_EDGE('',*,*,#195,.T.);
#301=ORIENTED_EDGE('',*,*,#198,.T.);
#302=ORIENTED_EDGE('',*,*,#204,.T.);
#303=ORIENTED_EDGE('',*,*,#210,.T.);
#304=ORIENTED_EDGE('',*,*,#216,.T.);
#305=ORIENTED_EDGE('',*,*,#229,.T.);
#306=ORIENTED_EDGE('',*,*,#233,.T.);
#307=ORIENTED_EDGE('',*,*,#223,.F.);
#308=ORIENTED_EDGE('',*,*,#234,.T.);
#309=ORIENTED_EDGE('',*,*,#227,.T.);
#310=ORIENTED_EDGE('',*,*,#235,.T.);
#311=ORIENTED_EDGE('',*,*,#217,.F.);
#312=ORIENTED_EDGE('',*,*,#236,.T.);
#313=ORIENTED_EDGE('',*,*,#219,.F.);
#314=ORIENTED_EDGE('',*,*,#237,.T.);
#315=ORIENTED_EDGE('',*,*,#225,.T.);
#316=ORIENTED_EDGE('',*,*,#238,.T.);
#317=ORIENTED_EDGE('',*,*,#231,.T.);
#318=ORIENTED_EDGE('',*,*,#239,.T.);
#319=ORIENTED_EDGE('',*,*,#221,.F.);
#320=ORIENTED_EDGE('',*,*,#240,.T.);
#321=ORIENTED_EDGE('',*,*,#218,.F.);
#322=ORIENTED_EDGE('',*,*,#235,.F.);
#323=ORIENTED_EDGE('',*,*,#226,.F.);
#324=ORIENTED_EDGE('',*,*,#237,.F.);
#325=ORIENTED_EDGE('',*,*,#224,.F.);
#326=ORIENTED_EDGE('',*,*,#233,.F.);
#327=ORIENTED_EDGE('',*,*,#228,.F.);
#328=ORIENTED_EDGE('',*,*,#236,.F.);
#329=ORIENTED_EDGE('',*,*,#222,.F.);
#330=ORIENTED_EDGE('',*,*,#239,.F.);
#331=ORIENTED_EDGE('',*,*,#230,.F.);
#332=ORIENTED_EDGE('',*,*,#234,.F.);
#333=ORIENTED_EDGE('',*,*,#220,.F.);
#334=ORIENTED_EDGE('',*,*,#238,.F.);
#335=ORIENTED_EDGE('',*,*,#232,.F.);
#336=ORIENTED_EDGE('',*,*,#240,.F.);
#337=CYLINDRICAL_SURFACE('',#390,4.5);
#338=CYLINDRICAL_SURFACE('',#393,4.5);
#339=CYLINDRICAL_SURFACE('',#396,4.5);
#340=CYLINDRICAL_SURFACE('',#399,4.5);
#341=CYLINDRICAL_SURFACE('',#402,4.5);
#342=CYLINDRICAL_SURFACE('',#405,4.5);
#343=CYLINDRICAL_SURFACE('',#408,4.5);
#344=CYLINDRICAL_SURFACE('',#411,4.5);
#345=CYLINDRICAL_SURFACE('',#428,3.);
#346=CYLINDRICAL_SURFACE('',#429,3.);
#347=CYLINDRICAL_SURFACE('',#430,3.);
#348=CYLINDRICAL_SURFACE('',#431,3.);
#349=ADVANCED_FACE('',(#37),#337,.F.);
#350=ADVANCED_FACE('',(#38),#338,.F.);
#351=ADVANCED_FACE('',(#39),#339,.F.);
#352=ADVANCED_FACE('',(#40),#340,.F.);
#353=ADVANCED_FACE('',(#41),#341,.F.);
#354=ADVANCED_FACE('',(#42),#342,.F.);
#355=ADVANCED_FACE('',(#43),#343,.F.);
#356=ADVANCED_FACE('',(#44),#344,.F.);
#357=ADVANCED_FACE('',(#45,#15,#16,#17,#18,#19,#20,#21,#22),#31,.F.);
#358=ADVANCED_FACE('',(#46,#23,#24,#25,#26,#27,#28,#29,#30),#32,.T.);
#359=ADVANCED_FACE('',(#47),#33,.F.);
#360=ADVANCED_FACE('',(#48),#34,.F.);
#361=ADVANCED_FACE('',(#49),#35,.F.);
#362=ADVANCED_FACE('',(#50),#36,.F.);
#363=ADVANCED_FACE('',(#51),#345,.T.);
#364=ADVANCED_FACE('',(#52),#346,.T.);
#365=ADVANCED_FACE('',(#53),#347,.T.);
#366=ADVANCED_FACE('',(#54),#348,.T.);
#367=CLOSED_SHELL('',(#349,#350,#351,#352,#353,#354,#355,#356,#357,#358,
#359,#360,#361,#362,#363,#364,#365,#366));
#368=DERIVED_UNIT_ELEMENT(#371,1.);
#369=DERIVED_UNIT_ELEMENT(#646,-3.);
#370=DIMENSIONAL_EXPONENTS(1.,0.,0.,0.,0.,0.,0.);
#371=(
CONVERSION_BASED_UNIT('gram',#373)
MASS_UNIT()
NAMED_UNIT(#370)
);
#372=(
MASS_UNIT()
NAMED_UNIT(*)
SI_UNIT(.KILO.,.GRAM.)
);
#373=MASS_MEASURE_WITH_UNIT(MASS_MEASURE(0.001),#372);
#374=DERIVED_UNIT((#368,#369));
#375=MEASURE_REPRESENTATION_ITEM('density measure',
POSITIVE_RATIO_MEASURE(7.85),#374);
#376=PROPERTY_DEFINITION_REPRESENTATION(#381,#378);
#377=PROPERTY_DEFINITION_REPRESENTATION(#382,#379);
#378=REPRESENTATION('material name',(#380),#643);
#379=REPRESENTATION('density',(#375),#643);
#380=DESCRIPTIVE_REPRESENTATION_ITEM('Acciaio classe  200HV',
'Acciaio classe  200HV');
#381=PROPERTY_DEFINITION('material property','material name',#653);
#382=PROPERTY_DEFINITION('material property','density of part',#653);
#383=DATE_TIME_ROLE('creation_date');
#384=APPLIED_DATE_AND_TIME_ASSIGNMENT(#385,#383,(#653));
#385=DATE_AND_TIME(#386,#387);
#386=CALENDAR_DATE(2015,7,10);
#387=LOCAL_TIME(0,0,0.,#388);
#388=COORDINATED_UNIVERSAL_TIME_OFFSET(0,0,.BEHIND.);
#389=AXIS2_PLACEMENT_3D('placement',#542,#432,#433);
#390=AXIS2_PLACEMENT_3D('',#543,#434,#435);
#391=AXIS2_PLACEMENT_3D('',#545,#436,#437);
#392=AXIS2_PLACEMENT_3D('',#548,#439,#440);
#393=AXIS2_PLACEMENT_3D('',#549,#441,#442);
#394=AXIS2_PLACEMENT_3D('',#551,#443,#444);
#395=AXIS2_PLACEMENT_3D('',#554,#446,#447);
#396=AXIS2_PLACEMENT_3D('',#555,#448,#449);
#397=AXIS2_PLACEMENT_3D('',#557,#450,#451);
#398=AXIS2_PLACEMENT_3D('',#560,#453,#454);
#399=AXIS2_PLACEMENT_3D('',#561,#455,#456);
#400=AXIS2_PLACEMENT_3D('',#563,#457,#458);
#401=AXIS2_PLACEMENT_3D('',#566,#460,#461);
#402=AXIS2_PLACEMENT_3D('',#567,#462,#463);
#403=AXIS2_PLACEMENT_3D('',#569,#464,#465);
#404=AXIS2_PLACEMENT_3D('',#572,#467,#468);
#405=AXIS2_PLACEMENT_3D('',#573,#469,#470);
#406=AXIS2_PLACEMENT_3D('',#575,#471,#472);
#407=AXIS2_PLACEMENT_3D('',#578,#474,#475);
#408=AXIS2_PLACEMENT_3D('',#579,#476,#477);
#409=AXIS2_PLACEMENT_3D('',#581,#478,#479);
#410=AXIS2_PLACEMENT_3D('',#584,#481,#482);
#411=AXIS2_PLACEMENT_3D('',#585,#483,#484);
#412=AXIS2_PLACEMENT_3D('',#587,#485,#486);
#413=AXIS2_PLACEMENT_3D('',#590,#488,#489);
#414=AXIS2_PLACEMENT_3D('',#591,#490,#491);
#415=AXIS2_PLACEMENT_3D('',#596,#493,#494);
#416=AXIS2_PLACEMENT_3D('',#600,#496,#497);
#417=AXIS2_PLACEMENT_3D('',#604,#499,#500);
#418=AXIS2_PLACEMENT_3D('',#607,#502,#503);
#419=AXIS2_PLACEMENT_3D('',#608,#504,#505);
#420=AXIS2_PLACEMENT_3D('',#613,#507,#508);
#421=AXIS2_PLACEMENT_3D('',#617,#510,#511);
#422=AXIS2_PLACEMENT_3D('',#621,#513,#514);
#423=AXIS2_PLACEMENT_3D('',#624,#516,#517);
#424=AXIS2_PLACEMENT_3D('',#625,#518,#519);
#425=AXIS2_PLACEMENT_3D('',#628,#522,#523);
#426=AXIS2_PLACEMENT_3D('',#631,#526,#527);
#427=AXIS2_PLACEMENT_3D('',#634,#530,#531);
#428=AXIS2_PLACEMENT_3D('',#637,#534,#535);
#429=AXIS2_PLACEMENT_3D('',#638,#536,#537);
#430=AXIS2_PLACEMENT_3D('',#639,#538,#539);
#431=AXIS2_PLACEMENT_3D('',#640,#540,#541);
#432=DIRECTION('axis',(0.,0.,1.));
#433=DIRECTION('refdir',(1.,0.,0.));
#434=DIRECTION('center_axis',(0.,0.,-1.));
#435=DIRECTION('ref_axis',(-1.,0.,0.));
#436=DIRECTION('center_axis',(0.,0.,1.));
#437=DIRECTION('ref_axis',(1.,0.,0.));
#438=DIRECTION('',(0.,0.,-1.));
#439=DIRECTION('center_axis',(0.,0.,1.));
#440=DIRECTION('ref_axis',(1.,0.,0.));
#441=DIRECTION('center_axis',(0.,0.,-1.));
#442=DIRECTION('ref_axis',(-1.,0.,0.));
#443=DIRECTION('center_axis',(0.,0.,1.));
#444=DIRECTION('ref_axis',(1.,0.,0.));
#445=DIRECTION('',(0.,0.,-1.));
#446=DIRECTION('center_axis',(0.,0.,1.));
#447=DIRECTION('ref_axis',(1.,0.,0.));
#448=DIRECTION('center_axis',(0.,0.,-1.));
#449=DIRECTION('ref_axis',(-1.,0.,0.));
#450=DIRECTION('center_axis',(0.,0.,1.));
#451=DIRECTION('ref_axis',(-1.,0.,0.));
#452=DIRECTION('',(0.,0.,-1.));
#453=DIRECTION('center_axis',(0.,0.,1.));
#454=DIRECTION('ref_axis',(-1.,0.,0.));
#455=DIRECTION('center_axis',(0.,0.,-1.));
#456=DIRECTION('ref_axis',(-1.,0.,0.));
#457=DIRECTION('center_axis',(0.,0.,1.));
#458=DIRECTION('ref_axis',(-1.,0.,0.));
#459=DIRECTION('',(0.,0.,-1.));
#460=DIRECTION('center_axis',(0.,0.,1.));
#461=DIRECTION('ref_axis',(-1.,0.,0.));
#462=DIRECTION('center_axis',(0.,0.,-1.));
#463=DIRECTION('ref_axis',(-1.,0.,0.));
#464=DIRECTION('center_axis',(0.,0.,1.));
#465=DIRECTION('ref_axis',(-1.,0.,0.));
#466=DIRECTION('',(0.,0.,-1.));
#467=DIRECTION('center_axis',(0.,0.,1.));
#468=DIRECTION('ref_axis',(-1.,0.,0.));
#469=DIRECTION('center_axis',(0.,0.,-1.));
#470=DIRECTION('ref_axis',(-1.,0.,0.));
#471=DIRECTION('center_axis',(0.,0.,1.));
#472=DIRECTION('ref_axis',(-1.,0.,0.));
#473=DIRECTION('',(0.,0.,-1.));
#474=DIRECTION('center_axis',(0.,0.,1.));
#475=DIRECTION('ref_axis',(-1.,0.,0.));
#476=DIRECTION('center_axis',(0.,0.,-1.));
#477=DIRECTION('ref_axis',(-1.,0.,0.));
#478=DIRECTION('center_axis',(0.,0.,1.));
#479=DIRECTION('ref_axis',(1.,0.,0.));
#480=DIRECTION('',(0.,0.,-1.));
#481=DIRECTION('center_axis',(0.,0.,1.));
#482=DIRECTION('ref_axis',(1.,0.,0.));
#483=DIRECTION('center_axis',(0.,0.,-1.));
#484=DIRECTION('ref_axis',(-1.,0.,0.));
#485=DIRECTION('center_axis',(0.,0.,1.));
#486=DIRECTION('ref_axis',(1.,0.,0.));
#487=DIRECTION('',(0.,0.,-1.));
#488=DIRECTION('center_axis',(0.,0.,1.));
#489=DIRECTION('ref_axis',(1.,0.,0.));
#490=DIRECTION('center_axis',(0.,0.,-1.));
#491=DIRECTION('ref_axis',(-1.,0.,0.));
#492=DIRECTION('',(1.,0.,0.));
#493=DIRECTION('center_axis',(0.,0.,1.));
#494=DIRECTION('ref_axis',(-1.,0.,0.));
#495=DIRECTION('',(0.,1.,0.));
#496=DIRECTION('center_axis',(0.,0.,1.));
#497=DIRECTION('ref_axis',(-1.,0.,0.));
#498=DIRECTION('',(-1.,0.,0.));
#499=DIRECTION('center_axis',(0.,0.,1.));
#500=DIRECTION('ref_axis',(-1.,0.,0.));
#501=DIRECTION('',(0.,-1.,0.));
#502=DIRECTION('center_axis',(0.,0.,1.));
#503=DIRECTION('ref_axis',(-1.,0.,0.));
#504=DIRECTION('center_axis',(0.,0.,-1.));
#505=DIRECTION('ref_axis',(-1.,0.,0.));
#506=DIRECTION('',(0.,1.,0.));
#507=DIRECTION('center_axis',(0.,0.,-1.));
#508=DIRECTION('ref_axis',(-1.,0.,0.));
#509=DIRECTION('',(1.,0.,0.));
#510=DIRECTION('center_axis',(0.,0.,-1.));
#511=DIRECTION('ref_axis',(-1.,0.,0.));
#512=DIRECTION('',(0.,-1.,0.));
#513=DIRECTION('center_axis',(0.,0.,-1.));
#514=DIRECTION('ref_axis',(-1.,0.,0.));
#515=DIRECTION('',(-1.,0.,0.));
#516=DIRECTION('center_axis',(0.,0.,-1.));
#517=DIRECTION('ref_axis',(-1.,0.,0.));
#518=DIRECTION('center_axis',(1.,0.,0.));
#519=DIRECTION('ref_axis',(0.,0.,-1.));
#520=DIRECTION('',(0.,0.,1.));
#521=DIRECTION('',(0.,0.,-1.));
#522=DIRECTION('center_axis',(0.,1.,0.));
#523=DIRECTION('ref_axis',(0.,0.,1.));
#524=DIRECTION('',(0.,0.,1.));
#525=DIRECTION('',(0.,0.,-1.));
#526=DIRECTION('center_axis',(-1.,0.,0.));
#527=DIRECTION('ref_axis',(0.,0.,1.));
#528=DIRECTION('',(0.,0.,-1.));
#529=DIRECTION('',(0.,0.,1.));
#530=DIRECTION('center_axis',(0.,-1.,0.));
#531=DIRECTION('ref_axis',(0.,0.,-1.));
#532=DIRECTION('',(0.,0.,1.));
#533=DIRECTION('',(0.,0.,-1.));
#534=DIRECTION('center_axis',(0.,0.,-1.));
#535=DIRECTION('ref_axis',(-1.,0.,0.));
#536=DIRECTION('center_axis',(0.,0.,-1.));
#537=DIRECTION('ref_axis',(-1.,0.,0.));
#538=DIRECTION('center_axis',(0.,0.,-1.));
#539=DIRECTION('ref_axis',(-1.,0.,0.));
#540=DIRECTION('center_axis',(0.,0.,-1.));
#541=DIRECTION('ref_axis',(-1.,0.,0.));
#542=CARTESIAN_POINT('',(0.,0.,0.));
#543=CARTESIAN_POINT('Origin',(20.,-20.,6.));
#544=CARTESIAN_POINT('',(24.5,-20.,6.));
#545=CARTESIAN_POINT('Origin',(20.,-20.,6.));
#546=CARTESIAN_POINT('',(24.5,-20.,0.));
#547=CARTESIAN_POINT('',(24.5,-20.,6.));
#548=CARTESIAN_POINT('Origin',(20.,-20.,0.));
#549=CARTESIAN_POINT('Origin',(60.,-20.,6.));
#550=CARTESIAN_POINT('',(64.5,-20.,6.));
#551=CARTESIAN_POINT('Origin',(60.,-20.,6.));
#552=CARTESIAN_POINT('',(64.5,-20.,0.));
#553=CARTESIAN_POINT('',(64.5,-20.,6.));
#554=CARTESIAN_POINT('Origin',(60.,-20.,0.));
#555=CARTESIAN_POINT('Origin',(60.,20.,6.));
#556=CARTESIAN_POINT('',(64.5,20.,6.));
#557=CARTESIAN_POINT('Origin',(60.,20.,6.));
#558=CARTESIAN_POINT('',(64.5,20.,0.));
#559=CARTESIAN_POINT('',(64.5,20.,6.));
#560=CARTESIAN_POINT('Origin',(60.,20.,0.));
#561=CARTESIAN_POINT('Origin',(20.,20.,6.));
#562=CARTESIAN_POINT('',(24.5,20.,6.));
#563=CARTESIAN_POINT('Origin',(20.,20.,6.));
#564=CARTESIAN_POINT('',(24.5,20.,0.));
#565=CARTESIAN_POINT('',(24.5,20.,6.));
#566=CARTESIAN_POINT('Origin',(20.,20.,0.));
#567=CARTESIAN_POINT('Origin',(-60.,-20.,6.));
#568=CARTESIAN_POINT('',(-55.5,-20.,6.));
#569=CARTESIAN_POINT('Origin',(-60.,-20.,6.));
#570=CARTESIAN_POINT('',(-55.5,-20.,0.));
#571=CARTESIAN_POINT('',(-55.5,-20.,6.));
#572=CARTESIAN_POINT('Origin',(-60.,-20.,0.));
#573=CARTESIAN_POINT('Origin',(-20.,-20.,6.));
#574=CARTESIAN_POINT('',(-15.5,-20.,6.));
#575=CARTESIAN_POINT('Origin',(-20.,-20.,6.));
#576=CARTESIAN_POINT('',(-15.5,-20.,0.));
#577=CARTESIAN_POINT('',(-15.5,-20.,6.));
#578=CARTESIAN_POINT('Origin',(-20.,-20.,0.));
#579=CARTESIAN_POINT('Origin',(-20.,20.,6.));
#580=CARTESIAN_POINT('',(-15.5,20.,6.));
#581=CARTESIAN_POINT('Origin',(-20.,20.,6.));
#582=CARTESIAN_POINT('',(-15.5,20.,0.));
#583=CARTESIAN_POINT('',(-15.5,20.,6.));
#584=CARTESIAN_POINT('Origin',(-20.,20.,0.));
#585=CARTESIAN_POINT('Origin',(-60.,20.,6.));
#586=CARTESIAN_POINT('',(-55.5,20.,6.));
#587=CARTESIAN_POINT('Origin',(-60.,20.,6.));
#588=CARTESIAN_POINT('',(-55.5,20.,0.));
#589=CARTESIAN_POINT('',(-55.5,20.,6.));
#590=CARTESIAN_POINT('Origin',(-60.,20.,0.));
#591=CARTESIAN_POINT('Origin',(-80.,40.,6.));
#592=CARTESIAN_POINT('',(-77.,-40.,6.));
#593=CARTESIAN_POINT('',(77.,-40.,6.));
#594=CARTESIAN_POINT('',(-80.,-40.,6.));
#595=CARTESIAN_POINT('',(80.,-37.,6.));
#596=CARTESIAN_POINT('Origin',(77.,-37.,6.));
#597=CARTESIAN_POINT('',(80.,37.,6.));
#598=CARTESIAN_POINT('',(80.,-40.,6.));
#599=CARTESIAN_POINT('',(77.,40.,6.));
#600=CARTESIAN_POINT('Origin',(77.,37.,6.));
#601=CARTESIAN_POINT('',(-77.,40.,6.));
#602=CARTESIAN_POINT('',(-80.,40.,6.));
#603=CARTESIAN_POINT('',(-80.,37.,6.));
#604=CARTESIAN_POINT('Origin',(-77.,37.,6.));
#605=CARTESIAN_POINT('',(-80.,-37.,6.));
#606=CARTESIAN_POINT('',(-80.,-40.,6.));
#607=CARTESIAN_POINT('Origin',(-77.,-37.,6.));
#608=CARTESIAN_POINT('Origin',(-80.,40.,0.));
#609=CARTESIAN_POINT('',(80.,-37.,0.));
#610=CARTESIAN_POINT('',(80.,37.,0.));
#611=CARTESIAN_POINT('',(80.,-40.,0.));
#612=CARTESIAN_POINT('',(77.,-40.,0.));
#613=CARTESIAN_POINT('Origin',(77.,-37.,0.));
#614=CARTESIAN_POINT('',(-77.,-40.,0.));
#615=CARTESIAN_POINT('',(-80.,-40.,0.));
#616=CARTESIAN_POINT('',(-80.,-37.,0.));
#617=CARTESIAN_POINT('Origin',(-77.,-37.,0.));
#618=CARTESIAN_POINT('',(-80.,37.,0.));
#619=CARTESIAN_POINT('',(-80.,-40.,0.));
#620=CARTESIAN_POINT('',(-77.,40.,0.));
#621=CARTESIAN_POINT('Origin',(-77.,37.,0.));
#622=CARTESIAN_POINT('',(77.,40.,0.));
#623=CARTESIAN_POINT('',(-80.,40.,0.));
#624=CARTESIAN_POINT('Origin',(77.,37.,0.));
#625=CARTESIAN_POINT('Origin',(-80.,-40.,6.));
#626=CARTESIAN_POINT('',(-80.,-37.,6.));
#627=CARTESIAN_POINT('',(-80.,37.,6.));
#628=CARTESIAN_POINT('Origin',(-80.,-40.,6.));
#629=CARTESIAN_POINT('',(77.,-40.,6.));
#630=CARTESIAN_POINT('',(-77.,-40.,6.));
#631=CARTESIAN_POINT('Origin',(80.,-40.,6.));
#632=CARTESIAN_POINT('',(80.,-37.,6.));
#633=CARTESIAN_POINT('',(80.,37.,6.));
#634=CARTESIAN_POINT('Origin',(-80.,40.,6.));
#635=CARTESIAN_POINT('',(-77.,40.,6.));
#636=CARTESIAN_POINT('',(77.,40.,6.));
#637=CARTESIAN_POINT('Origin',(77.,-37.,6.));
#638=CARTESIAN_POINT('Origin',(-77.,-37.,6.));
#639=CARTESIAN_POINT('Origin',(-77.,37.,6.));
#640=CARTESIAN_POINT('Origin',(77.,37.,6.));
#641=UNCERTAINTY_MEASURE_WITH_UNIT(LENGTH_MEASURE(0.01),#645,
'DISTANCE_ACCURACY_VALUE',
'Maximum model space distance between geometric entities at asserted c
onnectivities');
#642=UNCERTAINTY_MEASURE_WITH_UNIT(LENGTH_MEASURE(0.01),#645,
'DISTANCE_ACCURACY_VALUE',
'Maximum model space distance between geometric entities at asserted c
onnectivities');
#643=(
GEOMETRIC_REPRESENTATION_CONTEXT(3)
GLOBAL_UNCERTAINTY_ASSIGNED_CONTEXT((#641))
GLOBAL_UNIT_ASSIGNED_CONTEXT((#645,#647,#648))
REPRESENTATION_CONTEXT('','3D')
);
#644=(
GEOMETRIC_REPRESENTATION_CONTEXT(3)
GLOBAL_UNCERTAINTY_ASSIGNED_CONTEXT((#642))
GLOBAL_UNIT_ASSIGNED_CONTEXT((#645,#647,#648))
REPRESENTATION_CONTEXT('','3D')
);
#645=(
LENGTH_UNIT()
NAMED_UNIT(*)
SI_UNIT(.MILLI.,.METRE.)
);
#646=(
LENGTH_UNIT()
NAMED_UNIT(*)
SI_UNIT(.CENTI.,.METRE.)
);
#647=(
NAMED_UNIT(*)
PLANE_ANGLE_UNIT()
SI_UNIT($,.RADIAN.)
);
#648=(
NAMED_UNIT(*)
SI_UNIT($,.STERADIAN.)
SOLID_ANGLE_UNIT()
);
#649=SHAPE_DEFINITION_REPRESENTATION(#650,#651);
#650=PRODUCT_DEFINITION_SHAPE('',$,#653);
#651=SHAPE_REPRESENTATION('',(#389),#643);
#652=PRODUCT_DEFINITION_CONTEXT('part definition',#657,'design');
#653=PRODUCT_DEFINITION('DPSXX0001711','DPSXX0001711',#654,#652);
#654=PRODUCT_DEFINITION_FORMATION('A',$,#659);
#655=PRODUCT_RELATED_PRODUCT_CATEGORY('DPSXX0001711','DPSXX0001711',(#659));
#656=APPLICATION_PROTOCOL_DEFINITION('international standard',
'automotive_design',2009,#657);
#657=APPLICATION_CONTEXT(
'Core Data for Automotive Mechanical Design Process');
#658=PRODUCT_CONTEXT('part definition',#657,'mechanical');
#659=PRODUCT('DPSXX0001711','DPSXX0001711',
'PIASTRA GIUNZIONE A 8 FORI ZINCATA',(#658));
#660=PRESENTATION_STYLE_ASSIGNMENT((#661));
#661=SURFACE_STYLE_USAGE(.BOTH.,#664);
#662=SURFACE_STYLE_RENDERING_WITH_PROPERTIES($,#668,(#663));
#663=SURFACE_STYLE_TRANSPARENT(0.);
#664=SURFACE_SIDE_STYLE('',(#665,#662));
#665=SURFACE_STYLE_FILL_AREA(#666);
#666=FILL_AREA_STYLE('',(#667));
#667=FILL_AREA_STYLE_COLOUR('',#668);
#668=COLOUR_RGB('',0.63921568627451,0.63921568627451,0.662745098039216);
ENDSEC;
END-ISO-10303-21;
