ISO-10303-21;
HEADER;
/* Generated by software containing ST-Developer
 * from STEP Tools, Inc. (www.steptools.com) 
 */

FILE_DESCRIPTION(
/* description */ ('PIASTRA GIUNZIONE A 2 FORI INOX'),
/* implementation_level */ '2;1');

FILE_NAME(
/* name */ 
'C:\\Users\\tecnico7\\Desktop\\NUOVI DISEGNI 3D\\DPSXX0001709.stp',
/* time_stamp */ '2022-11-21T10:41:11+01:00',
/* author */ ('tecnico7'),
/* organization */ (''),
/* preprocessor_version */ 'ST-DEVELOPER v18.1',
/* originating_system */ 'Autodesk Inventor 2022',
/* authorisation */ '');

FILE_SCHEMA (('AUTOMOTIVE_DESIGN { 1 0 10303 214 3 1 1 }'));
ENDSEC;

DATA;
#10=MECHANICAL_DESIGN_GEOMETRIC_PRESENTATION_REPRESENTATION('',(#13),#612);
#11=SHAPE_REPRESENTATION_RELATIONSHIP('SRR','None',#619,#12);
#12=ADVANCED_BREP_SHAPE_REPRESENTATION('',(#14),#611);
#13=STYLED_ITEM('',(#628),#14);
#14=MANIFOLD_SOLID_BREP('Solido1',#351);
#15=CYLINDRICAL_SURFACE('',#396,3.);
#16=CYLINDRICAL_SURFACE('',#397,3.);
#17=CYLINDRICAL_SURFACE('',#398,3.);
#18=CYLINDRICAL_SURFACE('',#399,3.);
#19=CYLINDRICAL_SURFACE('',#400,4.5);
#20=CYLINDRICAL_SURFACE('',#402,4.5);
#21=CYLINDRICAL_SURFACE('',#404,4.5);
#22=CYLINDRICAL_SURFACE('',#406,4.5);
#23=FACE_BOUND('',#66,.T.);
#24=FACE_BOUND('',#67,.T.);
#25=FACE_BOUND('',#69,.T.);
#26=FACE_BOUND('',#70,.T.);
#27=CIRCLE('',#379,3.);
#28=CIRCLE('',#380,3.);
#29=CIRCLE('',#381,3.);
#30=CIRCLE('',#382,3.);
#31=CIRCLE('',#383,4.5);
#32=CIRCLE('',#384,4.5);
#33=CIRCLE('',#385,4.5);
#34=CIRCLE('',#386,4.5);
#35=CIRCLE('',#388,3.);
#36=CIRCLE('',#389,3.);
#37=CIRCLE('',#390,3.);
#38=CIRCLE('',#391,3.);
#39=CIRCLE('',#392,4.5);
#40=CIRCLE('',#393,4.5);
#41=CIRCLE('',#394,4.5);
#42=CIRCLE('',#395,4.5);
#43=FACE_OUTER_BOUND('',#61,.T.);
#44=FACE_OUTER_BOUND('',#62,.T.);
#45=FACE_OUTER_BOUND('',#63,.T.);
#46=FACE_OUTER_BOUND('',#64,.T.);
#47=FACE_OUTER_BOUND('',#65,.T.);
#48=FACE_OUTER_BOUND('',#68,.T.);
#49=FACE_OUTER_BOUND('',#71,.T.);
#50=FACE_OUTER_BOUND('',#72,.T.);
#51=FACE_OUTER_BOUND('',#73,.T.);
#52=FACE_OUTER_BOUND('',#74,.T.);
#53=FACE_OUTER_BOUND('',#75,.T.);
#54=FACE_OUTER_BOUND('',#76,.T.);
#55=FACE_OUTER_BOUND('',#77,.T.);
#56=FACE_OUTER_BOUND('',#78,.T.);
#57=FACE_OUTER_BOUND('',#79,.T.);
#58=FACE_OUTER_BOUND('',#80,.T.);
#59=FACE_OUTER_BOUND('',#81,.T.);
#60=FACE_OUTER_BOUND('',#82,.T.);
#61=EDGE_LOOP('',(#227,#228,#229,#230));
#62=EDGE_LOOP('',(#231,#232,#233,#234));
#63=EDGE_LOOP('',(#235,#236,#237,#238));
#64=EDGE_LOOP('',(#239,#240,#241,#242));
#65=EDGE_LOOP('',(#243,#244,#245,#246,#247,#248,#249,#250));
#66=EDGE_LOOP('',(#251,#252,#253,#254));
#67=EDGE_LOOP('',(#255,#256,#257,#258));
#68=EDGE_LOOP('',(#259,#260,#261,#262,#263,#264,#265,#266));
#69=EDGE_LOOP('',(#267,#268,#269,#270));
#70=EDGE_LOOP('',(#271,#272,#273,#274));
#71=EDGE_LOOP('',(#275,#276,#277,#278));
#72=EDGE_LOOP('',(#279,#280,#281,#282));
#73=EDGE_LOOP('',(#283,#284,#285,#286));
#74=EDGE_LOOP('',(#287,#288,#289,#290));
#75=EDGE_LOOP('',(#291,#292,#293,#294));
#76=EDGE_LOOP('',(#295,#296,#297,#298));
#77=EDGE_LOOP('',(#299,#300,#301,#302));
#78=EDGE_LOOP('',(#303,#304,#305,#306));
#79=EDGE_LOOP('',(#307,#308,#309,#310));
#80=EDGE_LOOP('',(#311,#312,#313,#314));
#81=EDGE_LOOP('',(#315,#316,#317,#318));
#82=EDGE_LOOP('',(#319,#320,#321,#322));
#83=LINE('',#514,#115);
#84=LINE('',#516,#116);
#85=LINE('',#518,#117);
#86=LINE('',#519,#118);
#87=LINE('',#523,#119);
#88=LINE('',#525,#120);
#89=LINE('',#527,#121);
#90=LINE('',#528,#122);
#91=LINE('',#532,#123);
#92=LINE('',#534,#124);
#93=LINE('',#536,#125);
#94=LINE('',#537,#126);
#95=LINE('',#541,#127);
#96=LINE('',#543,#128);
#97=LINE('',#545,#129);
#98=LINE('',#546,#130);
#99=LINE('',#556,#131);
#100=LINE('',#559,#132);
#101=LINE('',#564,#133);
#102=LINE('',#567,#134);
#103=LINE('',#575,#135);
#104=LINE('',#579,#136);
#105=LINE('',#583,#137);
#106=LINE('',#587,#138);
#107=LINE('',#594,#139);
#108=LINE('',#595,#140);
#109=LINE('',#597,#141);
#110=LINE('',#599,#142);
#111=LINE('',#602,#143);
#112=LINE('',#603,#144);
#113=LINE('',#605,#145);
#114=LINE('',#607,#146);
#115=VECTOR('',#412,1000.);
#116=VECTOR('',#413,1000.);
#117=VECTOR('',#414,1000.);
#118=VECTOR('',#415,1000.);
#119=VECTOR('',#418,1000.);
#120=VECTOR('',#419,1000.);
#121=VECTOR('',#420,1000.);
#122=VECTOR('',#421,1000.);
#123=VECTOR('',#424,1000.);
#124=VECTOR('',#425,1000.);
#125=VECTOR('',#426,1000.);
#126=VECTOR('',#427,1000.);
#127=VECTOR('',#430,1000.);
#128=VECTOR('',#431,1000.);
#129=VECTOR('',#432,1000.);
#130=VECTOR('',#433,1000.);
#131=VECTOR('',#446,1000.);
#132=VECTOR('',#449,1000.);
#133=VECTOR('',#452,1000.);
#134=VECTOR('',#455,1000.);
#135=VECTOR('',#466,1000.);
#136=VECTOR('',#469,1000.);
#137=VECTOR('',#472,1000.);
#138=VECTOR('',#475,1000.);
#139=VECTOR('',#488,1000.);
#140=VECTOR('',#489,1000.);
#141=VECTOR('',#492,1000.);
#142=VECTOR('',#495,1000.);
#143=VECTOR('',#500,1000.);
#144=VECTOR('',#501,1000.);
#145=VECTOR('',#504,1000.);
#146=VECTOR('',#507,1000.);
#147=VERTEX_POINT('',#512);
#148=VERTEX_POINT('',#513);
#149=VERTEX_POINT('',#515);
#150=VERTEX_POINT('',#517);
#151=VERTEX_POINT('',#521);
#152=VERTEX_POINT('',#522);
#153=VERTEX_POINT('',#524);
#154=VERTEX_POINT('',#526);
#155=VERTEX_POINT('',#530);
#156=VERTEX_POINT('',#531);
#157=VERTEX_POINT('',#533);
#158=VERTEX_POINT('',#535);
#159=VERTEX_POINT('',#539);
#160=VERTEX_POINT('',#540);
#161=VERTEX_POINT('',#542);
#162=VERTEX_POINT('',#544);
#163=VERTEX_POINT('',#552);
#164=VERTEX_POINT('',#553);
#165=VERTEX_POINT('',#555);
#166=VERTEX_POINT('',#557);
#167=VERTEX_POINT('',#560);
#168=VERTEX_POINT('',#561);
#169=VERTEX_POINT('',#563);
#170=VERTEX_POINT('',#565);
#171=VERTEX_POINT('',#573);
#172=VERTEX_POINT('',#574);
#173=VERTEX_POINT('',#576);
#174=VERTEX_POINT('',#578);
#175=VERTEX_POINT('',#581);
#176=VERTEX_POINT('',#582);
#177=VERTEX_POINT('',#584);
#178=VERTEX_POINT('',#586);
#179=EDGE_CURVE('',#147,#148,#83,.T.);
#180=EDGE_CURVE('',#147,#149,#84,.T.);
#181=EDGE_CURVE('',#149,#150,#85,.T.);
#182=EDGE_CURVE('',#150,#148,#86,.T.);
#183=EDGE_CURVE('',#151,#152,#87,.T.);
#184=EDGE_CURVE('',#151,#153,#88,.T.);
#185=EDGE_CURVE('',#153,#154,#89,.T.);
#186=EDGE_CURVE('',#154,#152,#90,.T.);
#187=EDGE_CURVE('',#155,#156,#91,.T.);
#188=EDGE_CURVE('',#156,#157,#92,.T.);
#189=EDGE_CURVE('',#158,#157,#93,.T.);
#190=EDGE_CURVE('',#158,#155,#94,.T.);
#191=EDGE_CURVE('',#159,#160,#95,.T.);
#192=EDGE_CURVE('',#160,#161,#96,.T.);
#193=EDGE_CURVE('',#162,#161,#97,.T.);
#194=EDGE_CURVE('',#162,#159,#98,.T.);
#195=EDGE_CURVE('',#161,#147,#27,.T.);
#196=EDGE_CURVE('',#148,#151,#28,.T.);
#197=EDGE_CURVE('',#152,#158,#29,.T.);
#198=EDGE_CURVE('',#157,#162,#30,.T.);
#199=EDGE_CURVE('',#163,#164,#31,.T.);
#200=EDGE_CURVE('',#165,#163,#99,.T.);
#201=EDGE_CURVE('',#166,#165,#32,.T.);
#202=EDGE_CURVE('',#164,#166,#100,.T.);
#203=EDGE_CURVE('',#167,#168,#33,.T.);
#204=EDGE_CURVE('',#169,#167,#101,.T.);
#205=EDGE_CURVE('',#170,#169,#34,.T.);
#206=EDGE_CURVE('',#168,#170,#102,.T.);
#207=EDGE_CURVE('',#149,#160,#35,.T.);
#208=EDGE_CURVE('',#159,#156,#36,.T.);
#209=EDGE_CURVE('',#155,#154,#37,.T.);
#210=EDGE_CURVE('',#153,#150,#38,.T.);
#211=EDGE_CURVE('',#171,#172,#103,.T.);
#212=EDGE_CURVE('',#172,#173,#39,.T.);
#213=EDGE_CURVE('',#173,#174,#104,.T.);
#214=EDGE_CURVE('',#174,#171,#40,.T.);
#215=EDGE_CURVE('',#175,#176,#105,.T.);
#216=EDGE_CURVE('',#176,#177,#41,.T.);
#217=EDGE_CURVE('',#177,#178,#106,.T.);
#218=EDGE_CURVE('',#178,#175,#42,.T.);
#219=EDGE_CURVE('',#177,#168,#107,.T.);
#220=EDGE_CURVE('',#176,#167,#108,.T.);
#221=EDGE_CURVE('',#175,#169,#109,.T.);
#222=EDGE_CURVE('',#178,#170,#110,.T.);
#223=EDGE_CURVE('',#173,#164,#111,.T.);
#224=EDGE_CURVE('',#172,#163,#112,.T.);
#225=EDGE_CURVE('',#171,#165,#113,.T.);
#226=EDGE_CURVE('',#174,#166,#114,.T.);
#227=ORIENTED_EDGE('',*,*,#179,.F.);
#228=ORIENTED_EDGE('',*,*,#180,.T.);
#229=ORIENTED_EDGE('',*,*,#181,.T.);
#230=ORIENTED_EDGE('',*,*,#182,.T.);
#231=ORIENTED_EDGE('',*,*,#183,.F.);
#232=ORIENTED_EDGE('',*,*,#184,.T.);
#233=ORIENTED_EDGE('',*,*,#185,.T.);
#234=ORIENTED_EDGE('',*,*,#186,.T.);
#235=ORIENTED_EDGE('',*,*,#187,.T.);
#236=ORIENTED_EDGE('',*,*,#188,.T.);
#237=ORIENTED_EDGE('',*,*,#189,.F.);
#238=ORIENTED_EDGE('',*,*,#190,.T.);
#239=ORIENTED_EDGE('',*,*,#191,.T.);
#240=ORIENTED_EDGE('',*,*,#192,.T.);
#241=ORIENTED_EDGE('',*,*,#193,.F.);
#242=ORIENTED_EDGE('',*,*,#194,.T.);
#243=ORIENTED_EDGE('',*,*,#193,.T.);
#244=ORIENTED_EDGE('',*,*,#195,.T.);
#245=ORIENTED_EDGE('',*,*,#179,.T.);
#246=ORIENTED_EDGE('',*,*,#196,.T.);
#247=ORIENTED_EDGE('',*,*,#183,.T.);
#248=ORIENTED_EDGE('',*,*,#197,.T.);
#249=ORIENTED_EDGE('',*,*,#189,.T.);
#250=ORIENTED_EDGE('',*,*,#198,.T.);
#251=ORIENTED_EDGE('',*,*,#199,.F.);
#252=ORIENTED_EDGE('',*,*,#200,.F.);
#253=ORIENTED_EDGE('',*,*,#201,.F.);
#254=ORIENTED_EDGE('',*,*,#202,.F.);
#255=ORIENTED_EDGE('',*,*,#203,.F.);
#256=ORIENTED_EDGE('',*,*,#204,.F.);
#257=ORIENTED_EDGE('',*,*,#205,.F.);
#258=ORIENTED_EDGE('',*,*,#206,.F.);
#259=ORIENTED_EDGE('',*,*,#181,.F.);
#260=ORIENTED_EDGE('',*,*,#207,.T.);
#261=ORIENTED_EDGE('',*,*,#191,.F.);
#262=ORIENTED_EDGE('',*,*,#208,.T.);
#263=ORIENTED_EDGE('',*,*,#187,.F.);
#264=ORIENTED_EDGE('',*,*,#209,.T.);
#265=ORIENTED_EDGE('',*,*,#185,.F.);
#266=ORIENTED_EDGE('',*,*,#210,.T.);
#267=ORIENTED_EDGE('',*,*,#211,.T.);
#268=ORIENTED_EDGE('',*,*,#212,.T.);
#269=ORIENTED_EDGE('',*,*,#213,.T.);
#270=ORIENTED_EDGE('',*,*,#214,.T.);
#271=ORIENTED_EDGE('',*,*,#215,.T.);
#272=ORIENTED_EDGE('',*,*,#216,.T.);
#273=ORIENTED_EDGE('',*,*,#217,.T.);
#274=ORIENTED_EDGE('',*,*,#218,.T.);
#275=ORIENTED_EDGE('',*,*,#195,.F.);
#276=ORIENTED_EDGE('',*,*,#192,.F.);
#277=ORIENTED_EDGE('',*,*,#207,.F.);
#278=ORIENTED_EDGE('',*,*,#180,.F.);
#279=ORIENTED_EDGE('',*,*,#196,.F.);
#280=ORIENTED_EDGE('',*,*,#182,.F.);
#281=ORIENTED_EDGE('',*,*,#210,.F.);
#282=ORIENTED_EDGE('',*,*,#184,.F.);
#283=ORIENTED_EDGE('',*,*,#198,.F.);
#284=ORIENTED_EDGE('',*,*,#188,.F.);
#285=ORIENTED_EDGE('',*,*,#208,.F.);
#286=ORIENTED_EDGE('',*,*,#194,.F.);
#287=ORIENTED_EDGE('',*,*,#197,.F.);
#288=ORIENTED_EDGE('',*,*,#186,.F.);
#289=ORIENTED_EDGE('',*,*,#209,.F.);
#290=ORIENTED_EDGE('',*,*,#190,.F.);
#291=ORIENTED_EDGE('',*,*,#203,.T.);
#292=ORIENTED_EDGE('',*,*,#219,.F.);
#293=ORIENTED_EDGE('',*,*,#216,.F.);
#294=ORIENTED_EDGE('',*,*,#220,.T.);
#295=ORIENTED_EDGE('',*,*,#204,.T.);
#296=ORIENTED_EDGE('',*,*,#220,.F.);
#297=ORIENTED_EDGE('',*,*,#215,.F.);
#298=ORIENTED_EDGE('',*,*,#221,.T.);
#299=ORIENTED_EDGE('',*,*,#205,.T.);
#300=ORIENTED_EDGE('',*,*,#221,.F.);
#301=ORIENTED_EDGE('',*,*,#218,.F.);
#302=ORIENTED_EDGE('',*,*,#222,.T.);
#303=ORIENTED_EDGE('',*,*,#206,.T.);
#304=ORIENTED_EDGE('',*,*,#222,.F.);
#305=ORIENTED_EDGE('',*,*,#217,.F.);
#306=ORIENTED_EDGE('',*,*,#219,.T.);
#307=ORIENTED_EDGE('',*,*,#199,.T.);
#308=ORIENTED_EDGE('',*,*,#223,.F.);
#309=ORIENTED_EDGE('',*,*,#212,.F.);
#310=ORIENTED_EDGE('',*,*,#224,.T.);
#311=ORIENTED_EDGE('',*,*,#200,.T.);
#312=ORIENTED_EDGE('',*,*,#224,.F.);
#313=ORIENTED_EDGE('',*,*,#211,.F.);
#314=ORIENTED_EDGE('',*,*,#225,.T.);
#315=ORIENTED_EDGE('',*,*,#201,.T.);
#316=ORIENTED_EDGE('',*,*,#225,.F.);
#317=ORIENTED_EDGE('',*,*,#214,.F.);
#318=ORIENTED_EDGE('',*,*,#226,.T.);
#319=ORIENTED_EDGE('',*,*,#202,.T.);
#320=ORIENTED_EDGE('',*,*,#226,.F.);
#321=ORIENTED_EDGE('',*,*,#213,.F.);
#322=ORIENTED_EDGE('',*,*,#223,.T.);
#323=PLANE('',#374);
#324=PLANE('',#375);
#325=PLANE('',#376);
#326=PLANE('',#377);
#327=PLANE('',#378);
#328=PLANE('',#387);
#329=PLANE('',#401);
#330=PLANE('',#403);
#331=PLANE('',#405);
#332=PLANE('',#407);
#333=ADVANCED_FACE('',(#43),#323,.F.);
#334=ADVANCED_FACE('',(#44),#324,.F.);
#335=ADVANCED_FACE('',(#45),#325,.F.);
#336=ADVANCED_FACE('',(#46),#326,.F.);
#337=ADVANCED_FACE('',(#47,#23,#24),#327,.T.);
#338=ADVANCED_FACE('',(#48,#25,#26),#328,.F.);
#339=ADVANCED_FACE('',(#49),#15,.T.);
#340=ADVANCED_FACE('',(#50),#16,.T.);
#341=ADVANCED_FACE('',(#51),#17,.T.);
#342=ADVANCED_FACE('',(#52),#18,.T.);
#343=ADVANCED_FACE('',(#53),#19,.F.);
#344=ADVANCED_FACE('',(#54),#329,.F.);
#345=ADVANCED_FACE('',(#55),#20,.F.);
#346=ADVANCED_FACE('',(#56),#330,.F.);
#347=ADVANCED_FACE('',(#57),#21,.F.);
#348=ADVANCED_FACE('',(#58),#331,.F.);
#349=ADVANCED_FACE('',(#59),#22,.F.);
#350=ADVANCED_FACE('',(#60),#332,.F.);
#351=CLOSED_SHELL('',(#333,#334,#335,#336,#337,#338,#339,#340,#341,#342,
#343,#344,#345,#346,#347,#348,#349,#350));
#352=DERIVED_UNIT_ELEMENT(#355,1.);
#353=DERIVED_UNIT_ELEMENT(#614,-3.);
#354=DIMENSIONAL_EXPONENTS(1.,0.,0.,0.,0.,0.,0.);
#355=(
CONVERSION_BASED_UNIT('gram',#357)
MASS_UNIT()
NAMED_UNIT(#354)
);
#356=(
MASS_UNIT()
NAMED_UNIT(*)
SI_UNIT(.KILO.,.GRAM.)
);
#357=MASS_MEASURE_WITH_UNIT(MASS_MEASURE(0.001),#356);
#358=DERIVED_UNIT((#352,#353));
#359=MEASURE_REPRESENTATION_ITEM('density measure',
POSITIVE_RATIO_MEASURE(1.),#358);
#360=PROPERTY_DEFINITION_REPRESENTATION(#365,#362);
#361=PROPERTY_DEFINITION_REPRESENTATION(#366,#363);
#362=REPRESENTATION('material name',(#364),#611);
#363=REPRESENTATION('density',(#359),#611);
#364=DESCRIPTIVE_REPRESENTATION_ITEM('Generico','Generico');
#365=PROPERTY_DEFINITION('material property','material name',#621);
#366=PROPERTY_DEFINITION('material property','density of part',#621);
#367=DATE_TIME_ROLE('creation_date');
#368=APPLIED_DATE_AND_TIME_ASSIGNMENT(#369,#367,(#621));
#369=DATE_AND_TIME(#370,#371);
#370=CALENDAR_DATE(2015,7,10);
#371=LOCAL_TIME(0,0,0.,#372);
#372=COORDINATED_UNIVERSAL_TIME_OFFSET(0,0,.BEHIND.);
#373=AXIS2_PLACEMENT_3D('placement',#510,#408,#409);
#374=AXIS2_PLACEMENT_3D('',#511,#410,#411);
#375=AXIS2_PLACEMENT_3D('',#520,#416,#417);
#376=AXIS2_PLACEMENT_3D('',#529,#422,#423);
#377=AXIS2_PLACEMENT_3D('',#538,#428,#429);
#378=AXIS2_PLACEMENT_3D('',#547,#434,#435);
#379=AXIS2_PLACEMENT_3D('',#548,#436,#437);
#380=AXIS2_PLACEMENT_3D('',#549,#438,#439);
#381=AXIS2_PLACEMENT_3D('',#550,#440,#441);
#382=AXIS2_PLACEMENT_3D('',#551,#442,#443);
#383=AXIS2_PLACEMENT_3D('',#554,#444,#445);
#384=AXIS2_PLACEMENT_3D('',#558,#447,#448);
#385=AXIS2_PLACEMENT_3D('',#562,#450,#451);
#386=AXIS2_PLACEMENT_3D('',#566,#453,#454);
#387=AXIS2_PLACEMENT_3D('',#568,#456,#457);
#388=AXIS2_PLACEMENT_3D('',#569,#458,#459);
#389=AXIS2_PLACEMENT_3D('',#570,#460,#461);
#390=AXIS2_PLACEMENT_3D('',#571,#462,#463);
#391=AXIS2_PLACEMENT_3D('',#572,#464,#465);
#392=AXIS2_PLACEMENT_3D('',#577,#467,#468);
#393=AXIS2_PLACEMENT_3D('',#580,#470,#471);
#394=AXIS2_PLACEMENT_3D('',#585,#473,#474);
#395=AXIS2_PLACEMENT_3D('',#588,#476,#477);
#396=AXIS2_PLACEMENT_3D('',#589,#478,#479);
#397=AXIS2_PLACEMENT_3D('',#590,#480,#481);
#398=AXIS2_PLACEMENT_3D('',#591,#482,#483);
#399=AXIS2_PLACEMENT_3D('',#592,#484,#485);
#400=AXIS2_PLACEMENT_3D('',#593,#486,#487);
#401=AXIS2_PLACEMENT_3D('',#596,#490,#491);
#402=AXIS2_PLACEMENT_3D('',#598,#493,#494);
#403=AXIS2_PLACEMENT_3D('',#600,#496,#497);
#404=AXIS2_PLACEMENT_3D('',#601,#498,#499);
#405=AXIS2_PLACEMENT_3D('',#604,#502,#503);
#406=AXIS2_PLACEMENT_3D('',#606,#505,#506);
#407=AXIS2_PLACEMENT_3D('',#608,#508,#509);
#408=DIRECTION('axis',(0.,0.,1.));
#409=DIRECTION('refdir',(1.,0.,0.));
#410=DIRECTION('center_axis',(1.,0.,0.));
#411=DIRECTION('ref_axis',(0.,0.,-1.));
#412=DIRECTION('',(0.,0.,1.));
#413=DIRECTION('',(0.,-1.,0.));
#414=DIRECTION('',(0.,0.,1.));
#415=DIRECTION('',(0.,1.,0.));
#416=DIRECTION('center_axis',(-1.30104260698261E-16,0.,-1.));
#417=DIRECTION('ref_axis',(-1.,0.,1.30104260698261E-16));
#418=DIRECTION('',(1.,0.,-1.30104260698261E-16));
#419=DIRECTION('',(0.,-1.,0.));
#420=DIRECTION('',(1.,0.,-1.30104260698261E-16));
#421=DIRECTION('',(0.,1.,0.));
#422=DIRECTION('center_axis',(-1.,0.,0.));
#423=DIRECTION('ref_axis',(0.,0.,1.));
#424=DIRECTION('',(0.,0.,-1.));
#425=DIRECTION('',(0.,1.,0.));
#426=DIRECTION('',(0.,0.,-1.));
#427=DIRECTION('',(0.,-1.,0.));
#428=DIRECTION('center_axis',(1.30104260698261E-16,0.,1.));
#429=DIRECTION('ref_axis',(1.,0.,-1.30104260698261E-16));
#430=DIRECTION('',(-1.,0.,1.30104260698261E-16));
#431=DIRECTION('',(0.,1.,0.));
#432=DIRECTION('',(-1.,0.,1.30104260698261E-16));
#433=DIRECTION('',(0.,-1.,0.));
#434=DIRECTION('center_axis',(0.,1.,0.));
#435=DIRECTION('ref_axis',(0.,0.,1.));
#436=DIRECTION('center_axis',(0.,1.,0.));
#437=DIRECTION('ref_axis',(0.,0.,1.));
#438=DIRECTION('center_axis',(0.,1.,0.));
#439=DIRECTION('ref_axis',(0.,0.,1.));
#440=DIRECTION('center_axis',(0.,1.,0.));
#441=DIRECTION('ref_axis',(0.,0.,1.));
#442=DIRECTION('center_axis',(0.,1.,0.));
#443=DIRECTION('ref_axis',(0.,0.,1.));
#444=DIRECTION('center_axis',(0.,1.,0.));
#445=DIRECTION('ref_axis',(0.,0.,1.));
#446=DIRECTION('',(-1.,0.,7.88510670898549E-17));
#447=DIRECTION('center_axis',(0.,1.,0.));
#448=DIRECTION('ref_axis',(0.,0.,1.));
#449=DIRECTION('',(1.,0.,7.88510670898549E-17));
#450=DIRECTION('center_axis',(0.,1.,0.));
#451=DIRECTION('ref_axis',(0.,0.,1.));
#452=DIRECTION('',(-1.,0.,0.));
#453=DIRECTION('center_axis',(0.,1.,0.));
#454=DIRECTION('ref_axis',(0.,0.,1.));
#455=DIRECTION('',(1.,0.,0.));
#456=DIRECTION('center_axis',(0.,1.,0.));
#457=DIRECTION('ref_axis',(0.,0.,1.));
#458=DIRECTION('center_axis',(0.,-1.,0.));
#459=DIRECTION('ref_axis',(0.,0.,1.));
#460=DIRECTION('center_axis',(0.,-1.,0.));
#461=DIRECTION('ref_axis',(0.,0.,1.));
#462=DIRECTION('center_axis',(0.,-1.,0.));
#463=DIRECTION('ref_axis',(0.,0.,1.));
#464=DIRECTION('center_axis',(0.,-1.,0.));
#465=DIRECTION('ref_axis',(0.,0.,1.));
#466=DIRECTION('',(-1.,0.,7.88510670898549E-17));
#467=DIRECTION('center_axis',(0.,1.,0.));
#468=DIRECTION('ref_axis',(0.,0.,1.));
#469=DIRECTION('',(1.,0.,7.88510670898549E-17));
#470=DIRECTION('center_axis',(0.,1.,0.));
#471=DIRECTION('ref_axis',(0.,0.,1.));
#472=DIRECTION('',(-1.,0.,0.));
#473=DIRECTION('center_axis',(0.,1.,0.));
#474=DIRECTION('ref_axis',(0.,0.,1.));
#475=DIRECTION('',(1.,0.,0.));
#476=DIRECTION('center_axis',(0.,1.,0.));
#477=DIRECTION('ref_axis',(0.,0.,1.));
#478=DIRECTION('center_axis',(0.,-1.,0.));
#479=DIRECTION('ref_axis',(0.,0.,-1.));
#480=DIRECTION('center_axis',(0.,-1.,0.));
#481=DIRECTION('ref_axis',(0.,0.,-1.));
#482=DIRECTION('center_axis',(0.,-1.,0.));
#483=DIRECTION('ref_axis',(0.,0.,-1.));
#484=DIRECTION('center_axis',(0.,-1.,0.));
#485=DIRECTION('ref_axis',(0.,0.,-1.));
#486=DIRECTION('center_axis',(0.,1.,0.));
#487=DIRECTION('ref_axis',(0.,0.,1.));
#488=DIRECTION('',(0.,1.,0.));
#489=DIRECTION('',(0.,1.,0.));
#490=DIRECTION('center_axis',(0.,0.,-1.));
#491=DIRECTION('ref_axis',(-1.,0.,0.));
#492=DIRECTION('',(0.,1.,0.));
#493=DIRECTION('center_axis',(0.,1.,0.));
#494=DIRECTION('ref_axis',(0.,0.,1.));
#495=DIRECTION('',(0.,1.,0.));
#496=DIRECTION('center_axis',(0.,0.,1.));
#497=DIRECTION('ref_axis',(1.,0.,0.));
#498=DIRECTION('center_axis',(0.,1.,0.));
#499=DIRECTION('ref_axis',(0.,0.,1.));
#500=DIRECTION('',(0.,1.,0.));
#501=DIRECTION('',(0.,1.,0.));
#502=DIRECTION('center_axis',(-7.88510670898549E-17,0.,-1.));
#503=DIRECTION('ref_axis',(-1.,0.,7.88510670898549E-17));
#504=DIRECTION('',(0.,1.,0.));
#505=DIRECTION('center_axis',(0.,1.,0.));
#506=DIRECTION('ref_axis',(0.,0.,1.));
#507=DIRECTION('',(0.,1.,0.));
#508=DIRECTION('center_axis',(-7.88510670898549E-17,0.,1.));
#509=DIRECTION('ref_axis',(1.,0.,7.88510670898549E-17));
#510=CARTESIAN_POINT('',(0.,0.,0.));
#511=CARTESIAN_POINT('Origin',(-40.,4.,20.));
#512=CARTESIAN_POINT('',(-40.,4.,-17.));
#513=CARTESIAN_POINT('',(-40.,4.,17.));
#514=CARTESIAN_POINT('',(-40.,4.,20.));
#515=CARTESIAN_POINT('',(-40.,0.,-17.));
#516=CARTESIAN_POINT('',(-40.,4.,-17.));
#517=CARTESIAN_POINT('',(-40.,0.,17.));
#518=CARTESIAN_POINT('',(-40.,0.,20.));
#519=CARTESIAN_POINT('',(-40.,4.,17.));
#520=CARTESIAN_POINT('Origin',(40.,4.,20.));
#521=CARTESIAN_POINT('',(-37.,4.,20.));
#522=CARTESIAN_POINT('',(37.,4.,20.));
#523=CARTESIAN_POINT('',(40.,4.,20.));
#524=CARTESIAN_POINT('',(-37.,0.,20.));
#525=CARTESIAN_POINT('',(-37.,4.,20.));
#526=CARTESIAN_POINT('',(37.,0.,20.));
#527=CARTESIAN_POINT('',(40.,0.,20.));
#528=CARTESIAN_POINT('',(37.,4.,20.));
#529=CARTESIAN_POINT('Origin',(40.,4.,20.));
#530=CARTESIAN_POINT('',(40.,0.,17.));
#531=CARTESIAN_POINT('',(40.,0.,-17.));
#532=CARTESIAN_POINT('',(40.,0.,20.));
#533=CARTESIAN_POINT('',(40.,4.,-17.));
#534=CARTESIAN_POINT('',(40.,4.,-17.));
#535=CARTESIAN_POINT('',(40.,4.,17.));
#536=CARTESIAN_POINT('',(40.,4.,20.));
#537=CARTESIAN_POINT('',(40.,4.,17.));
#538=CARTESIAN_POINT('Origin',(40.,4.,-20.));
#539=CARTESIAN_POINT('',(37.,0.,-20.));
#540=CARTESIAN_POINT('',(-37.,0.,-20.));
#541=CARTESIAN_POINT('',(40.,0.,-20.));
#542=CARTESIAN_POINT('',(-37.,4.,-20.));
#543=CARTESIAN_POINT('',(-37.,4.,-20.));
#544=CARTESIAN_POINT('',(37.,4.,-20.));
#545=CARTESIAN_POINT('',(40.,4.,-20.));
#546=CARTESIAN_POINT('',(37.,4.,-20.));
#547=CARTESIAN_POINT('Origin',(-40.,4.,-20.));
#548=CARTESIAN_POINT('Origin',(-37.,4.,-17.));
#549=CARTESIAN_POINT('Origin',(-37.,4.,17.));
#550=CARTESIAN_POINT('Origin',(37.,4.,17.));
#551=CARTESIAN_POINT('Origin',(37.,4.,-17.));
#552=CARTESIAN_POINT('',(14.5,4.,-4.5));
#553=CARTESIAN_POINT('',(14.5,4.,4.5));
#554=CARTESIAN_POINT('Origin',(14.5,4.,0.));
#555=CARTESIAN_POINT('',(25.5,4.,-4.5));
#556=CARTESIAN_POINT('',(14.5,4.,-4.5));
#557=CARTESIAN_POINT('',(25.5,4.,4.5));
#558=CARTESIAN_POINT('Origin',(25.5,4.,0.));
#559=CARTESIAN_POINT('',(14.5,4.,4.5));
#560=CARTESIAN_POINT('',(-25.5,4.,-4.5));
#561=CARTESIAN_POINT('',(-25.5,4.,4.5));
#562=CARTESIAN_POINT('Origin',(-25.5,4.,0.));
#563=CARTESIAN_POINT('',(-14.5,4.,-4.5));
#564=CARTESIAN_POINT('',(-25.5,4.,-4.5));
#565=CARTESIAN_POINT('',(-14.5,4.,4.5));
#566=CARTESIAN_POINT('Origin',(-14.5,4.,0.));
#567=CARTESIAN_POINT('',(-25.5,4.,4.5));
#568=CARTESIAN_POINT('Origin',(-40.,0.,-20.));
#569=CARTESIAN_POINT('Origin',(-37.,0.,-17.));
#570=CARTESIAN_POINT('Origin',(37.,0.,-17.));
#571=CARTESIAN_POINT('Origin',(37.,0.,17.));
#572=CARTESIAN_POINT('Origin',(-37.,0.,17.));
#573=CARTESIAN_POINT('',(25.5,0.,-4.5));
#574=CARTESIAN_POINT('',(14.5,0.,-4.5));
#575=CARTESIAN_POINT('',(14.5,0.,-4.5));
#576=CARTESIAN_POINT('',(14.5,0.,4.5));
#577=CARTESIAN_POINT('Origin',(14.5,0.,0.));
#578=CARTESIAN_POINT('',(25.5,0.,4.5));
#579=CARTESIAN_POINT('',(14.5,0.,4.5));
#580=CARTESIAN_POINT('Origin',(25.5,0.,0.));
#581=CARTESIAN_POINT('',(-14.5,0.,-4.5));
#582=CARTESIAN_POINT('',(-25.5,0.,-4.5));
#583=CARTESIAN_POINT('',(-25.5,0.,-4.5));
#584=CARTESIAN_POINT('',(-25.5,0.,4.5));
#585=CARTESIAN_POINT('Origin',(-25.5,0.,0.));
#586=CARTESIAN_POINT('',(-14.5,0.,4.5));
#587=CARTESIAN_POINT('',(-25.5,0.,4.5));
#588=CARTESIAN_POINT('Origin',(-14.5,0.,0.));
#589=CARTESIAN_POINT('Origin',(-37.,4.,-17.));
#590=CARTESIAN_POINT('Origin',(-37.,4.,17.));
#591=CARTESIAN_POINT('Origin',(37.,4.,-17.));
#592=CARTESIAN_POINT('Origin',(37.,4.,17.));
#593=CARTESIAN_POINT('Origin',(-25.5,0.,0.));
#594=CARTESIAN_POINT('',(-25.5,0.,4.5));
#595=CARTESIAN_POINT('',(-25.5,0.,-4.5));
#596=CARTESIAN_POINT('Origin',(-25.5,0.,-4.5));
#597=CARTESIAN_POINT('',(-14.5,0.,-4.5));
#598=CARTESIAN_POINT('Origin',(-14.5,0.,0.));
#599=CARTESIAN_POINT('',(-14.5,0.,4.5));
#600=CARTESIAN_POINT('Origin',(-25.5,0.,4.5));
#601=CARTESIAN_POINT('Origin',(14.5,0.,0.));
#602=CARTESIAN_POINT('',(14.5,0.,4.5));
#603=CARTESIAN_POINT('',(14.5,0.,-4.5));
#604=CARTESIAN_POINT('Origin',(14.5,0.,-4.5));
#605=CARTESIAN_POINT('',(25.5,0.,-4.5));
#606=CARTESIAN_POINT('Origin',(25.5,0.,0.));
#607=CARTESIAN_POINT('',(25.5,0.,4.5));
#608=CARTESIAN_POINT('Origin',(14.5,0.,4.5));
#609=UNCERTAINTY_MEASURE_WITH_UNIT(LENGTH_MEASURE(0.01),#613,
'DISTANCE_ACCURACY_VALUE',
'Maximum model space distance between geometric entities at asserted c
onnectivities');
#610=UNCERTAINTY_MEASURE_WITH_UNIT(LENGTH_MEASURE(0.01),#613,
'DISTANCE_ACCURACY_VALUE',
'Maximum model space distance between geometric entities at asserted c
onnectivities');
#611=(
GEOMETRIC_REPRESENTATION_CONTEXT(3)
GLOBAL_UNCERTAINTY_ASSIGNED_CONTEXT((#609))
GLOBAL_UNIT_ASSIGNED_CONTEXT((#613,#615,#616))
REPRESENTATION_CONTEXT('','3D')
);
#612=(
GEOMETRIC_REPRESENTATION_CONTEXT(3)
GLOBAL_UNCERTAINTY_ASSIGNED_CONTEXT((#610))
GLOBAL_UNIT_ASSIGNED_CONTEXT((#613,#615,#616))
REPRESENTATION_CONTEXT('','3D')
);
#613=(
LENGTH_UNIT()
NAMED_UNIT(*)
SI_UNIT(.MILLI.,.METRE.)
);
#614=(
LENGTH_UNIT()
NAMED_UNIT(*)
SI_UNIT(.CENTI.,.METRE.)
);
#615=(
NAMED_UNIT(*)
PLANE_ANGLE_UNIT()
SI_UNIT($,.RADIAN.)
);
#616=(
NAMED_UNIT(*)
SI_UNIT($,.STERADIAN.)
SOLID_ANGLE_UNIT()
);
#617=SHAPE_DEFINITION_REPRESENTATION(#618,#619);
#618=PRODUCT_DEFINITION_SHAPE('',$,#621);
#619=SHAPE_REPRESENTATION('',(#373),#611);
#620=PRODUCT_DEFINITION_CONTEXT('part definition',#625,'design');
#621=PRODUCT_DEFINITION('DPSXX0001709','DPSXX0001709',#622,#620);
#622=PRODUCT_DEFINITION_FORMATION('A',$,#627);
#623=PRODUCT_RELATED_PRODUCT_CATEGORY('DPSXX0001709','DPSXX0001709',(#627));
#624=APPLICATION_PROTOCOL_DEFINITION('international standard',
'automotive_design',2009,#625);
#625=APPLICATION_CONTEXT(
'Core Data for Automotive Mechanical Design Process');
#626=PRODUCT_CONTEXT('part definition',#625,'mechanical');
#627=PRODUCT('DPSXX0001709','DPSXX0001709',
'PIASTRA GIUNZIONE A 2 FORI INOX',(#626));
#628=PRESENTATION_STYLE_ASSIGNMENT((#629));
#629=SURFACE_STYLE_USAGE(.BOTH.,#632);
#630=SURFACE_STYLE_RENDERING_WITH_PROPERTIES($,#636,(#631));
#631=SURFACE_STYLE_TRANSPARENT(0.);
#632=SURFACE_SIDE_STYLE('',(#633,#630));
#633=SURFACE_STYLE_FILL_AREA(#634);
#634=FILL_AREA_STYLE('',(#635));
#635=FILL_AREA_STYLE_COLOUR('',#636);
#636=COLOUR_RGB('',0.627450980392157,0.627450980392157,0.627450980392157);
ENDSEC;
END-ISO-10303-21;
