  0
SECTION
  2
HEADER
  9
$ACADVER
  1
AC1015
  9
$ACADMAINTVER
 70
    20
  9
$DWGCODEPAGE
  3
ANSI_1252
  9
$INSBASE
 10
0.0
 20
0.0
 30
0.0
  9
$EXTMIN
 10
-210.0000000000001
 20
-73.93467330932617
 30
0.0
  9
$EXTMAX
 10
30.0
 20
297.0
 30
0.0
  9
$LIMMIN
 10
-216.0861053466797
 20
-2.531367063522338
  9
$LIMMAX
 10
3.42302393913269
 20
300.2922973632812
  9
$ORTHOMODE
 70
     0
  9
$REGENMODE
 70
     1
  9
$FILLMODE
 70
     1
  9
$QTEXTMODE
 70
     0
  9
$MIRRTEXT
 70
     1
  9
$LTSCALE
 40
1.0
  9
$ATTMODE
 70
     1
  9
$TEXTSIZE
 40
0.2
  9
$TRACEWID
 40
0.05
  9
$TEXTSTYLE
  7
STANDARD
  9
$CLAYER
  8
P-0000
  9
$CELTYPE
  6
CONTINUOUS
  9
$CECOLOR
 62
   256
  9
$CELTSCALE
 40
1.0
  9
$DISPSILH
 70
     0
  9
$DIMSCALE
 40
1.0
  9
$DIMASZ
 40
0.18
  9
$DIMEXO
 40
0.0625
  9
$DIMDLI
 40
0.38
  9
$DIMRND
 40
0.0
  9
$DIMDLE
 40
0.0
  9
$DIMEXE
 40
0.18
  9
$DIMTP
 40
0.0
  9
$DIMTM
 40
0.0
  9
$DIMTXT
 40
0.18
  9
$DIMCEN
 40
0.09
  9
$DIMTSZ
 40
0.0
  9
$DIMTOL
 70
     0
  9
$DIMLIM
 70
     0
  9
$DIMTIH
 70
     1
  9
$DIMTOH
 70
     1
  9
$DIMSE1
 70
     0
  9
$DIMSE2
 70
     0
  9
$DIMTAD
 70
     0
  9
$DIMZIN
 70
     0
  9
$DIMBLK
  1

  9
$DIMASO
 70
     1
  9
$DIMSHO
 70
     1
  9
$DIMPOST
  1

  9
$DIMAPOST
  1

  9
$DIMALT
 70
     0
  9
$DIMALTD
 70
     2
  9
$DIMALTF
 40
25.4
  9
$DIMLFAC
 40
1.0
  9
$DIMTOFL
 70
     0
  9
$DIMTVP
 40
0.0
  9
$DIMTIX
 70
     0
  9
$DIMSOXD
 70
     0
  9
$DIMSAH
 70
     0
  9
$DIMBLK1
  1

  9
$DIMBLK2
  1

  9
$DIMSTYLE
  2
STANDARD
  9
$DIMCLRD
 70
     0
  9
$DIMCLRE
 70
     0
  9
$DIMCLRT
 70
     0
  9
$DIMTFAC
 40
1.0
  9
$DIMGAP
 40
0.09
  9
$DIMJUST
 70
     0
  9
$DIMSD1
 70
     0
  9
$DIMSD2
 70
     0
  9
$DIMTOLJ
 70
     1
  9
$DIMTZIN
 70
     0
  9
$DIMALTZ
 70
     0
  9
$DIMALTTZ
 70
     0
  9
$DIMUPT
 70
     0
  9
$DIMDEC
 70
     4
  9
$DIMTDEC
 70
     4
  9
$DIMALTU
 70
     2
  9
$DIMALTTD
 70
     2
  9
$DIMTXSTY
  7
STANDARD
  9
$DIMAUNIT
 70
     0
  9
$DIMADEC
 70
     0
  9
$DIMALTRND
 40
0.0
  9
$DIMAZIN
 70
     0
  9
$DIMDSEP
 70
    46
  9
$DIMATFIT
 70
     3
  9
$DIMFRAC
 70
     0
  9
$DIMLDRBLK
  1

  9
$DIMLUNIT
 70
     2
  9
$DIMLWD
 70
    -2
  9
$DIMLWE
 70
    -2
  9
$DIMTMOVE
 70
     0
  9
$LUNITS
 70
     2
  9
$LUPREC
 70
     4
  9
$SKETCHINC
 40
0.1
  9
$FILLETRAD
 40
0.0
  9
$AUNITS
 70
     0
  9
$AUPREC
 70
     3
  9
$MENU
  1
acad
  9
$ELEVATION
 40
0.0
  9
$PELEVATION
 40
0.0
  9
$THICKNESS
 40
0.0
  9
$LIMCHECK
 70
     0
  9
$CHAMFERA
 40
0.0
  9
$CHAMFERB
 40
0.0
  9
$CHAMFERC
 40
0.0
  9
$CHAMFERD
 40
0.0
  9
$SKPOLY
 70
     0
  9
$TDCREATE
 40
2444972.041666667
  9
$TDUCREATE
 40
2444972.000000000
  9
$TDUPDATE
 40
2455637.620448021
  9
$TDUUPDATE
 40
2455637.578781355
  9
$TDINDWG
 40
0.0008652546
  9
$TDUSRTIMER
 40
0.0008652546
  9
$USRTIMER
 70
     1
  9
$ANGBASE
 50
0.0
  9
$ANGDIR
 70
     0
  9
$PDMODE
 70
     0
  9
$PDSIZE
 40
0.0
  9
$PLINEWID
 40
0.0
  9
$SPLFRAME
 70
     0
  9
$SPLINETYPE
 70
     6
  9
$SPLINESEGS
 70
     8
  9
$HANDSEED
  5
52C
  9
$SURFTAB1
 70
     6
  9
$SURFTAB2
 70
     6
  9
$SURFTYPE
 70
     6
  9
$SURFU
 70
     6
  9
$SURFV
 70
     6
  9
$UCSBASE
  2

  9
$UCSNAME
  2

  9
$UCSORG
 10
0.0
 20
0.0
 30
0.0
  9
$UCSXDIR
 10
1.0
 20
0.0
 30
0.0
  9
$UCSYDIR
 10
0.0
 20
1.0
 30
0.0
  9
$UCSORTHOREF
  2

  9
$UCSORTHOVIEW
 70
     0
  9
$UCSORGTOP
 10
0.0
 20
0.0
 30
0.0
  9
$UCSORGBOTTOM
 10
0.0
 20
0.0
 30
0.0
  9
$UCSORGLEFT
 10
0.0
 20
0.0
 30
0.0
  9
$UCSORGRIGHT
 10
0.0
 20
0.0
 30
0.0
  9
$UCSORGFRONT
 10
0.0
 20
0.0
 30
0.0
  9
$UCSORGBACK
 10
0.0
 20
0.0
 30
0.0
  9
$PUCSBASE
  2

  9
$PUCSNAME
  2

  9
$PUCSORG
 10
0.0
 20
0.0
 30
0.0
  9
$PUCSXDIR
 10
1.0
 20
0.0
 30
0.0
  9
$PUCSYDIR
 10
0.0
 20
1.0
 30
0.0
  9
$PUCSORTHOREF
  2

  9
$PUCSORTHOVIEW
 70
     0
  9
$PUCSORGTOP
 10
0.0
 20
0.0
 30
0.0
  9
$PUCSORGBOTTOM
 10
0.0
 20
0.0
 30
0.0
  9
$PUCSORGLEFT
 10
0.0
 20
0.0
 30
0.0
  9
$PUCSORGRIGHT
 10
0.0
 20
0.0
 30
0.0
  9
$PUCSORGFRONT
 10
0.0
 20
0.0
 30
0.0
  9
$PUCSORGBACK
 10
0.0
 20
0.0
 30
0.0
  9
$USERI1
 70
     0
  9
$USERI2
 70
     0
  9
$USERI3
 70
     0
  9
$USERI4
 70
     0
  9
$USERI5
 70
     0
  9
$USERR1
 40
0.0
  9
$USERR2
 40
0.0
  9
$USERR3
 40
0.0
  9
$USERR4
 40
0.0
  9
$USERR5
 40
0.0
  9
$WORLDVIEW
 70
     1
  9
$SHADEDGE
 70
     3
  9
$SHADEDIF
 70
    70
  9
$TILEMODE
 70
     1
  9
$MAXACTVP
 70
    16
  9
$PINSBASE
 10
0.0
 20
0.0
 30
0.0
  9
$PLIMCHECK
 70
     0
  9
$PEXTMIN
 10
1.000000000000000E+20
 20
1.000000000000000E+20
 30
1.000000000000000E+20
  9
$PEXTMAX
 10
-1.000000000000000E+20
 20
-1.000000000000000E+20
 30
-1.000000000000000E+20
  9
$PLIMMIN
 10
-216.0861053466797
 20
-2.531367063522338
  9
$PLIMMAX
 10
3.42302393913269
 20
300.2922973632812
  9
$UNITMODE
 70
     0
  9
$VISRETAIN
 70
     0
  9
$PLINEGEN
 70
     1
  9
$PSLTSCALE
 70
     0
  9
$TREEDEPTH
 70
  3020
  9
$CMLSTYLE
  2
STANDARD
  9
$CMLJUST
 70
     0
  9
$CMLSCALE
 40
1.0
  9
$PROXYGRAPHICS
 70
     0
  9
$MEASUREMENT
 70
     1
  9
$CELWEIGHT
370
    -1
  9
$ENDCAPS
280
     0
  9
$JOINSTYLE
280
     0
  9
$LWDISPLAY
290
     0
  9
$INSUNITS
 70
     0
  9
$HYPERLINKBASE
  1

  9
$STYLESHEET
  1

  9
$XEDIT
290
     1
  9
$CEPSNTYPE
380
     0
  9
$PSTYLEMODE
290
     1
  9
$FINGERPRINTGUID
  2
{2D8A2A1E-BBF8-4FF7-8172-399E740EAE2F}
  9
$VERSIONGUID
  2
{1383C777-2839-4837-BC55-656AE4C000D9}
  9
$EXTNAMES
290
     1
  9
$PSVPSCALE
 40
0.0
  9
$OLESTARTUP
290
     0
  0
ENDSEC
  0
SECTION
  2
CLASSES
  0
CLASS
  1
LWPOLYLINE
  2
AcDbPolyline
  3
ObjectDBX Classes
 90
    32768
280
     0
281
     1
  0
CLASS
  1
IMAGE
  2
AcDbRasterImage
  3
ISM
 90
    34943
280
     0
281
     1
  0
CLASS
  1
OLE2FRAME
  2
AcDbOle2Frame
  3
ObjectDBX Classes
 90
    32768
280
     0
281
     1
  0
CLASS
  1
HATCH
  2
AcDbHatch
  3
ObjectDBX Classes
 90
        0
280
     0
281
     1
  0
CLASS
  1
DICTIONARYVAR
  2
AcDbDictionaryVar
  3
ObjectDBX Classes
 90
        0
280
     0
281
     0
  0
CLASS
  1
RASTERVARIABLES
  2
AcDbRasterVariables
  3
ISM
 90
    32768
280
     0
281
     0
  0
CLASS
  1
IMAGEDEF
  2
AcDbRasterImageDef
  3
ISM
 90
    32768
280
     0
281
     0
  0
CLASS
  1
IMAGEDEF_REACTOR
  2
AcDbRasterImageDefReactor
  3
ISM
 90
    32769
280
     0
281
     0
  0
CLASS
  1
IDBUFFER
  2
AcDbIdBuffer
  3
ObjectDBX Classes
 90
    32768
280
     0
281
     0
  0
CLASS
  1
SPATIAL_FILTER
  2
AcDbSpatialFilter
  3
ObjectDBX Classes
 90
    32768
280
     0
281
     0
  0
CLASS
  1
XRECORD
  2
AcDbXrecord
  3
ObjectDBX Classes
 90
        0
280
     0
281
     0
  0
CLASS
  1
SORTENTSTABLE
  2
AcDbSortentsTable
  3
ObjectDBX Classes
 90
    32768
280
     0
281
     0
  0
CLASS
  1
LAYER_INDEX
  2
AcDbLayerIndex
  3
ObjectDBX Classes
 90
    32768
280
     0
281
     0
  0
CLASS
  1
SPATIAL_INDEX
  2
AcDbSpatialIndex
  3
ObjectDBX Classes
 90
    32768
280
     0
281
     0
  0
CLASS
  1
OBJECT_PTR
  2
CAseDLPNTableRecord
  3
ASE-LPNTableRecord
 90
    32769
280
     0
281
     0
  0
CLASS
  1
LAYOUT
  2
AcDbLayout
  3
ObjectDBX Classes
 90
        0
280
     0
281
     0
  0
CLASS
  1
PLOTSETTINGS
  2
AcDbPlotSettings
  3
ObjectDBX Classes
 90
        0
280
     0
281
     0
  0
CLASS
  1
ACDBDICTIONARYWDFLT
  2
AcDbDictionaryWithDefault
  3
ObjectDBX Classes
 90
        0
280
     0
281
     0
  0
CLASS
  1
ACDBPLACEHOLDER
  2
AcDbPlaceHolder
  3
ObjectDBX Classes
 90
        0
280
     0
281
     0
  0
CLASS
  1
VBA_PROJECT
  2
AcDbVbaProject
  3
acad
 90
    32768
280
     0
281
     0
  0
CLASS
  1
WIPEOUT
  2
AcDbWipeout
  3
"WipeOut|Product Desc: Object Enabler for WipeOut entity                        |Company: Autodesk, Inc.                        |WEB Address: www.autodesk.com"
 90
    34943
280
     0
281
     1
  0
CLASS
  1
WIPEOUTVARIABLES
  2
AcDbWipeoutVariables
  3
"WipeOut|Product Desc:     WipeOut Dbx Application|Company:          Autodesk, Inc.|WEB Address:      www.autodesk.com"
 90
    32768
280
     0
281
     0
  0
CLASS
  1
RTEXT
  2
RText
  3
RText|AutoCAD Express Tool|expresstools@autodesk.com
 90
    35839
280
     0
281
     1
  0
CLASS
  1
ARCALIGNEDTEXT
  2
AcDbArcAlignedText
  3
ATEXT|AutoCAD Express Tool|expresstools@autodesk.com
 90
    32768
280
     0
281
     0
  0
CLASS
  1
MATERIAL
  2
AcDbMaterial
  3
ObjectDBX Classes
 90
     1153
280
     0
281
     0
  0
CLASS
  1
VISUALSTYLE
  2
AcDbVisualStyle
  3
ObjectDBX Classes
 90
     4095
280
     0
281
     0
  0
CLASS
  1
SCALE
  2
AcDbScale
  3
ObjectDBX Classes
 90
     1153
280
     0
281
     0
  0
CLASS
  1
TABLESTYLE
  2
AcDbTableStyle
  3
ObjectDBX Classes
 90
     4095
280
     0
281
     0
  0
CLASS
  1
MLEADERSTYLE
  2
AcDbMLeaderStyle
  3
ACDB_MLEADERSTYLE_CLASS
 90
     4095
280
     0
281
     0
  0
CLASS
  1
ACDBQSCATEGORY
  2
AcQsCategory
  3
categories
 90
     1024
280
     0
281
     0
  0
CLASS
  1
CELLSTYLEMAP
  2
AcDbCellStyleMap
  3
ObjectDBX Classes
 90
     1152
280
     0
281
     0
  0
ENDSEC
  0
SECTION
  2
TABLES
  0
TABLE
  2
VPORT
  5
7
102
{ACAD_XDICTIONARY
360
48C
102
}
330
0
100
AcDbSymbolTable
 70
     1
  0
VPORT
  5
15
330
7
100
AcDbSymbolTableRecord
100
AcDbViewportTableRecord
  2
*ACTIVE
 70
     0
 10
0.0
 20
0.0
 11
1.0
 21
1.0
 12
74.20261938223337
 22
156.7579321171652
 13
0.0
 23
0.0
 14
1.0
 24
1.0
 15
0.0
 25
0.0
 16
0.0
 26
0.0
 36
1.0
 17
0.0
 27
0.0
 37
0.0
 40
478.6787884274707
 41
2.251225490196078
 42
50.0
 43
0.0
 44
0.0
 50
0.0
 51
0.0
 71
     0
 72
   100
 73
     1
 74
     1
 75
     0
 76
     0
 77
     0
 78
     0
281
     0
 65
     1
110
0.0
120
0.0
130
0.0
111
1.0
121
0.0
131
0.0
112
0.0
122
1.0
132
0.0
 79
     0
146
0.0
  0
ENDTAB
  0
TABLE
  2
LTYPE
  5
4
330
0
100
AcDbSymbolTable
 70
     6
  0
LTYPE
  5
11
330
4
100
AcDbSymbolTableRecord
100
AcDbLinetypeTableRecord
  2
BYBLOCK
 70
     0
  3

 72
    65
 73
     0
 40
0.0
  0
LTYPE
  5
12
330
4
100
AcDbSymbolTableRecord
100
AcDbLinetypeTableRecord
  2
BYLAYER
 70
     0
  3

 72
    65
 73
     0
 40
0.0
  0
LTYPE
  5
13
330
4
100
AcDbSymbolTableRecord
100
AcDbLinetypeTableRecord
  2
CONTINUOUS
 70
     0
  3
Solid line
 72
    65
 73
     0
 40
0.0
  0
LTYPE
  5
1D
330
4
100
AcDbSymbolTableRecord
100
AcDbLinetypeTableRecord
  2
CENTER2
 70
     0
  3

 72
    65
 73
     4
 40
25.39999961853027
 49
19.0499997138977
 74
     0
 49
-3.174999952316284
 74
     0
 49
3.174999952316284
 74
     0
 49
-3.174999952316284
 74
     0
  0
LTYPE
  5
44C
330
4
100
AcDbSymbolTableRecord
100
AcDbLinetypeTableRecord
  2
ASSI
 70
     0
  3
-.-.-.-.-.-.-.-.-.-.-.-.-.-.-.-.-.-.-.-.-.-.-.-
 72
    65
 73
     4
 40
16.0
 49
10.0
 74
     0
 49
-2.0
 74
     0
 49
2.0
 74
     0
 49
-2.0
 74
     0
  0
LTYPE
  5
44D
330
4
100
AcDbSymbolTableRecord
100
AcDbLinetypeTableRecord
  2
INGOMBRI
 70
     0
  3
--..--..--..--..--..--..--..--..--..--..--..--
 72
    65
 73
     6
 40
20.0
 49
10.0
 74
     0
 49
-2.0
 74
     0
 49
2.0
 74
     0
 49
-2.0
 74
     0
 49
2.0
 74
     0
 49
-2.0
 74
     0
  0
LTYPE
  5
44E
330
4
100
AcDbSymbolTableRecord
100
AcDbLinetypeTableRecord
  2
TRATTEGGIO
 70
     0
  3
- - - - - - - - - - - - - - - - - - - - - -
 72
    65
 73
     2
 40
5.5
 49
4.0
 74
     0
 49
-1.5
 74
     0
  0
LTYPE
  5
44F
330
4
100
AcDbSymbolTableRecord
100
AcDbLinetypeTableRecord
  2
PUNTO
 70
     0
  3
Punto . . . . . . . . . . . . . . . . . . . . .
 72
    65
 73
     2
 40
6.349999999999999
 49
0.0
 74
     0
 49
-6.349999999999999
 74
     0
  0
ENDTAB
  0
TABLE
  2
LAYER
  5
2
330
0
100
AcDbSymbolTable
 70
    11
  0
LAYER
  5
14
102
{ACAD_XDICTIONARY
360
46B
102
}
330
2
100
AcDbSymbolTableRecord
100
AcDbLayerTableRecord
  2
0
 70
     0
 62
     7
  6
CONTINUOUS
370
    -3
390
3E4
  0
LAYER
  5
1E
102
{ACAD_XDICTIONARY
360
46D
102
}
330
2
100
AcDbSymbolTableRecord
100
AcDbLayerTableRecord
  2
AM_0
 70
     0
 62
     7
  6
CONTINUOUS
370
    -3
390
3E4
  0
LAYER
  5
1F
102
{ACAD_XDICTIONARY
360
46F
102
}
330
2
100
AcDbSymbolTableRecord
100
AcDbLayerTableRecord
  2
AM_1
 70
     0
 62
     7
  6
CONTINUOUS
370
    -3
390
3E4
  0
LAYER
  5
20
102
{ACAD_XDICTIONARY
360
471
102
}
330
2
100
AcDbSymbolTableRecord
100
AcDbLayerTableRecord
  2
AM_2
 70
     0
 62
     7
  6
CONTINUOUS
370
    -3
390
3E4
  0
LAYER
  5
21
102
{ACAD_XDICTIONARY
360
473
102
}
330
2
100
AcDbSymbolTableRecord
100
AcDbLayerTableRecord
  2
6
 70
     0
 62
     7
  6
CONTINUOUS
370
    -3
390
3E4
  0
LAYER
  5
22
102
{ACAD_XDICTIONARY
360
475
102
}
330
2
100
AcDbSymbolTableRecord
100
AcDbLayerTableRecord
  2
8
 70
     0
 62
     7
  6
CONTINUOUS
370
    -3
390
3E4
  0
LAYER
  5
23
102
{ACAD_XDICTIONARY
360
477
102
}
330
2
100
AcDbSymbolTableRecord
100
AcDbLayerTableRecord
  2
AM_10
 70
     0
 62
     7
  6
CONTINUOUS
370
    -3
390
3E4
  0
LAYER
  5
24
102
{ACAD_XDICTIONARY
360
479
102
}
330
2
100
AcDbSymbolTableRecord
100
AcDbLayerTableRecord
  2
AM_8
 70
     0
 62
     7
  6
CONTINUOUS
370
    -3
390
3E4
  0
LAYER
  5
25
102
{ACAD_XDICTIONARY
360
47B
102
}
330
2
100
AcDbSymbolTableRecord
100
AcDbLayerTableRecord
  2
15
 70
     0
 62
     7
  6
CONTINUOUS
370
    -3
390
3E4
  0
LAYER
  5
26
330
2
100
AcDbSymbolTableRecord
100
AcDbLayerTableRecord
  2
DEFPOINTS
 70
     0
 62
     7
  6
CONTINUOUS
290
     0
370
    -3
390
3E4
  0
LAYER
  5
444
102
{ACAD_XDICTIONARY
360
47D
102
}
330
2
100
AcDbSymbolTableRecord
100
AcDbLayerTableRecord
  2
P-0000
 70
     0
 62
     7
  6
CONTINUOUS
370
    -3
390
3E4
1001
AcAecLayerStandard
1000

1000
TOP
  0
ENDTAB
  0
TABLE
  2
STYLE
  5
3
330
0
100
AcDbSymbolTable
 70
    17
  0
STYLE
  5
17
330
3
100
AcDbSymbolTableRecord
100
AcDbTextStyleTableRecord
  2
STANDARD
 70
     0
 40
0.0
 41
1.0
 50
0.0
 71
     0
 42
0.2
  3
txt
  4

  0
STYLE
  5
27
330
3
100
AcDbSymbolTableRecord
100
AcDbTextStyleTableRecord
  2
TSTYLE1
 70
     0
 40
1.679999947547912
 41
1.0
 50
0.0
 71
     0
 42
0.2
  3
txt
  4

  0
STYLE
  5
28
330
3
100
AcDbSymbolTableRecord
100
AcDbTextStyleTableRecord
  2
TSTYLE2
 70
     0
 40
2.519999980926513
 41
1.0
 50
0.0
 71
     0
 42
0.2
  3
txt
  4

  0
STYLE
  5
29
330
3
100
AcDbSymbolTableRecord
100
AcDbTextStyleTableRecord
  2
TSTYLE3
 70
     0
 40
2.940000057220458
 41
1.0
 50
0.0
 71
     0
 42
0.2
  3
txt
  4

  0
STYLE
  5
2A
330
3
100
AcDbSymbolTableRecord
100
AcDbTextStyleTableRecord
  2
TSTYLE4
 70
     0
 40
1.259999990463256
 41
1.0
 50
0.0
 71
     0
 42
0.2
  3
txt
  4

  0
STYLE
  5
2B
330
3
100
AcDbSymbolTableRecord
100
AcDbTextStyleTableRecord
  2
TSTYLE5
 70
     0
 40
1.732499957084655
 41
1.0
 50
0.0
 71
     0
 42
0.2
  3
txt
  4

  0
STYLE
  5
2C
330
3
100
AcDbSymbolTableRecord
100
AcDbTextStyleTableRecord
  2
TSTYLE6
 70
     0
 40
3.674999952316284
 41
1.0
 50
0.0
 71
     0
 42
0.2
  3
txt
  4

  0
STYLE
  5
2D
330
3
100
AcDbSymbolTableRecord
100
AcDbTextStyleTableRecord
  2
TSTYLE7
 70
     0
 40
1.763999938964843
 41
1.0
 50
0.0
 71
     0
 42
0.2
  3
txt
  4

  0
STYLE
  5
2E
330
3
100
AcDbSymbolTableRecord
100
AcDbTextStyleTableRecord
  2
TSTYLE8
 70
     0
 40
1.3125
 41
1.0
 50
0.0
 71
     0
 42
0.2
  3
txt
  4

  0
STYLE
  5
2F
330
3
100
AcDbSymbolTableRecord
100
AcDbTextStyleTableRecord
  2
TSTYLE9
 70
     0
 40
5.880000114440917
 41
1.0
 50
0.0
 71
     0
 42
0.2
  3
txt
  4

  0
STYLE
  5
30
330
3
100
AcDbSymbolTableRecord
100
AcDbTextStyleTableRecord
  2
TSTYLE10
 70
     0
 40
1.889999985694885
 41
1.0
 50
0.0
 71
     0
 42
0.2
  3
txt
  4

  0
STYLE
  5
31
330
3
100
AcDbSymbolTableRecord
100
AcDbTextStyleTableRecord
  2
TSTYLE11
 70
     0
 40
1.799999952316284
 41
0.8
 50
0.0
 71
     0
 42
0.2
  3
txt
  4

  0
STYLE
  5
32
330
3
100
AcDbSymbolTableRecord
100
AcDbTextStyleTableRecord
  2
TSTYLE12
 70
     0
 40
3.5
 41
0.8
 50
0.0
 71
     0
 42
0.2
  3
txt
  4

  0
STYLE
  5
450
330
3
100
AcDbSymbolTableRecord
100
AcDbTextStyleTableRecord
  2
ROMANS
 70
     0
 40
0.0
 41
0.8
 50
0.0
 71
     0
 42
3.0
  3
ROMANS.shx
  4

  0
STYLE
  5
451
330
3
100
AcDbSymbolTableRecord
100
AcDbTextStyleTableRecord
  2

 70
     1
 40
0.0
 41
1.0
 50
0.0
 71
     0
 42
0.2
  3
ltypeshp.shx
  4

  0
STYLE
  5
452
330
3
100
AcDbSymbolTableRecord
100
AcDbTextStyleTableRecord
  2
Stile_Quota
 70
     0
 40
0.0
 41
1.0
 50
0.0
 71
     0
 42
3.0
  3
BOD_I.TTF
  4

1001
ACAD
1000
Bodoni MT
1071
 16777234
  0
STYLE
  5
453
330
3
100
AcDbSymbolTableRecord
100
AcDbTextStyleTableRecord
  2
Stile_Quota_FISSO
 70
     0
 40
20.0
 41
1.0
 50
0.0
 71
     0
 42
3.0
  3
BOD_I.TTF
  4

1001
ACAD
1000
Bodoni MT
1071
 16777234
  0
ENDTAB
  0
TABLE
  2
VIEW
  5
5
330
0
100
AcDbSymbolTable
 70
     0
  0
ENDTAB
  0
TABLE
  2
UCS
  5
6
330
0
100
AcDbSymbolTable
 70
     0
  0
ENDTAB
  0
TABLE
  2
APPID
  5
8
330
0
100
AcDbSymbolTable
 70
    11
  0
APPID
  5
16
330
8
100
AcDbSymbolTableRecord
100
AcDbRegAppTableRecord
  2
ACAD
 70
     0
  0
APPID
  5
445
330
8
100
AcDbSymbolTableRecord
100
AcDbRegAppTableRecord
  2
AcAecLayerStandard
 70
     0
  0
APPID
  5
44B
330
8
100
AcDbSymbolTableRecord
100
AcDbRegAppTableRecord
  2
TOP
 70
     0
  0
APPID
  5
457
330
8
100
AcDbSymbolTableRecord
100
AcDbRegAppTableRecord
  2
ACAD_MLEADERVER
 70
     0
  0
APPID
  5
458
330
8
100
AcDbSymbolTableRecord
100
AcDbRegAppTableRecord
  2
ACAD_DSTYLE_DIMJAG
 70
     0
  0
APPID
  5
459
330
8
100
AcDbSymbolTableRecord
100
AcDbRegAppTableRecord
  2
ACAD_DSTYLE_DIMTALN
 70
     0
  0
APPID
  5
45A
330
8
100
AcDbSymbolTableRecord
100
AcDbRegAppTableRecord
  2
AcadAnnoPO
 70
     0
  0
APPID
  5
45B
330
8
100
AcDbSymbolTableRecord
100
AcDbRegAppTableRecord
  2
ACAD_EXEMPT_FROM_CAD_STANDARDS
 70
     0
  0
APPID
  5
45C
330
8
100
AcDbSymbolTableRecord
100
AcDbRegAppTableRecord
  2
ACAD_PSEXT
 70
     0
  0
APPID
  5
45D
330
8
100
AcDbSymbolTableRecord
100
AcDbRegAppTableRecord
  2
ACAD_DSTYLE_DIMBREAK
 70
     0
  0
APPID
  5
484
330
8
100
AcDbSymbolTableRecord
100
AcDbRegAppTableRecord
  2
DCO15
 70
     0
  0
ENDTAB
  0
TABLE
  2
DIMSTYLE
  5
9
330
0
100
AcDbSymbolTable
 70
     7
100
AcDbDimStyleTable
 71
     0
  0
DIMSTYLE
105
18
330
9
100
AcDbSymbolTableRecord
100
AcDbDimStyleTableRecord
  2
STANDARD
 70
     0
289
     0
340
17
  0
DIMSTYLE
105
33
330
9
100
AcDbSymbolTableRecord
100
AcDbDimStyleTableRecord
  2
DSTYLE1
 70
     0
 41
3.0
 42
4.000000052503992
 44
1.166666666666666
 73
     0
 74
     0
140
3.5
145
0.7
146
0.6000000238418579
147
0.0
174
     1
178
     7
271
     3
289
     0
340
32
  0
DIMSTYLE
105
34
330
9
100
AcDbSymbolTableRecord
100
AcDbDimStyleTableRecord
  2
DSTYLE2
 70
     0
 41
3.0
 42
3.999999694968892
 44
1.166666666666666
 73
     0
 74
     0
140
3.5
145
0.7
146
0.6000000238418579
147
0.0
178
     7
271
     3
289
     0
340
32
  0
DIMSTYLE
105
35
330
9
100
AcDbSymbolTableRecord
100
AcDbDimStyleTableRecord
  2
DSTYLE3
 70
     0
 41
3.0
 44
1.166666666666666
 73
     0
 74
     0
140
3.5
145
0.7
146
0.6000000238418579
147
0.0
178
     7
271
     3
289
     0
340
32
  0
DIMSTYLE
105
454
330
9
100
AcDbSymbolTableRecord
100
AcDbDimStyleTableRecord
  2
ACADTOP
 70
     0
 41
2.0
 42
1.0
 43
10.0
 44
1.5
 73
     0
 74
     0
 77
     1
 78
     8
 79
     2
140
2.0
141
2.0
146
0.6
147
1.0
172
     1
176
     2
177
     2
178
     1
179
     1
271
     2
272
     2
284
     8
289
     0
340
452
1001
ACAD_DSTYLE_DIMJAG
1070
   388
1040
1.5
1001
ACAD_DSTYLE_DIMTALN
1070
   392
1070
     0
  0
DIMSTYLE
105
455
330
9
100
AcDbSymbolTableRecord
100
AcDbDimStyleTableRecord
  2
DIERRE_LUNG-ALT
 70
     0
 41
3.0
 42
1.0
 43
10.0
 44
1.5
 73
     0
 74
     0
 75
     1
 76
     1
 78
     8
 79
     2
140
20.0
141
2.0
146
0.6
147
1.0
172
     1
176
     3
177
     3
178
    30
179
     1
271
     1
272
     1
281
     1
282
     1
284
     8
340
453
1001
ACAD_DSTYLE_DIMBREAK
1070
   391
1040
3.75
1001
ACAD_DSTYLE_DIMJAG
1070
   388
1040
1.5
1001
ACAD_DSTYLE_DIMTALN
1070
   392
1070
     0
  0
DIMSTYLE
105
456
330
9
100
AcDbSymbolTableRecord
100
AcDbDimStyleTableRecord
  2
DIERRE_LARG
 70
     0
 41
3.0
 42
1.0
 43
10.0
 44
1.5
 73
     0
 74
     0
 75
     1
 76
     1
 78
     8
 79
     2
140
20.0
141
2.0
146
0.6
147
1.0
172
     1
176
     4
177
     4
178
     4
179
     1
271
     1
272
     1
281
     1
282
     1
284
     8
340
453
1001
ACAD_DSTYLE_DIMBREAK
1070
   391
1040
3.75
1001
ACAD_DSTYLE_DIMJAG
1070
   388
1040
1.5
1001
ACAD_DSTYLE_DIMTALN
1070
   392
1070
     0
  0
ENDTAB
  0
TABLE
  2
BLOCK_RECORD
  5
1
330
0
100
AcDbSymbolTable
 70
    94
  0
BLOCK_RECORD
  5
A
330
1
100
AcDbSymbolTableRecord
100
AcDbBlockTableRecord
  2
*Model_Space
340
438
  0
BLOCK_RECORD
  5
B
330
1
100
AcDbSymbolTableRecord
100
AcDbBlockTableRecord
  2
*Paper_Space
340
439
  0
BLOCK_RECORD
  5
36
330
1
100
AcDbSymbolTableRecord
100
AcDbBlockTableRecord
  2
_MODEL_SPACE
340
0
  0
BLOCK_RECORD
  5
37
330
1
100
AcDbSymbolTableRecord
100
AcDbBlockTableRecord
  2
_PAPER_SPACE
340
0
  0
BLOCK_RECORD
  5
38
330
1
100
AcDbSymbolTableRecord
100
AcDbBlockTableRecord
  2
_S_1
340
0
  0
BLOCK_RECORD
  5
39
330
1
100
AcDbSymbolTableRecord
100
AcDbBlockTableRecord
  2
_S_10
340
0
102
{BLKREFS
331
179
102
}
  0
BLOCK_RECORD
  5
3A
330
1
100
AcDbSymbolTableRecord
100
AcDbBlockTableRecord
  2
_S_11
340
0
  0
BLOCK_RECORD
  5
3B
330
1
100
AcDbSymbolTableRecord
100
AcDbBlockTableRecord
  2
_S_12
340
0
102
{BLKREFS
331
CA
102
}
  0
BLOCK_RECORD
  5
3C
330
1
100
AcDbSymbolTableRecord
100
AcDbBlockTableRecord
  2
_S_13
340
0
  0
BLOCK_RECORD
  5
3D
330
1
100
AcDbSymbolTableRecord
100
AcDbBlockTableRecord
  2
_S_14
340
0
102
{BLKREFS
331
D3
102
}
  0
BLOCK_RECORD
  5
3E
330
1
100
AcDbSymbolTableRecord
100
AcDbBlockTableRecord
  2
_S_15
340
0
  0
BLOCK_RECORD
  5
3F
330
1
100
AcDbSymbolTableRecord
100
AcDbBlockTableRecord
  2
_S_16
340
0
102
{BLKREFS
331
DC
102
}
  0
BLOCK_RECORD
  5
40
330
1
100
AcDbSymbolTableRecord
100
AcDbBlockTableRecord
  2
_S_17
340
0
  0
BLOCK_RECORD
  5
41
330
1
100
AcDbSymbolTableRecord
100
AcDbBlockTableRecord
  2
_S_18
340
0
102
{BLKREFS
331
E5
102
}
  0
BLOCK_RECORD
  5
42
330
1
100
AcDbSymbolTableRecord
100
AcDbBlockTableRecord
  2
_S_19
340
0
  0
BLOCK_RECORD
  5
43
330
1
100
AcDbSymbolTableRecord
100
AcDbBlockTableRecord
  2
_S_2
340
0
102
{BLKREFS
331
C1
102
}
  0
BLOCK_RECORD
  5
44
330
1
100
AcDbSymbolTableRecord
100
AcDbBlockTableRecord
  2
_S_20
340
0
102
{BLKREFS
331
EC
102
}
  0
BLOCK_RECORD
  5
45
330
1
100
AcDbSymbolTableRecord
100
AcDbBlockTableRecord
  2
_S_21
340
0
  0
BLOCK_RECORD
  5
46
330
1
100
AcDbSymbolTableRecord
100
AcDbBlockTableRecord
  2
_S_22
340
0
102
{BLKREFS
331
FB
102
}
  0
BLOCK_RECORD
  5
47
330
1
100
AcDbSymbolTableRecord
100
AcDbBlockTableRecord
  2
_S_23
340
0
  0
BLOCK_RECORD
  5
48
330
1
100
AcDbSymbolTableRecord
100
AcDbBlockTableRecord
  2
_S_24
340
0
102
{BLKREFS
331
104
102
}
  0
BLOCK_RECORD
  5
49
330
1
100
AcDbSymbolTableRecord
100
AcDbBlockTableRecord
  2
_S_25
340
0
  0
BLOCK_RECORD
  5
4A
330
1
100
AcDbSymbolTableRecord
100
AcDbBlockTableRecord
  2
_S_26
340
0
102
{BLKREFS
331
10D
102
}
  0
BLOCK_RECORD
  5
4B
330
1
100
AcDbSymbolTableRecord
100
AcDbBlockTableRecord
  2
_S_27
340
0
  0
BLOCK_RECORD
  5
4C
330
1
100
AcDbSymbolTableRecord
100
AcDbBlockTableRecord
  2
_S_28
340
0
102
{BLKREFS
331
114
102
}
  0
BLOCK_RECORD
  5
4D
330
1
100
AcDbSymbolTableRecord
100
AcDbBlockTableRecord
  2
_S_29
340
0
  0
BLOCK_RECORD
  5
4E
330
1
100
AcDbSymbolTableRecord
100
AcDbBlockTableRecord
  2
_S_3
340
0
  0
BLOCK_RECORD
  5
4F
330
1
100
AcDbSymbolTableRecord
100
AcDbBlockTableRecord
  2
_S_30
340
0
  0
BLOCK_RECORD
  5
50
330
1
100
AcDbSymbolTableRecord
100
AcDbBlockTableRecord
  2
_S_31
340
0
  0
BLOCK_RECORD
  5
51
330
1
100
AcDbSymbolTableRecord
100
AcDbBlockTableRecord
  2
_S_32
340
0
  0
BLOCK_RECORD
  5
52
330
1
100
AcDbSymbolTableRecord
100
AcDbBlockTableRecord
  2
_S_33
340
0
  0
BLOCK_RECORD
  5
53
330
1
100
AcDbSymbolTableRecord
100
AcDbBlockTableRecord
  2
_S_34
340
0
  0
BLOCK_RECORD
  5
54
330
1
100
AcDbSymbolTableRecord
100
AcDbBlockTableRecord
  2
_S_35
340
0
  0
BLOCK_RECORD
  5
55
330
1
100
AcDbSymbolTableRecord
100
AcDbBlockTableRecord
  2
_S_36
340
0
  0
BLOCK_RECORD
  5
56
330
1
100
AcDbSymbolTableRecord
100
AcDbBlockTableRecord
  2
_S_37
340
0
  0
BLOCK_RECORD
  5
57
330
1
100
AcDbSymbolTableRecord
100
AcDbBlockTableRecord
  2
_S_4
340
0
102
{BLKREFS
331
123
102
}
  0
BLOCK_RECORD
  5
58
330
1
100
AcDbSymbolTableRecord
100
AcDbBlockTableRecord
  2
_S_5
340
0
  0
BLOCK_RECORD
  5
59
330
1
100
AcDbSymbolTableRecord
100
AcDbBlockTableRecord
  2
_S_6
340
0
102
{BLKREFS
331
165
331
166
102
}
  0
BLOCK_RECORD
  5
5A
330
1
100
AcDbSymbolTableRecord
100
AcDbBlockTableRecord
  2
_S_7
340
0
  0
BLOCK_RECORD
  5
5B
330
1
100
AcDbSymbolTableRecord
100
AcDbBlockTableRecord
  2
_S_8
340
0
102
{BLKREFS
331
170
102
}
  0
BLOCK_RECORD
  5
5C
330
1
100
AcDbSymbolTableRecord
100
AcDbBlockTableRecord
  2
_S_9
340
0
  0
BLOCK_RECORD
  5
5D
330
1
100
AcDbSymbolTableRecord
100
AcDbBlockTableRecord
  2
_X1
340
0
102
{BLKREFS
331
12A
102
}
  0
BLOCK_RECORD
  5
5E
330
1
100
AcDbSymbolTableRecord
100
AcDbBlockTableRecord
  2
DMBLK374
340
0
  0
BLOCK_RECORD
  5
5F
330
1
100
AcDbSymbolTableRecord
100
AcDbBlockTableRecord
  2
DMBLK375
340
0
  0
BLOCK_RECORD
  5
60
330
1
100
AcDbSymbolTableRecord
100
AcDbBlockTableRecord
  2
DMBLK376
340
0
  0
BLOCK_RECORD
  5
61
330
1
100
AcDbSymbolTableRecord
100
AcDbBlockTableRecord
  2
DMBLK377
340
0
  0
BLOCK_RECORD
  5
62
330
1
100
AcDbSymbolTableRecord
100
AcDbBlockTableRecord
  2
DMBLK378
340
0
  0
BLOCK_RECORD
  5
63
330
1
100
AcDbSymbolTableRecord
100
AcDbBlockTableRecord
  2
DMBLK379
340
0
  0
BLOCK_RECORD
  5
64
330
1
100
AcDbSymbolTableRecord
100
AcDbBlockTableRecord
  2
DMBLK380
340
0
  0
BLOCK_RECORD
  5
65
330
1
100
AcDbSymbolTableRecord
100
AcDbBlockTableRecord
  2
DMBLK381
340
0
  0
BLOCK_RECORD
  5
66
330
1
100
AcDbSymbolTableRecord
100
AcDbBlockTableRecord
  2
DMBLK382
340
0
  0
BLOCK_RECORD
  5
67
330
1
100
AcDbSymbolTableRecord
100
AcDbBlockTableRecord
  2
DMBLK383
340
0
  0
BLOCK_RECORD
  5
68
330
1
100
AcDbSymbolTableRecord
100
AcDbBlockTableRecord
  2
DMBLK384
340
0
  0
BLOCK_RECORD
  5
69
330
1
100
AcDbSymbolTableRecord
100
AcDbBlockTableRecord
  2
DMBLK385
340
0
  0
BLOCK_RECORD
  5
6A
330
1
100
AcDbSymbolTableRecord
100
AcDbBlockTableRecord
  2
DMBLK386
340
0
  0
BLOCK_RECORD
  5
6B
330
1
100
AcDbSymbolTableRecord
100
AcDbBlockTableRecord
  2
DMBLK387
340
0
  0
BLOCK_RECORD
  5
6C
330
1
100
AcDbSymbolTableRecord
100
AcDbBlockTableRecord
  2
SE0
340
0
102
{BLKREFS
331
17E
102
}
  0
BLOCK_RECORD
  5
6D
330
1
100
AcDbSymbolTableRecord
100
AcDbBlockTableRecord
  2
SE1
340
0
102
{BLKREFS
331
181
102
}
  0
BLOCK_RECORD
  5
6E
330
1
100
AcDbSymbolTableRecord
100
AcDbBlockTableRecord
  2
SE10
340
0
102
{BLKREFS
331
1A6
102
}
  0
BLOCK_RECORD
  5
6F
330
1
100
AcDbSymbolTableRecord
100
AcDbBlockTableRecord
  2
SE11
340
0
102
{BLKREFS
331
1A9
102
}
  0
BLOCK_RECORD
  5
70
330
1
100
AcDbSymbolTableRecord
100
AcDbBlockTableRecord
  2
SE12
340
0
102
{BLKREFS
331
1AC
102
}
  0
BLOCK_RECORD
  5
71
330
1
100
AcDbSymbolTableRecord
100
AcDbBlockTableRecord
  2
SE13
340
0
102
{BLKREFS
331
1AF
102
}
  0
BLOCK_RECORD
  5
72
330
1
100
AcDbSymbolTableRecord
100
AcDbBlockTableRecord
  2
SE2
340
0
  0
BLOCK_RECORD
  5
73
330
1
100
AcDbSymbolTableRecord
100
AcDbBlockTableRecord
  2
SE3
340
0
102
{BLKREFS
331
191
102
}
  0
BLOCK_RECORD
  5
74
330
1
100
AcDbSymbolTableRecord
100
AcDbBlockTableRecord
  2
SE4
340
0
102
{BLKREFS
331
194
102
}
  0
BLOCK_RECORD
  5
75
330
1
100
AcDbSymbolTableRecord
100
AcDbBlockTableRecord
  2
SE5
340
0
102
{BLKREFS
331
197
102
}
  0
BLOCK_RECORD
  5
76
330
1
100
AcDbSymbolTableRecord
100
AcDbBlockTableRecord
  2
SE6
340
0
102
{BLKREFS
331
19A
102
}
  0
BLOCK_RECORD
  5
77
330
1
100
AcDbSymbolTableRecord
100
AcDbBlockTableRecord
  2
SE7
340
0
102
{BLKREFS
331
19D
102
}
  0
BLOCK_RECORD
  5
78
330
1
100
AcDbSymbolTableRecord
100
AcDbBlockTableRecord
  2
SE8
340
0
102
{BLKREFS
331
1A0
102
}
  0
BLOCK_RECORD
  5
79
330
1
100
AcDbSymbolTableRecord
100
AcDbBlockTableRecord
  2
SE9
340
0
102
{BLKREFS
331
1A3
102
}
  0
BLOCK_RECORD
  5
7A
330
1
100
AcDbSymbolTableRecord
100
AcDbBlockTableRecord
  2
_MODEL_SPACE1
340
0
  0
BLOCK_RECORD
  5
7B
330
1
100
AcDbSymbolTableRecord
100
AcDbBlockTableRecord
  2
_PAPER_SPACE1
340
0
  0
BLOCK_RECORD
  5
7C
330
1
100
AcDbSymbolTableRecord
100
AcDbBlockTableRecord
  2
_SE_BLANK
340
0
102
{BLKREFS
331
189
331
18A
102
}
  0
BLOCK_RECORD
  5
7D
330
1
100
AcDbSymbolTableRecord
100
AcDbBlockTableRecord
  2
_SE_FILLED
340
0
  0
BLOCK_RECORD
  5
7E
330
1
100
AcDbSymbolTableRecord
100
AcDbBlockTableRecord
  2
_S_110
340
0
  0
BLOCK_RECORD
  5
7F
330
1
100
AcDbSymbolTableRecord
100
AcDbBlockTableRecord
  2
_S_210
340
0
  0
BLOCK_RECORD
  5
80
330
1
100
AcDbSymbolTableRecord
100
AcDbBlockTableRecord
  2
_S_38
340
0
  0
BLOCK_RECORD
  5
81
330
1
100
AcDbSymbolTableRecord
100
AcDbBlockTableRecord
  2
_S_41
340
0
  0
BLOCK_RECORD
  5
82
330
1
100
AcDbSymbolTableRecord
100
AcDbBlockTableRecord
  2
_S_51
340
0
  0
BLOCK_RECORD
  5
83
330
1
100
AcDbSymbolTableRecord
100
AcDbBlockTableRecord
  2
_S_61
340
0
  0
BLOCK_RECORD
  5
84
330
1
100
AcDbSymbolTableRecord
100
AcDbBlockTableRecord
  2
_S_71
340
0
  0
BLOCK_RECORD
  5
85
330
1
100
AcDbSymbolTableRecord
100
AcDbBlockTableRecord
  2
DEE
340
0
  0
BLOCK_RECORD
  5
86
330
1
100
AcDbSymbolTableRecord
100
AcDbBlockTableRecord
  2
*D80
340
0
  0
BLOCK_RECORD
  5
87
330
1
100
AcDbSymbolTableRecord
100
AcDbBlockTableRecord
  2
*D81
340
0
  0
BLOCK_RECORD
  5
88
330
1
100
AcDbSymbolTableRecord
100
AcDbBlockTableRecord
  2
*D82
340
0
  0
BLOCK_RECORD
  5
89
330
1
100
AcDbSymbolTableRecord
100
AcDbBlockTableRecord
  2
*D83
340
0
  0
BLOCK_RECORD
  5
8A
330
1
100
AcDbSymbolTableRecord
100
AcDbBlockTableRecord
  2
*D84
340
0
  0
BLOCK_RECORD
  5
8B
330
1
100
AcDbSymbolTableRecord
100
AcDbBlockTableRecord
  2
*D85
340
0
  0
BLOCK_RECORD
  5
8C
330
1
100
AcDbSymbolTableRecord
100
AcDbBlockTableRecord
  2
*D86
340
0
  0
BLOCK_RECORD
  5
8D
330
1
100
AcDbSymbolTableRecord
100
AcDbBlockTableRecord
  2
*D87
340
0
  0
BLOCK_RECORD
  5
8E
330
1
100
AcDbSymbolTableRecord
100
AcDbBlockTableRecord
  2
*D88
340
0
  0
BLOCK_RECORD
  5
8F
330
1
100
AcDbSymbolTableRecord
100
AcDbBlockTableRecord
  2
*D89
340
0
  0
BLOCK_RECORD
  5
90
330
1
100
AcDbSymbolTableRecord
100
AcDbBlockTableRecord
  2
*D90
340
0
  0
BLOCK_RECORD
  5
91
330
1
100
AcDbSymbolTableRecord
100
AcDbBlockTableRecord
  2
*D91
340
0
  0
BLOCK_RECORD
  5
92
330
1
100
AcDbSymbolTableRecord
100
AcDbBlockTableRecord
  2
*D92
340
0
  0
BLOCK_RECORD
  5
93
330
1
100
AcDbSymbolTableRecord
100
AcDbBlockTableRecord
  2
*D93
340
0
  0
ENDTAB
  0
ENDSEC
  0
SECTION
  2
BLOCKS
  0
BLOCK
  5
D
330
A
100
AcDbEntity
  8
0
100
AcDbBlockBegin
  2
*Model_Space
 70
     0
 10
0.0
 20
0.0
 30
0.0
  3
*Model_Space
  1

  0
ENDBLK
  5
E
330
A
100
AcDbEntity
  8
0
100
AcDbBlockEnd
  0
BLOCK
  5
F
330
B
100
AcDbEntity
 67
     1
  8
0
100
AcDbBlockBegin
  2
*Paper_Space
 70
     0
 10
0.0
 20
0.0
 30
0.0
  3
*Paper_Space
  1

  0
ENDBLK
  5
10
330
B
100
AcDbEntity
 67
     1
  8
0
100
AcDbBlockEnd
  0
BLOCK
  5
BC
330
36
100
AcDbEntity
  8
0
100
AcDbBlockBegin
  2
_MODEL_SPACE
 70
     0
 10
0.0
 20
0.0
 30
0.0
  3
_MODEL_SPACE
  1

  0
ENDBLK
  5
BD
330
36
100
AcDbEntity
  8
0
100
AcDbBlockEnd
  0
BLOCK
  5
BE
330
37
100
AcDbEntity
  8
0
100
AcDbBlockBegin
  2
_PAPER_SPACE
 70
     0
 10
0.0
 20
0.0
 30
0.0
  3
_PAPER_SPACE
  1

  0
ENDBLK
  5
BF
330
37
100
AcDbEntity
  8
0
100
AcDbBlockEnd
  0
BLOCK
  5
C0
330
38
100
AcDbEntity
  8
0
100
AcDbBlockBegin
  2
_S_1
 70
     0
 10
0.0
 20
0.0
 30
0.0
  3
_S_1
  1

  0
INSERT
  5
C1
330
38
100
AcDbEntity
  8
0
100
AcDbBlockReference
  2
_S_2
 10
0.0
 20
0.0
 30
0.0
  0
ENDBLK
  5
C2
330
38
100
AcDbEntity
  8
0
100
AcDbBlockEnd
  0
BLOCK
  5
C3
330
39
100
AcDbEntity
  8
0
100
AcDbBlockBegin
  2
_S_10
 70
     0
 10
0.0
 20
0.0
 30
0.0
  3
_S_10
  1

  0
LINE
  5
C4
330
39
100
AcDbEntity
  8
8
  6
Continuous
 62
   254
100
AcDbLine
 10
91.1076
 20
173.189
 30
0.0
 11
74.2823
 21
173.189
 31
0.0
  0
LINE
  5
C5
330
39
100
AcDbEntity
  8
8
  6
Continuous
 62
   254
100
AcDbLine
 10
91.1076
 20
128.189
 30
0.0
 11
74.2823
 21
128.189
 31
0.0
  0
LINE
  5
C6
330
39
100
AcDbEntity
  8
8
  6
Continuous
 62
   254
100
AcDbLine
 10
75.78230000000001
 20
173.189
 30
0.0
 11
75.78230000000001
 21
128.189
 31
0.0
  0
TEXT
  5
C7
330
39
100
AcDbEntity
  8
8
  6
Continuous
 62
   254
100
AcDbText
 10
75.03230000000001
 20
148.95
 30
0.0
 40
3.0
  1
45
 50
90.0
 11
72.03230000000001
 21
148.95
 31
0.0
100
AcDbText
 73
     3
  0
ENDBLK
  5
C8
330
39
100
AcDbEntity
  8
0
100
AcDbBlockEnd
  0
BLOCK
  5
C9
330
3A
100
AcDbEntity
  8
0
100
AcDbBlockBegin
  2
_S_11
 70
     0
 10
0.0
 20
0.0
 30
0.0
  3
_S_11
  1

  0
INSERT
  5
CA
330
3A
100
AcDbEntity
  8
0
100
AcDbBlockReference
  2
_S_12
 10
0.0
 20
0.0
 30
0.0
  0
ENDBLK
  5
CB
330
3A
100
AcDbEntity
  8
0
100
AcDbBlockEnd
  0
BLOCK
  5
CC
330
3B
100
AcDbEntity
  8
0
100
AcDbBlockBegin
  2
_S_12
 70
     0
 10
0.0
 20
0.0
 30
0.0
  3
_S_12
  1

  0
LINE
  5
CD
330
3B
100
AcDbEntity
  8
8
  6
Continuous
 62
   254
100
AcDbLine
 10
91.1076
 20
173.189
 30
0.0
 11
79.74009999999999
 21
173.189
 31
0.0
  0
LINE
  5
CE
330
3B
100
AcDbEntity
  8
8
  6
Continuous
 62
   254
100
AcDbLine
 10
92.9826
 20
159.489
 30
0.0
 11
79.74009999999999
 21
159.489
 31
0.0
  0
LINE
  5
CF
330
3B
100
AcDbEntity
  8
8
  6
Continuous
 62
   254
100
AcDbLine
 10
81.2401
 20
173.189
 30
0.0
 11
81.2401
 21
159.489
 31
0.0
  0
TEXT
  5
D0
330
3B
100
AcDbEntity
  8
8
  6
Continuous
 62
   254
100
AcDbText
 10
80.4901
 20
163.714
 30
0.0
 40
3.0
  1
13,7
 50
90.0
 11
77.4901
 21
163.714
 31
0.0
100
AcDbText
 73
     3
  0
ENDBLK
  5
D1
330
3B
100
AcDbEntity
  8
0
100
AcDbBlockEnd
  0
BLOCK
  5
D2
330
3C
100
AcDbEntity
  8
0
100
AcDbBlockBegin
  2
_S_13
 70
     0
 10
0.0
 20
0.0
 30
0.0
  3
_S_13
  1

  0
INSERT
  5
D3
330
3C
100
AcDbEntity
  8
0
100
AcDbBlockReference
  2
_S_14
 10
0.0
 20
0.0
 30
0.0
  0
ENDBLK
  5
D4
330
3C
100
AcDbEntity
  8
0
100
AcDbBlockEnd
  0
BLOCK
  5
D5
330
3D
100
AcDbEntity
  8
0
100
AcDbBlockBegin
  2
_S_14
 70
     0
 10
0.0
 20
0.0
 30
0.0
  3
_S_14
  1

  0
LINE
  5
D6
330
3D
100
AcDbEntity
  8
8
  6
Continuous
 62
   254
100
AcDbLine
 10
92.9826
 20
159.489
 30
0.0
 11
79.74009999999999
 21
159.489
 31
0.0
  0
LINE
  5
D7
330
3D
100
AcDbEntity
  8
8
  6
Continuous
 62
   254
100
AcDbLine
 10
92.9826
 20
141.889
 30
0.0
 11
79.74009999999999
 21
141.889
 31
0.0
  0
LINE
  5
D8
330
3D
100
AcDbEntity
  8
8
  6
Continuous
 62
   254
100
AcDbLine
 10
81.2401
 20
159.489
 30
0.0
 11
81.2401
 21
141.889
 31
0.0
  0
TEXT
  5
D9
330
3D
100
AcDbEntity
  8
8
  6
Continuous
 62
   254
100
AcDbText
 10
80.4901
 20
147.927
 30
0.0
 40
3.0
  1
17,6
 50
90.0
 11
77.4901
 21
147.927
 31
0.0
100
AcDbText
 73
     3
  0
ENDBLK
  5
DA
330
3D
100
AcDbEntity
  8
0
100
AcDbBlockEnd
  0
BLOCK
  5
DB
330
3E
100
AcDbEntity
  8
0
100
AcDbBlockBegin
  2
_S_15
 70
     0
 10
0.0
 20
0.0
 30
0.0
  3
_S_15
  1

  0
INSERT
  5
DC
330
3E
100
AcDbEntity
  8
0
100
AcDbBlockReference
  2
_S_16
 10
0.0
 20
0.0
 30
0.0
  0
ENDBLK
  5
DD
330
3E
100
AcDbEntity
  8
0
100
AcDbBlockEnd
  0
BLOCK
  5
DE
330
3F
100
AcDbEntity
  8
0
100
AcDbBlockBegin
  2
_S_16
 70
     0
 10
0.0
 20
0.0
 30
0.0
  3
_S_16
  1

  0
LINE
  5
DF
330
3F
100
AcDbEntity
  8
8
  6
Continuous
 62
   254
100
AcDbLine
 10
92.9826
 20
141.889
 30
0.0
 11
79.74009999999999
 21
141.889
 31
0.0
  0
LINE
  5
E0
330
3F
100
AcDbEntity
  8
8
  6
Continuous
 62
   254
100
AcDbLine
 10
91.1076
 20
128.189
 30
0.0
 11
79.74009999999999
 21
128.189
 31
0.0
  0
LINE
  5
E1
330
3F
100
AcDbEntity
  8
8
  6
Continuous
 62
   254
100
AcDbLine
 10
81.2401
 20
141.889
 30
0.0
 11
81.2401
 21
128.189
 31
0.0
  0
TEXT
  5
E2
330
3F
100
AcDbEntity
  8
8
  6
Continuous
 62
   254
100
AcDbText
 10
80.4901
 20
132.414
 30
0.0
 40
3.0
  1
13,7
 50
90.0
 11
77.4901
 21
132.414
 31
0.0
100
AcDbText
 73
     3
  0
ENDBLK
  5
E3
330
3F
100
AcDbEntity
  8
0
100
AcDbBlockEnd
  0
BLOCK
  5
E4
330
40
100
AcDbEntity
  8
0
100
AcDbBlockBegin
  2
_S_17
 70
     0
 10
0.0
 20
0.0
 30
0.0
  3
_S_17
  1

  0
INSERT
  5
E5
330
40
100
AcDbEntity
  8
0
100
AcDbBlockReference
  2
_S_18
 10
0.0
 20
0.0
 30
0.0
  0
ENDBLK
  5
E6
330
40
100
AcDbEntity
  8
0
100
AcDbBlockEnd
  0
BLOCK
  5
E7
330
41
100
AcDbEntity
  8
0
100
AcDbBlockBegin
  2
_S_18
 70
     0
 10
0.0
 20
0.0
 30
0.0
  3
_S_18
  1

  0
LINE
  5
E8
330
41
100
AcDbEntity
  8
8
  6
Continuous
 62
   254
100
AcDbLine
 10
89.7826
 20
164.686
 30
0.0
 11
103.583
 21
164.686
 31
0.0
  0
TEXT
  5
E9
330
41
100
AcDbEntity
  8
8
  6
Continuous
 62
   254
100
AcDbText
 10
94.05759999999999
 20
165.436
 30
0.0
 40
3.0
  1
13,8
 11
94.05759999999999
 21
168.436
 31
0.0
100
AcDbText
 73
     3
  0
ENDBLK
  5
EA
330
41
100
AcDbEntity
  8
0
100
AcDbBlockEnd
  0
BLOCK
  5
EB
330
42
100
AcDbEntity
  8
0
100
AcDbBlockBegin
  2
_S_19
 70
     0
 10
0.0
 20
0.0
 30
0.0
  3
_S_19
  1

  0
INSERT
  5
EC
330
42
100
AcDbEntity
  8
0
100
AcDbBlockReference
  2
_S_20
 10
0.0
 20
0.0
 30
0.0
  0
ENDBLK
  5
ED
330
42
100
AcDbEntity
  8
0
100
AcDbBlockEnd
  0
BLOCK
  5
EE
330
43
100
AcDbEntity
  8
0
100
AcDbBlockBegin
  2
_S_2
 70
     0
 10
0.0
 20
0.0
 30
0.0
  3
_S_2
  1

  0
LINE
  5
EF
330
43
100
AcDbEntity
  8
8
  6
Continuous
 62
   254
100
AcDbLine
 10
87.43259999999999
 20
170.689
 30
0.0
 11
87.43259999999999
 21
189.133
 31
0.0
  0
LINE
  5
F0
330
43
100
AcDbEntity
  8
8
  6
Continuous
 62
   254
100
AcDbLine
 10
105.933
 20
170.689
 30
0.0
 11
105.933
 21
189.133
 31
0.0
  0
LINE
  5
F1
330
43
100
AcDbEntity
  8
8
  6
Continuous
 62
   254
100
AcDbLine
 10
87.43259999999999
 20
187.633
 30
0.0
 11
105.933
 21
187.633
 31
0.0
  0
TEXT
  5
F2
330
43
100
AcDbEntity
  8
8
  6
Continuous
 62
   254
100
AcDbText
 10
93.98940000000001
 20
188.383
 30
0.0
 40
3.0
  1
18,5
 11
93.98940000000001
 21
191.383
 31
0.0
100
AcDbText
 73
     3
  0
ENDBLK
  5
F3
330
43
100
AcDbEntity
  8
0
100
AcDbBlockEnd
  0
BLOCK
  5
F4
330
44
100
AcDbEntity
  8
0
100
AcDbBlockBegin
  2
_S_20
 70
     0
 10
0.0
 20
0.0
 30
0.0
  3
_S_20
  1

  0
LINE
  5
F5
330
44
100
AcDbEntity
  8
8
  6
Continuous
 62
   254
100
AcDbLine
 10
102.258
 20
173.189
 30
0.0
 11
114.495
 21
173.189
 31
0.0
  0
LINE
  5
F6
330
44
100
AcDbEntity
  8
8
  6
Continuous
 62
   254
100
AcDbLine
 10
105.683
 20
154.839
 30
0.0
 11
114.495
 21
154.839
 31
0.0
  0
LINE
  5
F7
330
44
100
AcDbEntity
  8
8
  6
Continuous
 62
   254
100
AcDbLine
 10
112.995
 20
173.189
 30
0.0
 11
112.995
 21
154.839
 31
0.0
  0
TEXT
  5
F8
330
44
100
AcDbEntity
  8
8
  6
Continuous
 62
   254
100
AcDbText
 10
112.245
 20
160.537
 30
0.0
 40
3.0
  1
18,35
 50
90.0
 11
109.245
 21
160.537
 31
0.0
100
AcDbText
 73
     3
  0
ENDBLK
  5
F9
330
44
100
AcDbEntity
  8
0
100
AcDbBlockEnd
  0
BLOCK
  5
FA
330
45
100
AcDbEntity
  8
0
100
AcDbBlockBegin
  2
_S_21
 70
     0
 10
0.0
 20
0.0
 30
0.0
  3
_S_21
  1

  0
INSERT
  5
FB
330
45
100
AcDbEntity
  8
0
100
AcDbBlockReference
  2
_S_22
 10
0.0
 20
0.0
 30
0.0
  0
ENDBLK
  5
FC
330
45
100
AcDbEntity
  8
0
100
AcDbBlockEnd
  0
BLOCK
  5
FD
330
46
100
AcDbEntity
  8
0
100
AcDbBlockBegin
  2
_S_22
 70
     0
 10
0.0
 20
0.0
 30
0.0
  3
_S_22
  1

  0
LINE
  5
FE
330
46
100
AcDbEntity
  8
8
  6
Continuous
 62
   254
100
AcDbLine
 10
105.683
 20
154.839
 30
0.0
 11
114.495
 21
154.839
 31
0.0
  0
LINE
  5
FF
330
46
100
AcDbEntity
  8
8
  6
Continuous
 62
   254
100
AcDbLine
 10
104.333
 20
146.539
 30
0.0
 11
114.495
 21
146.539
 31
0.0
  0
LINE
  5
100
330
46
100
AcDbEntity
  8
8
  6
Continuous
 62
   254
100
AcDbLine
 10
112.995
 20
160.839
 30
0.0
 11
112.995
 21
140.539
 31
0.0
  0
TEXT
  5
101
330
46
100
AcDbEntity
  8
8
  6
Continuous
 62
   254
100
AcDbText
 10
112.245
 20
148.677
 30
0.0
 40
3.0
  1
8,3
 50
90.0
 11
109.245
 21
148.677
 31
0.0
100
AcDbText
 73
     3
  0
ENDBLK
  5
102
330
46
100
AcDbEntity
  8
0
100
AcDbBlockEnd
  0
BLOCK
  5
103
330
47
100
AcDbEntity
  8
0
100
AcDbBlockBegin
  2
_S_23
 70
     0
 10
0.0
 20
0.0
 30
0.0
  3
_S_23
  1

  0
INSERT
  5
104
330
47
100
AcDbEntity
  8
0
100
AcDbBlockReference
  2
_S_24
 10
0.0
 20
0.0
 30
0.0
  0
ENDBLK
  5
105
330
47
100
AcDbEntity
  8
0
100
AcDbBlockEnd
  0
BLOCK
  5
106
330
48
100
AcDbEntity
  8
0
100
AcDbBlockBegin
  2
_S_24
 70
     0
 10
0.0
 20
0.0
 30
0.0
  3
_S_24
  1

  0
LINE
  5
107
330
48
100
AcDbEntity
  8
8
  6
Continuous
 62
   254
100
AcDbLine
 10
104.333
 20
146.539
 30
0.0
 11
114.495
 21
146.539
 31
0.0
  0
LINE
  5
108
330
48
100
AcDbEntity
  8
8
  6
Continuous
 62
   254
100
AcDbLine
 10
102.258
 20
128.189
 30
0.0
 11
114.495
 21
128.189
 31
0.0
  0
LINE
  5
109
330
48
100
AcDbEntity
  8
8
  6
Continuous
 62
   254
100
AcDbLine
 10
112.995
 20
146.539
 30
0.0
 11
112.995
 21
128.189
 31
0.0
  0
TEXT
  5
10A
330
48
100
AcDbEntity
  8
8
  6
Continuous
 62
   254
100
AcDbText
 10
112.245
 20
133.887
 30
0.0
 40
3.0
  1
18,35
 50
90.0
 11
109.245
 21
133.887
 31
0.0
100
AcDbText
 73
     3
  0
ENDBLK
  5
10B
330
48
100
AcDbEntity
  8
0
100
AcDbBlockEnd
  0
BLOCK
  5
10C
330
49
100
AcDbEntity
  8
0
100
AcDbBlockBegin
  2
_S_25
 70
     0
 10
0.0
 20
0.0
 30
0.0
  3
_S_25
  1

  0
INSERT
  5
10D
330
49
100
AcDbEntity
  8
0
100
AcDbBlockReference
  2
_S_26
 10
0.0
 20
0.0
 30
0.0
  0
ENDBLK
  5
10E
330
49
100
AcDbEntity
  8
0
100
AcDbBlockEnd
  0
BLOCK
  5
10F
330
4A
100
AcDbEntity
  8
0
100
AcDbBlockBegin
  2
_S_26
 70
     0
 10
0.0
 20
0.0
 30
0.0
  3
_S_26
  1

  0
LINE
  5
110
330
4A
100
AcDbEntity
  8
8
  6
Continuous
 62
   254
100
AcDbLine
 10
99.35020000000001
 20
157.589
 30
0.0
 11
99.35020000000001
 21
143.789
 31
0.0
  0
TEXT
  5
111
330
4A
100
AcDbEntity
  8
8
  6
Continuous
 62
   254
100
AcDbText
 10
98.6002
 20
148.064
 30
0.0
 40
3.0
  1
13,8
 50
90.0
 11
95.60019999999999
 21
148.064
 31
0.0
100
AcDbText
 73
     3
  0
ENDBLK
  5
112
330
4A
100
AcDbEntity
  8
0
100
AcDbBlockEnd
  0
BLOCK
  5
113
330
4B
100
AcDbEntity
  8
0
100
AcDbBlockBegin
  2
_S_27
 70
     0
 10
0.0
 20
0.0
 30
0.0
  3
_S_27
  1

  0
INSERT
  5
114
330
4B
100
AcDbEntity
  8
0
100
AcDbBlockReference
  2
_S_28
 10
0.0
 20
0.0
 30
0.0
  0
ENDBLK
  5
115
330
4B
100
AcDbEntity
  8
0
100
AcDbBlockEnd
  0
BLOCK
  5
116
330
4C
100
AcDbEntity
  8
0
100
AcDbBlockBegin
  2
_S_28
 70
     0
 10
0.0
 20
0.0
 30
0.0
  3
_S_28
  1

  0
LINE
  5
117
330
4C
100
AcDbEntity
  8
8
  6
Continuous
 62
   254
100
AcDbLine
 10
91.1076
 20
128.189
 30
0.0
 11
99.23770000000001
 21
128.189
 31
0.0
  0
LINE
  5
118
330
4C
100
AcDbEntity
  8
8
  6
Continuous
 62
   254
100
AcDbLine
 10
91.0326
 20
131.389
 30
0.0
 11
99.23770000000001
 21
131.389
 31
0.0
  0
LINE
  5
119
330
4C
100
AcDbEntity
  8
8
  6
Continuous
 62
   254
100
AcDbLine
 10
97.7377
 20
122.189
 30
0.0
 11
97.7377
 21
139.358
 31
0.0
  0
TEXT
  5
11A
330
4C
100
AcDbEntity
  8
8
  6
Continuous
 62
   254
100
AcDbText
 10
96.98770000000001
 20
134.353
 30
0.0
 40
3.0
  1
3,2
 50
90.0
 11
93.9877
 21
134.353
 31
0.0
100
AcDbText
 73
     3
  0
ENDBLK
  5
11B
330
4C
100
AcDbEntity
  8
0
100
AcDbBlockEnd
  0
BLOCK
  5
11C
330
4D
100
AcDbEntity
  8
0
100
AcDbBlockBegin
  2
_S_29
 70
     0
 10
0.0
 20
0.0
 30
0.0
  3
_S_29
  1

  0
LINE
  5
11D
330
4D
100
AcDbEntity
  8
8
  6
Continuous
 62
   254
100
AcDbLine
 10
92.5326
 20
171.589
 30
0.0
 11
92.5326
 21
179.83
 31
0.0
  0
LINE
  5
11E
330
4D
100
AcDbEntity
  8
8
  6
Continuous
 62
   254
100
AcDbLine
 10
100.833
 20
171.589
 30
0.0
 11
100.833
 21
179.83
 31
0.0
  0
LINE
  5
11F
330
4D
100
AcDbEntity
  8
8
  6
Continuous
 62
   254
100
AcDbLine
 10
86.53260000000001
 20
178.33
 30
0.0
 11
106.833
 21
178.33
 31
0.0
  0
TEXT
  5
120
330
4D
100
AcDbEntity
  8
8
  6
Continuous
 62
   254
100
AcDbText
 10
94.67119999999999
 20
179.08
 30
0.0
 40
3.0
  1
8,3
 11
94.67119999999999
 21
182.08
 31
0.0
100
AcDbText
 73
     3
  0
ENDBLK
  5
121
330
4D
100
AcDbEntity
  8
0
100
AcDbBlockEnd
  0
BLOCK
  5
122
330
4E
100
AcDbEntity
  8
0
100
AcDbBlockBegin
  2
_S_3
 70
     0
 10
0.0
 20
0.0
 30
0.0
  3
_S_3
  1

  0
INSERT
  5
123
330
4E
100
AcDbEntity
  8
0
100
AcDbBlockReference
  2
_S_4
 10
0.0
 20
0.0
 30
0.0
  0
ENDBLK
  5
124
330
4E
100
AcDbEntity
  8
0
100
AcDbBlockEnd
  0
BLOCK
  5
125
330
4F
100
AcDbEntity
  8
0
100
AcDbBlockBegin
  2
_S_30
 70
     0
 10
0.0
 20
0.0
 30
0.0
  3
_S_30
  1

  0
LINE
  5
126
330
4F
100
AcDbEntity
  8
8
  6
Continuous
 62
   254
100
AcDbLine
 10
0.0
 20
0.0
 30
0.0
 11
-1.0
 21
-0.1665
 31
0.0
  0
LINE
  5
127
330
4F
100
AcDbEntity
  8
8
  6
Continuous
 62
   254
100
AcDbLine
 10
-1.0
 20
-0.1665
 30
0.0
 11
0.0
 21
0.0
 31
0.0
  0
LINE
  5
128
330
4F
100
AcDbEntity
  8
8
  6
Continuous
 62
   254
100
AcDbLine
 10
0.0
 20
0.0
 30
0.0
 11
-1.0
 21
0.1665
 31
0.0
  0
LINE
  5
129
330
4F
100
AcDbEntity
  8
8
  6
Continuous
 62
   254
100
AcDbLine
 10
-1.0
 20
0.1665
 30
0.0
 11
0.0
 21
0.0
 31
0.0
  0
INSERT
  5
12A
330
4F
100
AcDbEntity
  8
0
100
AcDbBlockReference
  2
_X1
 10
0.0
 20
0.0
 30
0.0
  0
LINE
  5
12B
330
4F
100
AcDbEntity
  8
8
  6
Continuous
 62
   254
100
AcDbLine
 10
0.0
 20
0.0
 30
0.0
 11
-1.0
 21
0.0
 31
0.0
  0
ENDBLK
  5
12C
330
4F
100
AcDbEntity
  8
0
100
AcDbBlockEnd
  0
BLOCK
  5
12D
330
50
100
AcDbEntity
  8
0
100
AcDbBlockBegin
  2
_S_31
 70
     0
 10
0.0
 20
0.0
 30
0.0
  3
_S_31
  1

  0
LINE
  5
12E
330
50
100
AcDbEntity
  8
AM_8
  6
Continuous
 62
     4
100
AcDbLine
 10
239.3709769846391
 20
19.15417721404488
 30
0.0
 11
240.8709769846391
 21
16.15417721404488
 31
0.0
  0
LINE
  5
12F
330
50
100
AcDbEntity
  8
AM_8
  6
Continuous
 62
     4
100
AcDbLine
 10
240.8709769846391
 20
16.15417721404488
 30
0.0
 11
243.8709769846391
 21
22.15417721404489
 31
0.0
  0
CIRCLE
  5
130
330
50
100
AcDbEntity
  8
AM_8
  6
Continuous
 62
     4
100
AcDbCircle
 10
240.8709769846391
 20
18.28815181026048
 30
0.0
 40
0.8660254037843873
  0
ENDBLK
  5
131
330
50
100
AcDbEntity
  8
0
100
AcDbBlockEnd
  0
BLOCK
  5
132
330
51
100
AcDbEntity
  8
0
100
AcDbBlockBegin
  2
_S_32
 70
     0
 10
0.0
 20
0.0
 30
0.0
  3
_S_32
  1

  0
LINE
  5
133
330
51
100
AcDbEntity
  8
AM_8
  6
Continuous
 62
     4
100
AcDbLine
 10
258.3688751367027
 20
19.09975055406582
 30
0.0
 11
259.8688751367027
 21
16.09975055406582
 31
0.0
  0
LINE
  5
134
330
51
100
AcDbEntity
  8
AM_8
  6
Continuous
 62
     4
100
AcDbLine
 10
259.8688751367027
 20
16.09975055406582
 30
0.0
 11
261.3688751367027
 21
19.09975055406582
 31
0.0
  0
LINE
  5
135
330
51
100
AcDbEntity
  8
AM_8
  6
Continuous
 62
     4
100
AcDbLine
 10
261.3688751367027
 20
19.09975055406582
 30
0.0
 11
258.3688751367027
 21
19.09975055406582
 31
0.0
  0
ENDBLK
  5
136
330
51
100
AcDbEntity
  8
0
100
AcDbBlockEnd
  0
BLOCK
  5
137
330
52
100
AcDbEntity
  8
0
100
AcDbBlockBegin
  2
_S_33
 70
     0
 10
0.0
 20
0.0
 30
0.0
  3
_S_33
  1

  0
LINE
  5
138
330
52
100
AcDbEntity
  8
AM_8
  6
Continuous
 62
     4
100
AcDbLine
 10
272.7565502388416
 20
19.09975055406582
 30
0.0
 11
274.2565502388416
 21
16.09975055406582
 31
0.0
  0
LINE
  5
139
330
52
100
AcDbEntity
  8
AM_8
  6
Continuous
 62
     4
100
AcDbLine
 10
274.2565502388416
 20
16.09975055406582
 30
0.0
 11
277.2565502388416
 21
22.09975055406582
 31
0.0
  0
TEXT
  5
13A
330
52
100
AcDbEntity
  8
AM_8
  6
Continuous
 62
     4
100
AcDbText
 10
272.706317613091
 20
19.59975055406582
 30
0.0
 40
2.0
  1
6,3
 11
272.706317613091
 21
21.59975055406582
 31
0.0
100
AcDbText
 73
     3
  0
ENDBLK
  5
13B
330
52
100
AcDbEntity
  8
0
100
AcDbBlockEnd
  0
BLOCK
  5
13C
330
53
100
AcDbEntity
  8
0
100
AcDbBlockBegin
  2
_S_34
 70
     0
 10
0.0
 20
0.0
 30
0.0
  3
_S_34
  1

  0
LINE
  5
13D
330
53
100
AcDbEntity
  8
AM_8
  6
Continuous
 62
     4
100
AcDbLine
 10
325.3040245148254
 20
19.16901056422762
 30
0.0
 11
326.8040245148254
 21
16.16901056422762
 31
0.0
  0
LINE
  5
13E
330
53
100
AcDbEntity
  8
AM_8
  6
Continuous
 62
     4
100
AcDbLine
 10
326.8040245148254
 20
16.16901056422762
 30
0.0
 11
328.3040245148253
 21
19.16901056422762
 31
0.0
  0
LINE
  5
13F
330
53
100
AcDbEntity
  8
AM_8
  6
Continuous
 62
     4
100
AcDbLine
 10
328.3040245148253
 20
19.16901056422762
 30
0.0
 11
325.3040245148254
 21
19.16901056422762
 31
0.0
  0
LINE
  5
140
330
53
100
AcDbEntity
  8
AM_8
  6
Continuous
 62
     4
100
AcDbLine
 10
325.3040245148254
 20
19.16901056422762
 30
0.0
 11
323.8040245148253
 21
16.16901056422762
 31
0.0
  0
LINE
  5
141
330
53
100
AcDbEntity
  8
AM_8
  6
Continuous
 62
     4
100
AcDbLine
 10
323.8040245148253
 20
16.16901056422762
 30
0.0
 11
322.3040245148254
 21
19.16901056422762
 31
0.0
  0
LINE
  5
142
330
53
100
AcDbEntity
  8
AM_8
  6
Continuous
 62
     4
100
AcDbLine
 10
322.3040245148254
 20
19.16901056422762
 30
0.0
 11
325.3040245148254
 21
19.16901056422762
 31
0.0
  0
LINE
  5
143
330
53
100
AcDbEntity
  8
AM_8
  6
Continuous
 62
     4
100
AcDbLine
 10
322.3040245148254
 20
19.16901056422762
 30
0.0
 11
320.8040245148254
 21
16.16901056422762
 31
0.0
  0
LINE
  5
144
330
53
100
AcDbEntity
  8
AM_8
  6
Continuous
 62
     4
100
AcDbLine
 10
320.8040245148254
 20
16.16901056422762
 30
0.0
 11
319.3040245148254
 21
19.16901056422762
 31
0.0
  0
LINE
  5
145
330
53
100
AcDbEntity
  8
AM_8
  6
Continuous
 62
     4
100
AcDbLine
 10
319.3040245148254
 20
19.16901056422762
 30
0.0
 11
322.3040245148254
 21
19.16901056422762
 31
0.0
  0
ENDBLK
  5
146
330
53
100
AcDbEntity
  8
0
100
AcDbBlockEnd
  0
BLOCK
  5
147
330
54
100
AcDbEntity
  8
0
100
AcDbBlockBegin
  2
_S_35
 70
     0
 10
0.0
 20
0.0
 30
0.0
  3
_S_35
  1

  0
LINE
  5
148
330
54
100
AcDbEntity
  8
AM_8
  6
Continuous
 62
     4
100
AcDbLine
 10
333.1668267492568
 20
19.19819541103695
 30
0.0
 11
334.6668267492568
 21
16.19819541103695
 31
0.0
  0
LINE
  5
149
330
54
100
AcDbEntity
  8
AM_8
  6
Continuous
 62
     4
100
AcDbLine
 10
334.6668267492568
 20
16.19819541103695
 30
0.0
 11
337.6668267492568
 21
22.19819541103695
 31
0.0
  0
TEXT
  5
14A
330
54
100
AcDbEntity
  8
AM_8
  6
Continuous
 62
     4
100
AcDbText
 10
333.0256850325971
 20
19.69819541103695
 30
0.0
 40
2.0
  1
0,8
 11
333.0256850325971
 21
21.69819541103695
 31
0.0
100
AcDbText
 73
     3
  0
ENDBLK
  5
14B
330
54
100
AcDbEntity
  8
0
100
AcDbBlockEnd
  0
BLOCK
  5
14C
330
55
100
AcDbEntity
  8
0
100
AcDbBlockBegin
  2
_S_36
 70
     0
 10
0.0
 20
0.0
 30
0.0
  3
_S_36
  1

  0
LINE
  5
14D
330
55
100
AcDbEntity
  8
AM_8
  6
Continuous
 62
     4
100
AcDbLine
 10
291.8140602567192
 20
19.13960192084521
 30
0.0
 11
293.3140602567192
 21
16.13960192084521
 31
0.0
  0
LINE
  5
14E
330
55
100
AcDbEntity
  8
AM_8
  6
Continuous
 62
     4
100
AcDbLine
 10
293.3140602567192
 20
16.13960192084521
 30
0.0
 11
294.8140602567193
 21
19.13960192084521
 31
0.0
  0
LINE
  5
14F
330
55
100
AcDbEntity
  8
AM_8
  6
Continuous
 62
     4
100
AcDbLine
 10
294.8140602567193
 20
19.13960192084521
 30
0.0
 11
291.8140602567192
 21
19.13960192084521
 31
0.0
  0
LINE
  5
150
330
55
100
AcDbEntity
  8
AM_8
  6
Continuous
 62
     4
100
AcDbLine
 10
291.8140602567192
 20
19.13960192084521
 30
0.0
 11
290.3140602567193
 21
16.13960192084521
 31
0.0
  0
LINE
  5
151
330
55
100
AcDbEntity
  8
AM_8
  6
Continuous
 62
     4
100
AcDbLine
 10
290.3140602567193
 20
16.13960192084521
 30
0.0
 11
288.8140602567192
 21
19.13960192084521
 31
0.0
  0
LINE
  5
152
330
55
100
AcDbEntity
  8
AM_8
  6
Continuous
 62
     4
100
AcDbLine
 10
288.8140602567192
 20
19.13960192084521
 30
0.0
 11
291.8140602567192
 21
19.13960192084521
 31
0.0
  0
ENDBLK
  5
153
330
55
100
AcDbEntity
  8
0
100
AcDbBlockEnd
  0
BLOCK
  5
154
330
56
100
AcDbEntity
  8
0
100
AcDbBlockBegin
  2
_S_37
 70
     0
 10
0.0
 20
0.0
 30
0.0
  3
_S_37
  1

  0
LINE
  5
155
330
56
100
AcDbEntity
  8
AM_8
  6
Continuous
 62
     4
100
AcDbLine
 10
302.3759119190779
 20
19.13960192084521
 30
0.0
 11
303.875911919078
 21
16.13960192084521
 31
0.0
  0
LINE
  5
156
330
56
100
AcDbEntity
  8
AM_8
  6
Continuous
 62
     4
100
AcDbLine
 10
303.875911919078
 20
16.13960192084521
 30
0.0
 11
306.875911919078
 21
22.13960192084521
 31
0.0
  0
TEXT
  5
157
330
56
100
AcDbEntity
  8
AM_8
  6
Continuous
 62
     4
100
AcDbText
 10
302.4393156569638
 20
19.6396019208452
 30
0.0
 40
2.0
  1
1,6
 11
302.4393156569638
 21
21.63960192084521
 31
0.0
100
AcDbText
 73
     3
  0
ENDBLK
  5
158
330
56
100
AcDbEntity
  8
0
100
AcDbBlockEnd
  0
BLOCK
  5
159
330
57
100
AcDbEntity
  8
0
100
AcDbBlockBegin
  2
_S_4
 70
     0
 10
0.0
 20
0.0
 30
0.0
  3
_S_4
  1

  0
LINE
  5
15A
330
57
100
AcDbEntity
  8
8
  6
Continuous
 62
   254
100
AcDbLine
 10
87.43259999999999
 20
170.689
 30
0.0
 11
87.43259999999999
 21
179.83
 31
0.0
  0
LINE
  5
15B
330
57
100
AcDbEntity
  8
8
  6
Continuous
 62
   254
100
AcDbLine
 10
92.5326
 20
171.589
 30
0.0
 11
92.5326
 21
179.83
 31
0.0
  0
LINE
  5
15C
330
57
100
AcDbEntity
  8
8
  6
Continuous
 62
   254
100
AcDbLine
 10
81.43259999999999
 20
178.33
 30
0.0
 11
98.5326
 21
178.33
 31
0.0
  0
TEXT
  5
15D
330
57
100
AcDbEntity
  8
8
  6
Continuous
 62
   254
100
AcDbText
 10
88.24389999999999
 20
179.08
 30
0.0
 40
3.0
  1
5,1
 11
88.24389999999999
 21
182.08
 31
0.0
100
AcDbText
 73
     3
  0
ENDBLK
  5
15E
330
57
100
AcDbEntity
  8
0
100
AcDbBlockEnd
  0
BLOCK
  5
15F
330
58
100
AcDbEntity
  8
0
100
AcDbBlockBegin
  2
_S_5
 70
     0
 10
0.0
 20
0.0
 30
0.0
  3
_S_5
  1

  0
LINE
  5
160
330
58
100
AcDbEntity
  8
8
  6
Continuous
 62
   254
100
AcDbLine
 10
92.5326
 20
171.589
 30
0.0
 11
92.5326
 21
179.83
 31
0.0
  0
LINE
  5
161
330
58
100
AcDbEntity
  8
8
  6
Continuous
 62
   254
100
AcDbLine
 10
100.833
 20
171.589
 30
0.0
 11
100.833
 21
179.83
 31
0.0
  0
LINE
  5
162
330
58
100
AcDbEntity
  8
8
  6
Continuous
 62
   254
100
AcDbLine
 10
89.5326
 20
178.33
 30
0.0
 11
86.53260000000001
 21
178.33
 31
0.0
  0
LINE
  5
163
330
58
100
AcDbEntity
  8
8
  6
Continuous
 62
   254
100
AcDbLine
 10
103.833
 20
178.33
 30
0.0
 11
106.833
 21
178.33
 31
0.0
  0
LINE
  5
164
330
58
100
AcDbEntity
  8
8
  6
Continuous
 62
   254
100
AcDbLine
 10
92.5326
 20
178.33
 30
0.0
 11
100.833
 21
178.33
 31
0.0
  0
INSERT
  5
165
330
58
100
AcDbEntity
  8
0
100
AcDbBlockReference
  2
_S_6
 10
92.5326
 20
178.33
 30
0.0
 41
3.0
 42
3.0
  0
INSERT
  5
166
330
58
100
AcDbEntity
  8
0
100
AcDbBlockReference
  2
_S_6
 10
100.833
 20
178.33
 30
0.0
 41
3.0
 42
3.0
 50
180.0
  0
TEXT
  5
167
330
58
100
AcDbEntity
  8
8
  6
Continuous
 62
   254
100
AcDbText
 10
83.1826
 20
180.116
 30
0.0
 40
3.0
  1
A1;A1;8,3
100
AcDbText
  0
POINT
  5
168
330
58
100
AcDbEntity
  8
AM_10
  6
Continuous
 62
     7
100
AcDbPoint
 10
92.5326
 20
171.589
 30
0.0
  0
POINT
  5
169
330
58
100
AcDbEntity
  8
AM_10
  6
Continuous
 62
     7
100
AcDbPoint
 10
100.833
 20
171.589
 30
0.0
  0
POINT
  5
16A
330
58
100
AcDbEntity
  8
AM_10
  6
Continuous
 62
     7
100
AcDbPoint
 10
100.833
 20
178.33
 30
0.0
  0
ENDBLK
  5
16B
330
58
100
AcDbEntity
  8
0
100
AcDbBlockEnd
  0
BLOCK
  5
16C
330
59
100
AcDbEntity
  8
0
100
AcDbBlockBegin
  2
_S_6
 70
     0
 10
0.0
 20
0.0
 30
0.0
  3
_S_6
  1

  0
LINE
  5
16D
330
59
100
AcDbEntity
  8
8
  6
Continuous
 62
   254
100
AcDbLine
 10
0.0
 20
0.0
 30
0.0
 11
-1.0
 21
0.0
 31
0.0
  0
ENDBLK
  5
16E
330
59
100
AcDbEntity
  8
0
100
AcDbBlockEnd
  0
BLOCK
  5
16F
330
5A
100
AcDbEntity
  8
0
100
AcDbBlockBegin
  2
_S_7
 70
     0
 10
0.0
 20
0.0
 30
0.0
  3
_S_7
  1

  0
INSERT
  5
170
330
5A
100
AcDbEntity
  8
0
100
AcDbBlockReference
  2
_S_8
 10
0.0
 20
0.0
 30
0.0
  0
ENDBLK
  5
171
330
5A
100
AcDbEntity
  8
0
100
AcDbBlockEnd
  0
BLOCK
  5
172
330
5B
100
AcDbEntity
  8
0
100
AcDbBlockBegin
  2
_S_8
 70
     0
 10
0.0
 20
0.0
 30
0.0
  3
_S_8
  1

  0
LINE
  5
173
330
5B
100
AcDbEntity
  8
8
  6
Continuous
 62
   254
100
AcDbLine
 10
100.833
 20
171.589
 30
0.0
 11
100.833
 21
179.83
 31
0.0
  0
LINE
  5
174
330
5B
100
AcDbEntity
  8
8
  6
Continuous
 62
   254
100
AcDbLine
 10
105.933
 20
170.689
 30
0.0
 11
105.933
 21
179.83
 31
0.0
  0
LINE
  5
175
330
5B
100
AcDbEntity
  8
8
  6
Continuous
 62
   254
100
AcDbLine
 10
94.83259999999999
 20
178.33
 30
0.0
 11
111.933
 21
178.33
 31
0.0
  0
TEXT
  5
176
330
5B
100
AcDbEntity
  8
8
  6
Continuous
 62
   254
100
AcDbText
 10
101.644
 20
179.08
 30
0.0
 40
3.0
  1
5,1
 11
101.644
 21
182.08
 31
0.0
100
AcDbText
 73
     3
  0
ENDBLK
  5
177
330
5B
100
AcDbEntity
  8
0
100
AcDbBlockEnd
  0
BLOCK
  5
178
330
5C
100
AcDbEntity
  8
0
100
AcDbBlockBegin
  2
_S_9
 70
     0
 10
0.0
 20
0.0
 30
0.0
  3
_S_9
  1

  0
INSERT
  5
179
330
5C
100
AcDbEntity
  8
0
100
AcDbBlockReference
  2
_S_10
 10
0.0
 20
0.0
 30
0.0
  0
ENDBLK
  5
17A
330
5C
100
AcDbEntity
  8
0
100
AcDbBlockEnd
  0
BLOCK
  5
17B
330
5D
100
AcDbEntity
  8
0
100
AcDbBlockBegin
  2
_X1
 70
     0
 10
0.0
 20
0.0
 30
0.0
  3
_X1
  1

  0
ENDBLK
  5
17C
330
5D
100
AcDbEntity
  8
0
100
AcDbBlockEnd
  0
BLOCK
  5
17D
330
5E
100
AcDbEntity
  8
0
100
AcDbBlockBegin
  2
DMBLK374
 70
     0
 10
0.0
 20
0.0
 30
0.0
  3
DMBLK374
  1

  0
INSERT
  5
17E
330
5E
100
AcDbEntity
  8
0
100
AcDbBlockReference
  2
SE0
 10
0.0
 20
0.0
 30
0.0
  0
ENDBLK
  5
17F
330
5E
100
AcDbEntity
  8
0
100
AcDbBlockEnd
  0
BLOCK
  5
180
330
5F
100
AcDbEntity
  8
0
100
AcDbBlockBegin
  2
DMBLK375
 70
     0
 10
0.0
 20
0.0
 30
0.0
  3
DMBLK375
  1

  0
INSERT
  5
181
330
5F
100
AcDbEntity
  8
0
100
AcDbBlockReference
  2
SE1
 10
0.0
 20
0.0
 30
0.0
  0
ENDBLK
  5
182
330
5F
100
AcDbEntity
  8
0
100
AcDbBlockEnd
  0
BLOCK
  5
183
330
60
100
AcDbEntity
  8
0
100
AcDbBlockBegin
  2
DMBLK376
 70
     0
 10
0.0
 20
0.0
 30
0.0
  3
DMBLK376
  1

  0
LINE
  5
184
330
60
100
AcDbEntity
  8
AM_2
  6
Continuous
 62
   254
100
AcDbLine
 10
92.53256058075892
 20
171.5888346551672
 30
0.0
 11
92.53256058075892
 21
179.830136277409
 31
0.0
  0
LINE
  5
185
330
60
100
AcDbEntity
  8
AM_2
  6
Continuous
 62
   254
100
AcDbLine
 10
100.8325605807589
 20
171.5888346551672
 30
0.0
 11
100.8325605807589
 21
179.830136277409
 31
0.0
  0
LINE
  5
186
330
60
100
AcDbEntity
  8
AM_2
  6
Continuous
 62
   254
100
AcDbLine
 10
89.53256058075892
 20
178.3301362774089
 30
0.0
 11
86.53256058075893
 21
178.3301362774089
 31
0.0
  0
LINE
  5
187
330
60
100
AcDbEntity
  8
AM_2
  6
Continuous
 62
   254
100
AcDbLine
 10
103.8325605807589
 20
178.3301362774089
 30
0.0
 11
106.8325605807589
 21
178.3301362774089
 31
0.0
  0
LINE
  5
188
330
60
100
AcDbEntity
  8
AM_2
  6
Continuous
 62
   254
100
AcDbLine
 10
92.53256058075892
 20
178.3301362774089
 30
0.0
 11
100.8325605807589
 21
178.3301362774089
 31
0.0
  0
INSERT
  5
189
330
60
100
AcDbEntity
  8
0
100
AcDbBlockReference
  2
_SE_BLANK
 10
92.53256058075892
 20
178.3301362774089
 30
0.0
 41
3.0
 42
3.0
  0
INSERT
  5
18A
330
60
100
AcDbEntity
  8
0
100
AcDbBlockReference
  2
_SE_BLANK
 10
100.8325605807589
 20
178.3301362774089
 30
0.0
 41
3.0
 42
3.0
 50
180.0
  0
TEXT
  5
18B
330
60
100
AcDbEntity
  8
AM_2
  6
Continuous
 62
   254
100
AcDbText
 10
83.18256058075892
 20
180.1158505631232
 30
0.0
 40
3.0
  1
A1;A1;8,3
100
AcDbText
  0
POINT
  5
18C
330
60
100
AcDbEntity
  8
6
  6
Continuous
 62
     7
100
AcDbPoint
 10
92.53256058075892
 20
171.5888346551672
 30
0.0
  0
POINT
  5
18D
330
60
100
AcDbEntity
  8
6
  6
Continuous
 62
     7
100
AcDbPoint
 10
100.8325605807589
 20
171.5888346551672
 30
0.0
  0
POINT
  5
18E
330
60
100
AcDbEntity
  8
6
  6
Continuous
 62
     7
100
AcDbPoint
 10
100.8325605807589
 20
178.3301362774089
 30
0.0
  0
ENDBLK
  5
18F
330
60
100
AcDbEntity
  8
0
100
AcDbBlockEnd
  0
BLOCK
  5
190
330
61
100
AcDbEntity
  8
0
100
AcDbBlockBegin
  2
DMBLK377
 70
     0
 10
0.0
 20
0.0
 30
0.0
  3
DMBLK377
  1

  0
INSERT
  5
191
330
61
100
AcDbEntity
  8
0
100
AcDbBlockReference
  2
SE3
 10
0.0
 20
0.0
 30
0.0
  0
ENDBLK
  5
192
330
61
100
AcDbEntity
  8
0
100
AcDbBlockEnd
  0
BLOCK
  5
193
330
62
100
AcDbEntity
  8
0
100
AcDbBlockBegin
  2
DMBLK378
 70
     0
 10
0.0
 20
0.0
 30
0.0
  3
DMBLK378
  1

  0
INSERT
  5
194
330
62
100
AcDbEntity
  8
0
100
AcDbBlockReference
  2
SE4
 10
0.0
 20
0.0
 30
0.0
  0
ENDBLK
  5
195
330
62
100
AcDbEntity
  8
0
100
AcDbBlockEnd
  0
BLOCK
  5
196
330
63
100
AcDbEntity
  8
0
100
AcDbBlockBegin
  2
DMBLK379
 70
     0
 10
0.0
 20
0.0
 30
0.0
  3
DMBLK379
  1

  0
INSERT
  5
197
330
63
100
AcDbEntity
  8
0
100
AcDbBlockReference
  2
SE5
 10
0.0
 20
0.0
 30
0.0
  0
ENDBLK
  5
198
330
63
100
AcDbEntity
  8
0
100
AcDbBlockEnd
  0
BLOCK
  5
199
330
64
100
AcDbEntity
  8
0
100
AcDbBlockBegin
  2
DMBLK380
 70
     0
 10
0.0
 20
0.0
 30
0.0
  3
DMBLK380
  1

  0
INSERT
  5
19A
330
64
100
AcDbEntity
  8
0
100
AcDbBlockReference
  2
SE6
 10
0.0
 20
0.0
 30
0.0
  0
ENDBLK
  5
19B
330
64
100
AcDbEntity
  8
0
100
AcDbBlockEnd
  0
BLOCK
  5
19C
330
65
100
AcDbEntity
  8
0
100
AcDbBlockBegin
  2
DMBLK381
 70
     0
 10
0.0
 20
0.0
 30
0.0
  3
DMBLK381
  1

  0
INSERT
  5
19D
330
65
100
AcDbEntity
  8
0
100
AcDbBlockReference
  2
SE7
 10
0.0
 20
0.0
 30
0.0
  0
ENDBLK
  5
19E
330
65
100
AcDbEntity
  8
0
100
AcDbBlockEnd
  0
BLOCK
  5
19F
330
66
100
AcDbEntity
  8
0
100
AcDbBlockBegin
  2
DMBLK382
 70
     0
 10
0.0
 20
0.0
 30
0.0
  3
DMBLK382
  1

  0
INSERT
  5
1A0
330
66
100
AcDbEntity
  8
0
100
AcDbBlockReference
  2
SE8
 10
0.0
 20
0.0
 30
0.0
  0
ENDBLK
  5
1A1
330
66
100
AcDbEntity
  8
0
100
AcDbBlockEnd
  0
BLOCK
  5
1A2
330
67
100
AcDbEntity
  8
0
100
AcDbBlockBegin
  2
DMBLK383
 70
     0
 10
0.0
 20
0.0
 30
0.0
  3
DMBLK383
  1

  0
INSERT
  5
1A3
330
67
100
AcDbEntity
  8
0
100
AcDbBlockReference
  2
SE9
 10
0.0
 20
0.0
 30
0.0
  0
ENDBLK
  5
1A4
330
67
100
AcDbEntity
  8
0
100
AcDbBlockEnd
  0
BLOCK
  5
1A5
330
68
100
AcDbEntity
  8
0
100
AcDbBlockBegin
  2
DMBLK384
 70
     0
 10
0.0
 20
0.0
 30
0.0
  3
DMBLK384
  1

  0
INSERT
  5
1A6
330
68
100
AcDbEntity
  8
0
100
AcDbBlockReference
  2
SE10
 10
0.0
 20
0.0
 30
0.0
  0
ENDBLK
  5
1A7
330
68
100
AcDbEntity
  8
0
100
AcDbBlockEnd
  0
BLOCK
  5
1A8
330
69
100
AcDbEntity
  8
0
100
AcDbBlockBegin
  2
DMBLK385
 70
     0
 10
0.0
 20
0.0
 30
0.0
  3
DMBLK385
  1

  0
INSERT
  5
1A9
330
69
100
AcDbEntity
  8
0
100
AcDbBlockReference
  2
SE11
 10
0.0
 20
0.0
 30
0.0
  0
ENDBLK
  5
1AA
330
69
100
AcDbEntity
  8
0
100
AcDbBlockEnd
  0
BLOCK
  5
1AB
330
6A
100
AcDbEntity
  8
0
100
AcDbBlockBegin
  2
DMBLK386
 70
     0
 10
0.0
 20
0.0
 30
0.0
  3
DMBLK386
  1

  0
INSERT
  5
1AC
330
6A
100
AcDbEntity
  8
0
100
AcDbBlockReference
  2
SE12
 10
0.0
 20
0.0
 30
0.0
  0
ENDBLK
  5
1AD
330
6A
100
AcDbEntity
  8
0
100
AcDbBlockEnd
  0
BLOCK
  5
1AE
330
6B
100
AcDbEntity
  8
0
100
AcDbBlockBegin
  2
DMBLK387
 70
     0
 10
0.0
 20
0.0
 30
0.0
  3
DMBLK387
  1

  0
INSERT
  5
1AF
330
6B
100
AcDbEntity
  8
0
100
AcDbBlockReference
  2
SE13
 10
0.0
 20
0.0
 30
0.0
  0
ENDBLK
  5
1B0
330
6B
100
AcDbEntity
  8
0
100
AcDbBlockEnd
  0
BLOCK
  5
1B1
330
6C
100
AcDbEntity
  8
0
100
AcDbBlockBegin
  2
SE0
 70
     0
 10
0.0
 20
0.0
 30
0.0
  3
SE0
  1

  0
LINE
  5
1B2
330
6C
100
AcDbEntity
  8
AM_2
  6
Continuous
 62
   254
100
AcDbLine
 10
87.43256058075891
 20
170.6888346551672
 30
0.0
 11
87.43256058075891
 21
189.1332579861149
 31
0.0
  0
LINE
  5
1B3
330
6C
100
AcDbEntity
  8
AM_2
  6
Continuous
 62
   254
100
AcDbLine
 10
105.9325605807589
 20
170.6888346551672
 30
0.0
 11
105.9325605807589
 21
189.1332579861149
 31
0.0
  0
LINE
  5
1B4
330
6C
100
AcDbEntity
  8
AM_2
  6
Continuous
 62
   254
100
AcDbLine
 10
87.43256058075891
 20
187.6332579730764
 30
0.0
 11
105.9325608191775
 21
187.6332579730764
 31
0.0
  0
TEXT
  5
1B5
330
6C
100
AcDbEntity
  8
AM_2
  6
Continuous
 62
   254
100
AcDbText
 10
93.9893788817864
 20
188.3832579730764
 30
0.0
 40
3.0
  1
18,5
 11
93.9893788817864
 21
191.3832579730764
 31
0.0
100
AcDbText
 73
     3
  0
ENDBLK
  5
1B6
330
6C
100
AcDbEntity
  8
0
100
AcDbBlockEnd
  0
BLOCK
  5
1B7
330
6D
100
AcDbEntity
  8
0
100
AcDbBlockBegin
  2
SE1
 70
     0
 10
0.0
 20
0.0
 30
0.0
  3
SE1
  1

  0
LINE
  5
1B8
330
6D
100
AcDbEntity
  8
AM_2
  6
Continuous
 62
   254
100
AcDbLine
 10
87.43256058075891
 20
170.6888346551672
 30
0.0
 11
87.43256058075891
 21
179.8301361585721
 31
0.0
  0
LINE
  5
1B9
330
6D
100
AcDbEntity
  8
AM_2
  6
Continuous
 62
   254
100
AcDbLine
 10
92.53256058075892
 20
171.5888346551672
 30
0.0
 11
92.53256058075892
 21
179.8301361585722
 31
0.0
  0
LINE
  5
1BA
330
6D
100
AcDbEntity
  8
AM_2
  6
Continuous
 62
   254
100
AcDbLine
 10
81.43256052860484
 20
178.3301361455336
 30
0.0
 11
98.53256035128104
 21
178.3301361455336
 31
0.0
  0
TEXT
  5
1BB
330
6D
100
AcDbEntity
  8
AM_2
  6
Continuous
 62
   254
100
AcDbText
 10
88.24392430913722
 20
179.0801361455336
 30
0.0
 40
3.0
  1
5,1
 11
88.24392430913722
 21
182.0801361455336
 31
0.0
100
AcDbText
 73
     3
  0
ENDBLK
  5
1BC
330
6D
100
AcDbEntity
  8
0
100
AcDbBlockEnd
  0
BLOCK
  5
1BD
330
6E
100
AcDbEntity
  8
0
100
AcDbBlockBegin
  2
SE10
 70
     0
 10
0.0
 20
0.0
 30
0.0
  3
SE10
  1

  0
LINE
  5
1BE
330
6E
100
AcDbEntity
  8
AM_2
  6
Continuous
 62
   254
100
AcDbLine
 10
105.6825605807589
 20
154.8388346551672
 30
0.0
 11
114.4947890313105
 21
154.8388346551672
 31
0.0
  0
LINE
  5
1BF
330
6E
100
AcDbEntity
  8
AM_2
  6
Continuous
 62
   254
100
AcDbLine
 10
104.3325605807589
 20
146.5388346551672
 30
0.0
 11
114.4947890313105
 21
146.5388346551672
 31
0.0
  0
LINE
  5
1C0
330
6E
100
AcDbEntity
  8
AM_2
  6
Continuous
 62
   254
100
AcDbLine
 10
112.994789018272
 20
160.8388347073212
 30
0.0
 11
112.994789018272
 21
140.5388347326532
 31
0.0
  0
TEXT
  5
1C1
330
6E
100
AcDbEntity
  8
AM_2
  6
Continuous
 62
   254
100
AcDbText
 10
112.244789018272
 20
148.6774710836236
 30
0.0
 40
3.0
  1
8,3
 50
90.0
 11
109.244789018272
 21
148.6774710836236
 31
0.0
100
AcDbText
 73
     3
  0
ENDBLK
  5
1C2
330
6E
100
AcDbEntity
  8
0
100
AcDbBlockEnd
  0
BLOCK
  5
1C3
330
6F
100
AcDbEntity
  8
0
100
AcDbBlockBegin
  2
SE11
 70
     0
 10
0.0
 20
0.0
 30
0.0
  3
SE11
  1

  0
LINE
  5
1C4
330
6F
100
AcDbEntity
  8
AM_2
  6
Continuous
 62
   254
100
AcDbLine
 10
104.3325605807589
 20
146.5388346551672
 30
0.0
 11
114.4947890663282
 21
146.5388346551672
 31
0.0
  0
LINE
  5
1C5
330
6F
100
AcDbEntity
  8
AM_2
  6
Continuous
 62
   254
100
AcDbLine
 10
102.2575605807588
 20
128.1888346551672
 30
0.0
 11
114.4947890663282
 21
128.1888346551672
 31
0.0
  0
LINE
  5
1C6
330
6F
100
AcDbEntity
  8
AM_2
  6
Continuous
 62
   254
100
AcDbLine
 10
112.9947890532897
 20
146.5388346551672
 30
0.0
 11
112.9947890532897
 21
128.1888350932613
 31
0.0
  0
TEXT
  5
1C7
330
6F
100
AcDbEntity
  8
AM_2
  6
Continuous
 62
   254
100
AcDbText
 10
112.2447890532897
 20
133.8865621469415
 30
0.0
 40
3.0
  1
18,35
 50
90.0
 11
109.2447890532897
 21
133.8865621469415
 31
0.0
100
AcDbText
 73
     3
  0
ENDBLK
  5
1C8
330
6F
100
AcDbEntity
  8
0
100
AcDbBlockEnd
  0
BLOCK
  5
1C9
330
70
100
AcDbEntity
  8
0
100
AcDbBlockBegin
  2
SE12
 70
     0
 10
0.0
 20
0.0
 30
0.0
  3
SE12
  1

  0
LINE
  5
1CA
330
70
100
AcDbEntity
  8
AM_2
  6
Continuous
 62
   254
100
AcDbLine
 10
99.35020962108353
 20
157.5888346551672
 30
0.0
 11
99.35020962108353
 21
143.7888348146096
 31
0.0
  0
TEXT
  5
1CB
330
70
100
AcDbEntity
  8
AM_2
  6
Continuous
 62
   254
100
AcDbText
 10
98.60020962108352
 20
148.0638347348884
 30
0.0
 40
3.0
  1
13,8
 50
90.0
 11
95.60020962108351
 21
148.0638347348884
 31
0.0
100
AcDbText
 73
     3
  0
ENDBLK
  5
1CC
330
70
100
AcDbEntity
  8
0
100
AcDbBlockEnd
  0
BLOCK
  5
1CD
330
71
100
AcDbEntity
  8
0
100
AcDbBlockBegin
  2
SE13
 70
     0
 10
0.0
 20
0.0
 30
0.0
  3
SE13
  1

  0
LINE
  5
1CE
330
71
100
AcDbEntity
  8
AM_2
  6
Continuous
 62
   254
100
AcDbLine
 10
91.10756058075891
 20
128.1888346551672
 30
0.0
 11
99.23766835422682
 21
128.1888346551672
 31
0.0
  0
LINE
  5
1CF
330
71
100
AcDbEntity
  8
AM_2
  6
Continuous
 62
   254
100
AcDbLine
 10
91.0325605807589
 20
131.3888346551672
 30
0.0
 11
99.23766835422682
 21
131.3888346551672
 31
0.0
  0
LINE
  5
1D0
330
71
100
AcDbEntity
  8
AM_2
  6
Continuous
 62
   254
100
AcDbLine
 10
97.73766834118832
 20
122.1888346030131
 30
0.0
 11
97.73766834118832
 21
139.3575716196314
 31
0.0
  0
TEXT
  5
1D1
330
71
100
AcDbEntity
  8
AM_2
  6
Continuous
 62
   254
100
AcDbText
 10
96.9876683411883
 20
134.3530263325885
 30
0.0
 40
3.0
  1
3,2
 50
90.0
 11
93.98766834118829
 21
134.3530263325885
 31
0.0
100
AcDbText
 73
     3
  0
ENDBLK
  5
1D2
330
71
100
AcDbEntity
  8
0
100
AcDbBlockEnd
  0
BLOCK
  5
1D3
330
72
100
AcDbEntity
  8
0
100
AcDbBlockBegin
  2
SE2
 70
     0
 10
0.0
 20
0.0
 30
0.0
  3
SE2
  1

  0
LINE
  5
1D4
330
72
100
AcDbEntity
  8
AM_2
  6
Continuous
 62
   254
100
AcDbLine
 10
92.53256058075892
 20
171.5888346551672
 30
0.0
 11
92.53256058075892
 21
179.8301362904475
 31
0.0
  0
LINE
  5
1D5
330
72
100
AcDbEntity
  8
AM_2
  6
Continuous
 62
   254
100
AcDbLine
 10
100.8325605807589
 20
171.5888346551672
 30
0.0
 11
100.8325605807589
 21
179.8301362904475
 31
0.0
  0
LINE
  5
1D6
330
72
100
AcDbEntity
  8
AM_2
  6
Continuous
 62
   254
100
AcDbLine
 10
86.53256052860486
 20
178.3301362774089
 30
0.0
 11
106.8325605032728
 21
178.3301362774089
 31
0.0
  0
TEXT
  5
1D7
330
72
100
AcDbEntity
  8
AM_2
  6
Continuous
 62
   254
100
AcDbText
 10
94.67119687957524
 20
179.080136277409
 30
0.0
 40
3.0
  1
8,3
 11
94.67119687957524
 21
182.080136277409
 31
0.0
100
AcDbText
 73
     3
  0
ENDBLK
  5
1D8
330
72
100
AcDbEntity
  8
0
100
AcDbBlockEnd
  0
BLOCK
  5
1D9
330
73
100
AcDbEntity
  8
0
100
AcDbBlockBegin
  2
SE3
 70
     0
 10
0.0
 20
0.0
 30
0.0
  3
SE3
  1

  0
LINE
  5
1DA
330
73
100
AcDbEntity
  8
AM_2
  6
Continuous
 62
   254
100
AcDbLine
 10
100.8325605807589
 20
171.5888346551672
 30
0.0
 11
100.8325605807589
 21
179.8301362904474
 31
0.0
  0
LINE
  5
1DB
330
73
100
AcDbEntity
  8
AM_2
  6
Continuous
 62
   254
100
AcDbLine
 10
105.9325605807589
 20
170.6888346551672
 30
0.0
 11
105.9325605807589
 21
179.8301362904474
 31
0.0
  0
LINE
  5
1DC
330
73
100
AcDbEntity
  8
AM_2
  6
Continuous
 62
   254
100
AcDbLine
 10
94.83256052860486
 20
178.3301362774089
 30
0.0
 11
111.932560351281
 21
178.3301362774089
 31
0.0
  0
TEXT
  5
1DD
330
73
100
AcDbEntity
  8
AM_2
  6
Continuous
 62
   254
100
AcDbText
 10
101.6439243091372
 20
179.0801362774089
 30
0.0
 40
3.0
  1
5,1
 11
101.6439243091372
 21
182.0801362774089
 31
0.0
100
AcDbText
 73
     3
  0
ENDBLK
  5
1DE
330
73
100
AcDbEntity
  8
0
100
AcDbBlockEnd
  0
BLOCK
  5
1DF
330
74
100
AcDbEntity
  8
0
100
AcDbBlockBegin
  2
SE4
 70
     0
 10
0.0
 20
0.0
 30
0.0
  3
SE4
  1

  0
LINE
  5
1E0
330
74
100
AcDbEntity
  8
AM_2
  6
Continuous
 62
   254
100
AcDbLine
 10
91.10756058075891
 20
173.1888346551672
 30
0.0
 11
74.28230115042494
 21
173.1888346551672
 31
0.0
  0
LINE
  5
1E1
330
74
100
AcDbEntity
  8
AM_2
  6
Continuous
 62
   254
100
AcDbLine
 10
91.10756058075891
 20
128.1888346551672
 30
0.0
 11
74.28230115042494
 21
128.1888346551672
 31
0.0
  0
LINE
  5
1E2
330
74
100
AcDbEntity
  8
AM_2
  6
Continuous
 62
   254
100
AcDbLine
 10
75.78230116346346
 20
173.1888346551672
 30
0.0
 11
75.78230116346346
 21
128.1888328670278
 31
0.0
  0
TEXT
  5
1E3
330
74
100
AcDbEntity
  8
AM_2
  6
Continuous
 62
   254
100
AcDbText
 10
75.03230116346346
 20
148.9501973974611
 30
0.0
 40
3.0
  1
45
 50
90.0
 11
72.03230116346346
 21
148.9501973974611
 31
0.0
100
AcDbText
 73
     3
  0
ENDBLK
  5
1E4
330
74
100
AcDbEntity
  8
0
100
AcDbBlockEnd
  0
BLOCK
  5
1E5
330
75
100
AcDbEntity
  8
0
100
AcDbBlockBegin
  2
SE5
 70
     0
 10
0.0
 20
0.0
 30
0.0
  3
SE5
  1

  0
LINE
  5
1E6
330
75
100
AcDbEntity
  8
AM_2
  6
Continuous
 62
   254
100
AcDbLine
 10
91.10756058075891
 20
173.1888346551672
 30
0.0
 11
79.74013269708918
 21
173.1888346551672
 31
0.0
  0
LINE
  5
1E7
330
75
100
AcDbEntity
  8
AM_2
  6
Continuous
 62
   254
100
AcDbLine
 10
92.98256058075891
 20
159.4888346551672
 30
0.0
 11
79.74013269708918
 21
159.4888346551672
 31
0.0
  0
LINE
  5
1E8
330
75
100
AcDbEntity
  8
AM_2
  6
Continuous
 62
   254
100
AcDbLine
 10
81.24013271012769
 20
173.1888346551672
 30
0.0
 11
81.24013271012769
 21
159.4888346447364
 31
0.0
  0
TEXT
  5
1E9
330
75
100
AcDbEntity
  8
AM_2
  6
Continuous
 62
   254
100
AcDbText
 10
80.49013271012769
 20
163.7138346499517
 30
0.0
 40
3.0
  1
13,7
 50
90.0
 11
77.4901327101277
 21
163.7138346499517
 31
0.0
100
AcDbText
 73
     3
  0
ENDBLK
  5
1EA
330
75
100
AcDbEntity
  8
0
100
AcDbBlockEnd
  0
BLOCK
  5
1EB
330
76
100
AcDbEntity
  8
0
100
AcDbBlockBegin
  2
SE6
 70
     0
 10
0.0
 20
0.0
 30
0.0
  3
SE6
  1

  0
LINE
  5
1EC
330
76
100
AcDbEntity
  8
AM_2
  6
Continuous
 62
   254
100
AcDbLine
 10
92.98256058075891
 20
159.4888346551672
 30
0.0
 11
79.74013262258337
 21
159.4888346551672
 31
0.0
  0
LINE
  5
1ED
330
76
100
AcDbEntity
  8
AM_2
  6
Continuous
 62
   254
100
AcDbLine
 10
92.98256058075891
 20
141.8888346551672
 30
0.0
 11
79.74013262258337
 21
141.8888346551672
 31
0.0
  0
LINE
  5
1EE
330
76
100
AcDbEntity
  8
AM_2
  6
Continuous
 62
   254
100
AcDbLine
 10
81.24013263562188
 20
159.4888346551672
 30
0.0
 11
81.24013263562188
 21
141.8888347505346
 31
0.0
  0
TEXT
  5
1EF
330
76
100
AcDbEntity
  8
AM_2
  6
Continuous
 62
   254
100
AcDbText
 10
80.49013263562189
 20
147.9274710664872
 30
0.0
 40
3.0
  1
17,6
 50
90.0
 11
77.49013263562189
 21
147.9274710664872
 31
0.0
100
AcDbText
 73
     3
  0
ENDBLK
  5
1F0
330
76
100
AcDbEntity
  8
0
100
AcDbBlockEnd
  0
BLOCK
  5
1F1
330
77
100
AcDbEntity
  8
0
100
AcDbBlockBegin
  2
SE7
 70
     0
 10
0.0
 20
0.0
 30
0.0
  3
SE7
  1

  0
LINE
  5
1F2
330
77
100
AcDbEntity
  8
AM_2
  6
Continuous
 62
   254
100
AcDbLine
 10
92.98256058075891
 20
141.8888346551672
 30
0.0
 11
79.74013262258337
 21
141.8888346551672
 31
0.0
  0
LINE
  5
1F3
330
77
100
AcDbEntity
  8
AM_2
  6
Continuous
 62
   254
100
AcDbLine
 10
91.10756058075891
 20
128.1888346551672
 30
0.0
 11
79.74013262258337
 21
128.1888346551672
 31
0.0
  0
LINE
  5
1F4
330
77
100
AcDbEntity
  8
AM_2
  6
Continuous
 62
   254
100
AcDbLine
 10
81.24013263562188
 20
141.8888346551672
 30
0.0
 11
81.24013263562188
 21
128.1888346447364
 31
0.0
  0
TEXT
  5
1F5
330
77
100
AcDbEntity
  8
AM_2
  6
Continuous
 62
   254
100
AcDbText
 10
80.49013263562189
 20
132.4138346499518
 30
0.0
 40
3.0
  1
13,7
 50
90.0
 11
77.49013263562189
 21
132.4138346499518
 31
0.0
100
AcDbText
 73
     3
  0
ENDBLK
  5
1F6
330
77
100
AcDbEntity
  8
0
100
AcDbBlockEnd
  0
BLOCK
  5
1F7
330
78
100
AcDbEntity
  8
0
100
AcDbBlockBegin
  2
SE8
 70
     0
 10
0.0
 20
0.0
 30
0.0
  3
SE8
  1

  0
LINE
  5
1F8
330
78
100
AcDbEntity
  8
AM_2
  6
Continuous
 62
   254
100
AcDbLine
 10
89.78256058075894
 20
164.685557426022
 30
0.0
 11
103.5825604213165
 21
164.685557426022
 31
0.0
  0
TEXT
  5
1F9
330
78
100
AcDbEntity
  8
AM_2
  6
Continuous
 62
   254
100
AcDbText
 10
94.05756050103773
 20
165.435557426022
 30
0.0
 40
3.0
  1
13,8
 11
94.05756050103773
 21
168.435557426022
 31
0.0
100
AcDbText
 73
     3
  0
ENDBLK
  5
1FA
330
78
100
AcDbEntity
  8
0
100
AcDbBlockEnd
  0
BLOCK
  5
1FB
330
79
100
AcDbEntity
  8
0
100
AcDbBlockBegin
  2
SE9
 70
     0
 10
0.0
 20
0.0
 30
0.0
  3
SE9
  1

  0
LINE
  5
1FC
330
79
100
AcDbEntity
  8
AM_2
  6
Continuous
 62
   254
100
AcDbLine
 10
102.2575605807589
 20
173.1888346551672
 30
0.0
 11
114.4947888010876
 21
173.1888346551672
 31
0.0
  0
LINE
  5
1FD
330
79
100
AcDbEntity
  8
AM_2
  6
Continuous
 62
   254
100
AcDbLine
 10
105.6825605807589
 20
154.8388346551672
 30
0.0
 11
114.4947888010876
 21
154.8388346551672
 31
0.0
  0
LINE
  5
1FE
330
79
100
AcDbEntity
  8
AM_2
  6
Continuous
 62
   254
100
AcDbLine
 10
112.9947887880491
 20
173.1888346551672
 30
0.0
 11
112.9947887880491
 21
154.8388350932613
 31
0.0
  0
TEXT
  5
1FF
330
79
100
AcDbEntity
  8
AM_2
  6
Continuous
 62
   254
100
AcDbText
 10
112.2447887880491
 20
160.5365621469415
 30
0.0
 40
3.0
  1
18,35
 50
90.0
 11
109.2447887880491
 21
160.5365621469415
 31
0.0
100
AcDbText
 73
     3
  0
ENDBLK
  5
200
330
79
100
AcDbEntity
  8
0
100
AcDbBlockEnd
  0
BLOCK
  5
201
330
7A
100
AcDbEntity
  8
0
100
AcDbBlockBegin
  2
_MODEL_SPACE1
 70
     0
 10
0.0
 20
0.0
 30
0.0
  3
_MODEL_SPACE1
  1

  0
ENDBLK
  5
202
330
7A
100
AcDbEntity
  8
0
100
AcDbBlockEnd
  0
BLOCK
  5
203
330
7B
100
AcDbEntity
  8
0
100
AcDbBlockBegin
  2
_PAPER_SPACE1
 70
     0
 10
0.0
 20
0.0
 30
0.0
  3
_PAPER_SPACE1
  1

  0
ENDBLK
  5
204
330
7B
100
AcDbEntity
  8
0
100
AcDbBlockEnd
  0
BLOCK
  5
205
330
7C
100
AcDbEntity
  8
0
100
AcDbBlockBegin
  2
_SE_BLANK
 70
     0
 10
0.0
 20
0.0
 30
0.0
  3
_SE_BLANK
  1

  0
LINE
  5
206
330
7C
100
AcDbEntity
  8
AM_2
  6
Continuous
 62
   254
100
AcDbLine
 10
0.0
 20
0.0
 30
0.0
 11
-1.0
 21
0.0
 31
0.0
  0
ENDBLK
  5
207
330
7C
100
AcDbEntity
  8
0
100
AcDbBlockEnd
  0
BLOCK
  5
208
330
7D
100
AcDbEntity
  8
0
100
AcDbBlockBegin
  2
_SE_FILLED
 70
     0
 10
0.0
 20
0.0
 30
0.0
  3
_SE_FILLED
  1

  0
LINE
  5
209
330
7D
100
AcDbEntity
  8
AM_2
  6
Continuous
 62
   254
100
AcDbLine
 10
0.0
 20
0.0
 30
0.0
 11
-1.0
 21
-0.1665
 31
0.0
  0
LINE
  5
20A
330
7D
100
AcDbEntity
  8
AM_2
  6
Continuous
 62
   254
100
AcDbLine
 10
-1.0
 20
-0.1665
 30
0.0
 11
0.0
 21
0.0
 31
0.0
  0
LINE
  5
20B
330
7D
100
AcDbEntity
  8
AM_2
  6
Continuous
 62
   254
100
AcDbLine
 10
0.0
 20
0.0
 30
0.0
 11
-1.0
 21
0.1665
 31
0.0
  0
LINE
  5
20C
330
7D
100
AcDbEntity
  8
AM_2
  6
Continuous
 62
   254
100
AcDbLine
 10
-1.0
 20
0.1665
 30
0.0
 11
0.0
 21
0.0
 31
0.0
  0
LINE
  5
20E
330
7D
100
AcDbEntity
  8
AM_2
  6
Continuous
 62
   254
100
AcDbLine
 10
0.0
 20
0.0
 30
0.0
 11
-1.0
 21
0.0
 31
0.0
  0
ENDBLK
  5
20F
330
7D
100
AcDbEntity
  8
0
100
AcDbBlockEnd
  0
BLOCK
  5
210
330
7E
100
AcDbEntity
  8
0
100
AcDbBlockBegin
  2
_S_110
 70
     0
 10
0.0
 20
0.0
 30
0.0
  3
_S_110
  1

  0
LINE
  5
211
330
7E
100
AcDbEntity
  8
15
  6
Continuous
 62
     4
100
AcDbLine
 10
29.37097698463912
 20
19.15417721404488
 30
0.0
 11
30.87097698463912
 21
16.15417721404488
 31
0.0
  0
LINE
  5
212
330
7E
100
AcDbEntity
  8
15
  6
Continuous
 62
     4
100
AcDbLine
 10
30.87097698463912
 20
16.15417721404488
 30
0.0
 11
33.87097698463912
 21
22.15417721404489
 31
0.0
  0
CIRCLE
  5
213
330
7E
100
AcDbEntity
  8
15
  6
Continuous
 62
     4
100
AcDbCircle
 10
30.87097698463912
 20
18.28815181026048
 30
0.0
 40
0.8660254037843976
  0
ENDBLK
  5
214
330
7E
100
AcDbEntity
  8
0
100
AcDbBlockEnd
  0
BLOCK
  5
215
330
7F
100
AcDbEntity
  8
0
100
AcDbBlockBegin
  2
_S_210
 70
     0
 10
0.0
 20
0.0
 30
0.0
  3
_S_210
  1

  0
LINE
  5
216
330
7F
100
AcDbEntity
  8
15
  6
Continuous
 62
     4
100
AcDbLine
 10
48.36887513670271
 20
19.09975055406582
 30
0.0
 11
49.86887513670271
 21
16.09975055406582
 31
0.0
  0
LINE
  5
217
330
7F
100
AcDbEntity
  8
15
  6
Continuous
 62
     4
100
AcDbLine
 10
49.86887513670271
 20
16.09975055406582
 30
0.0
 11
51.3688751367027
 21
19.09975055406582
 31
0.0
  0
LINE
  5
218
330
7F
100
AcDbEntity
  8
15
  6
Continuous
 62
     4
100
AcDbLine
 10
51.3688751367027
 20
19.09975055406582
 30
0.0
 11
48.36887513670271
 21
19.09975055406582
 31
0.0
  0
ENDBLK
  5
219
330
7F
100
AcDbEntity
  8
0
100
AcDbBlockEnd
  0
BLOCK
  5
21A
330
80
100
AcDbEntity
  8
0
100
AcDbBlockBegin
  2
_S_38
 70
     0
 10
0.0
 20
0.0
 30
0.0
  3
_S_38
  1

  0
LINE
  5
21B
330
80
100
AcDbEntity
  8
15
  6
Continuous
 62
     4
100
AcDbLine
 10
62.75655023884156
 20
19.09975055406582
 30
0.0
 11
64.25655023884157
 21
16.09975055406582
 31
0.0
  0
LINE
  5
21C
330
80
100
AcDbEntity
  8
15
  6
Continuous
 62
     4
100
AcDbLine
 10
64.25655023884157
 20
16.09975055406582
 30
0.0
 11
67.25655023884157
 21
22.09975055406582
 31
0.0
  0
TEXT
  5
21D
330
80
100
AcDbEntity
  8
15
  6
Continuous
 62
     4
100
AcDbText
 10
62.70631761309095
 20
19.59975055406582
 30
0.0
 40
2.0
  1
6,3
 11
62.70631761309095
 21
21.59975055406582
 31
0.0
100
AcDbText
 73
     3
  0
ENDBLK
  5
21E
330
80
100
AcDbEntity
  8
0
100
AcDbBlockEnd
  0
BLOCK
  5
21F
330
81
100
AcDbEntity
  8
0
100
AcDbBlockBegin
  2
_S_41
 70
     0
 10
0.0
 20
0.0
 30
0.0
  3
_S_41
  1

  0
LINE
  5
220
330
81
100
AcDbEntity
  8
15
  6
Continuous
 62
     4
100
AcDbLine
 10
115.3040245148253
 20
19.16901056422762
 30
0.0
 11
116.8040245148253
 21
16.16901056422762
 31
0.0
  0
LINE
  5
221
330
81
100
AcDbEntity
  8
15
  6
Continuous
 62
     4
100
AcDbLine
 10
116.8040245148253
 20
16.16901056422762
 30
0.0
 11
118.3040245148253
 21
19.16901056422762
 31
0.0
  0
LINE
  5
222
330
81
100
AcDbEntity
  8
15
  6
Continuous
 62
     4
100
AcDbLine
 10
118.3040245148253
 20
19.16901056422762
 30
0.0
 11
115.3040245148253
 21
19.16901056422762
 31
0.0
  0
LINE
  5
223
330
81
100
AcDbEntity
  8
15
  6
Continuous
 62
     4
100
AcDbLine
 10
115.3040245148253
 20
19.16901056422762
 30
0.0
 11
113.8040245148253
 21
16.16901056422762
 31
0.0
  0
LINE
  5
224
330
81
100
AcDbEntity
  8
15
  6
Continuous
 62
     4
100
AcDbLine
 10
113.8040245148253
 20
16.16901056422762
 30
0.0
 11
112.3040245148253
 21
19.16901056422762
 31
0.0
  0
LINE
  5
225
330
81
100
AcDbEntity
  8
15
  6
Continuous
 62
     4
100
AcDbLine
 10
112.3040245148253
 20
19.16901056422762
 30
0.0
 11
115.3040245148253
 21
19.16901056422762
 31
0.0
  0
LINE
  5
226
330
81
100
AcDbEntity
  8
15
  6
Continuous
 62
     4
100
AcDbLine
 10
112.3040245148253
 20
19.16901056422762
 30
0.0
 11
110.8040245148253
 21
16.16901056422762
 31
0.0
  0
LINE
  5
227
330
81
100
AcDbEntity
  8
15
  6
Continuous
 62
     4
100
AcDbLine
 10
110.8040245148253
 20
16.16901056422762
 30
0.0
 11
109.3040245148253
 21
19.16901056422762
 31
0.0
  0
LINE
  5
228
330
81
100
AcDbEntity
  8
15
  6
Continuous
 62
     4
100
AcDbLine
 10
109.3040245148253
 20
19.16901056422762
 30
0.0
 11
112.3040245148253
 21
19.16901056422762
 31
0.0
  0
ENDBLK
  5
229
330
81
100
AcDbEntity
  8
0
100
AcDbBlockEnd
  0
BLOCK
  5
22A
330
82
100
AcDbEntity
  8
0
100
AcDbBlockBegin
  2
_S_51
 70
     0
 10
0.0
 20
0.0
 30
0.0
  3
_S_51
  1

  0
LINE
  5
22B
330
82
100
AcDbEntity
  8
15
  6
Continuous
 62
     4
100
AcDbLine
 10
123.1668267492567
 20
19.19819541103695
 30
0.0
 11
124.6668267492567
 21
16.19819541103695
 31
0.0
  0
LINE
  5
22C
330
82
100
AcDbEntity
  8
15
  6
Continuous
 62
     4
100
AcDbLine
 10
124.6668267492567
 20
16.19819541103695
 30
0.0
 11
127.6668267492567
 21
22.19819541103695
 31
0.0
  0
TEXT
  5
22D
330
82
100
AcDbEntity
  8
15
  6
Continuous
 62
     4
100
AcDbText
 10
123.025685032597
 20
19.69819541103695
 30
0.0
 40
2.0
  1
0,8
 11
123.025685032597
 21
21.69819541103695
 31
0.0
100
AcDbText
 73
     3
  0
ENDBLK
  5
22E
330
82
100
AcDbEntity
  8
0
100
AcDbBlockEnd
  0
BLOCK
  5
22F
330
83
100
AcDbEntity
  8
0
100
AcDbBlockBegin
  2
_S_61
 70
     0
 10
0.0
 20
0.0
 30
0.0
  3
_S_61
  1

  0
LINE
  5
230
330
83
100
AcDbEntity
  8
15
  6
Continuous
 62
     4
100
AcDbLine
 10
81.81406025671922
 20
19.13960192084521
 30
0.0
 11
83.31406025671922
 21
16.13960192084521
 31
0.0
  0
LINE
  5
231
330
83
100
AcDbEntity
  8
15
  6
Continuous
 62
     4
100
AcDbLine
 10
83.31406025671922
 20
16.13960192084521
 30
0.0
 11
84.81406025671923
 21
19.13960192084521
 31
0.0
  0
LINE
  5
232
330
83
100
AcDbEntity
  8
15
  6
Continuous
 62
     4
100
AcDbLine
 10
84.81406025671923
 20
19.13960192084521
 30
0.0
 11
81.81406025671924
 21
19.13960192084521
 31
0.0
  0
LINE
  5
233
330
83
100
AcDbEntity
  8
15
  6
Continuous
 62
     4
100
AcDbLine
 10
81.81406025671922
 20
19.13960192084521
 30
0.0
 11
80.31406025671921
 21
16.13960192084521
 31
0.0
  0
LINE
  5
234
330
83
100
AcDbEntity
  8
15
  6
Continuous
 62
     4
100
AcDbLine
 10
80.31406025671921
 20
16.13960192084521
 30
0.0
 11
78.81406025671921
 21
19.13960192084521
 31
0.0
  0
LINE
  5
235
330
83
100
AcDbEntity
  8
15
  6
Continuous
 62
     4
100
AcDbLine
 10
78.81406025671921
 20
19.13960192084521
 30
0.0
 11
81.81406025671922
 21
19.13960192084521
 31
0.0
  0
ENDBLK
  5
236
330
83
100
AcDbEntity
  8
0
100
AcDbBlockEnd
  0
BLOCK
  5
237
330
84
100
AcDbEntity
  8
0
100
AcDbBlockBegin
  2
_S_71
 70
     0
 10
0.0
 20
0.0
 30
0.0
  3
_S_71
  1

  0
LINE
  5
238
330
84
100
AcDbEntity
  8
15
  6
Continuous
 62
     4
100
AcDbLine
 10
92.37591191907794
 20
19.13960192084521
 30
0.0
 11
93.87591191907793
 21
16.13960192084521
 31
0.0
  0
LINE
  5
239
330
84
100
AcDbEntity
  8
15
  6
Continuous
 62
     4
100
AcDbLine
 10
93.87591191907793
 20
16.13960192084521
 30
0.0
 11
96.87591191907793
 21
22.13960192084521
 31
0.0
  0
TEXT
  5
23A
330
84
100
AcDbEntity
  8
15
  6
Continuous
 62
     4
100
AcDbText
 10
92.43931565696367
 20
19.6396019208452
 30
0.0
 40
2.0
  1
1,6
 11
92.43931565696367
 21
21.63960192084521
 31
0.0
100
AcDbText
 73
     3
  0
ENDBLK
  5
23B
330
84
100
AcDbEntity
  8
0
100
AcDbBlockEnd
  0
BLOCK
  5
23C
330
85
100
AcDbEntity
  8
0
100
AcDbBlockBegin
  2
DEE
 70
     0
 10
0.0
 20
0.0
 30
0.0
  3
DEE
  1

  0
LINE
  5
23D
330
85
100
AcDbEntity
  8
AM_8
  6
Continuous
 62
     4
100
AcDbLine
 10
-204.7500000000001
 20
96.07499999999994
 30
0.0
 11
-5.25
 21
96.07499999999994
 31
0.0
  0
LINE
  5
23E
330
85
100
AcDbEntity
  8
AM_1
  6
Continuous
 62
     3
100
AcDbLine
 10
-210.0000000000001
 20
297.0
 30
0.0
 11
-210.0000000000001
 21
0.0
 31
0.0
  0
LINE
  5
23F
330
85
100
AcDbEntity
  8
AM_1
  6
Continuous
 62
     3
100
AcDbLine
 10
-210.0000000000001
 20
0.0
 30
0.0
 11
0.0
 21
0.0
 31
0.0
  0
LINE
  5
240
330
85
100
AcDbEntity
  8
AM_1
  6
Continuous
 62
     3
100
AcDbLine
 10
0.0
 20
0.0
 30
0.0
 11
0.0
 21
297.0
 31
0.0
  0
LINE
  5
241
330
85
100
AcDbEntity
  8
AM_1
  6
Continuous
 62
     3
100
AcDbLine
 10
0.0
 20
297.0
 30
0.0
 11
-210.0000000000001
 21
297.0
 31
0.0
  0
LINE
  5
242
330
85
100
AcDbEntity
  8
AM_1
  6
Continuous
 62
     7
100
AcDbLine
 10
-204.7500000000001
 20
291.75
 30
0.0
 11
-204.7500000000001
 21
5.25
 31
0.0
  0
LINE
  5
243
330
85
100
AcDbEntity
  8
AM_1
  6
Continuous
 62
     7
100
AcDbLine
 10
-204.7500000000001
 20
5.25
 30
0.0
 11
-5.25
 21
5.25
 31
0.0
  0
LINE
  5
244
330
85
100
AcDbEntity
  8
AM_1
  6
Continuous
 62
     7
100
AcDbLine
 10
-5.25
 20
5.25
 30
0.0
 11
-5.25
 21
291.75
 31
0.0
  0
LINE
  5
245
330
85
100
AcDbEntity
  8
AM_1
  6
Continuous
 62
     7
100
AcDbLine
 10
-5.25
 20
291.75
 30
0.0
 11
-204.7500000000001
 21
291.75
 31
0.0
  0
LINE
  5
246
330
85
100
AcDbEntity
  8
AM_1
  6
Continuous
 62
     7
100
AcDbLine
 10
-204.7500000000001
 20
5.25
 30
0.0
 11
-5.25
 21
5.25
 31
0.0
  0
LINE
  5
247
330
85
100
AcDbEntity
  8
AM_1
  6
Continuous
 62
     4
100
AcDbLine
 10
-204.7500000000001
 20
5.25
 30
0.0
 11
-5.250000000000113
 21
5.25
 31
0.0
  0
LINE
  5
248
330
85
100
AcDbEntity
  8
AM_1
  6
Continuous
 62
     4
100
AcDbLine
 10
-204.7500000000001
 20
10.5
 30
0.0
 11
-5.250000000000113
 21
10.5
 31
0.0
  0
LINE
  5
249
330
85
100
AcDbEntity
  8
AM_1
  6
Continuous
 62
     4
100
AcDbLine
 10
-204.7500000000001
 20
42.0
 30
0.0
 11
-73.5
 21
42.0
 31
0.0
  0
LINE
  5
24A
330
85
100
AcDbEntity
  8
AM_1
  6
Continuous
 62
     4
100
AcDbLine
 10
-73.5
 20
10.5
 30
0.0
 11
-73.5
 21
73.5
 31
0.0
  0
LINE
  5
24B
330
85
100
AcDbEntity
  8
AM_1
  6
Continuous
 62
     4
100
AcDbLine
 10
-204.7500000000001
 20
57.75
 30
0.0
 11
-5.250000000000113
 21
57.75
 31
0.0
  0
LINE
  5
24C
330
85
100
AcDbEntity
  8
AM_1
  6
Continuous
 62
     4
100
AcDbLine
 10
-204.7500000000001
 20
73.5
 30
0.0
 11
-5.250000000000113
 21
73.5
 31
0.0
  0
LINE
  5
24D
330
85
100
AcDbEntity
  8
AM_1
  6
Continuous
 62
     4
100
AcDbLine
 10
-73.5
 20
65.625
 30
0.0
 11
-5.25
 21
65.625
 31
0.0
  0
LINE
  5
24E
330
85
100
AcDbEntity
  8
AM_1
  6
Continuous
 62
     4
100
AcDbLine
 10
-204.7500000000001
 20
81.37500000000001
 30
0.0
 11
-5.250000000000113
 21
81.37500000000001
 31
0.0
  0
LINE
  5
24F
330
85
100
AcDbEntity
  8
AM_1
  6
Continuous
 62
     4
100
AcDbLine
 10
-204.7500000000001
 20
85.57500000000004
 30
0.0
 11
-5.250000000000113
 21
85.57500000000004
 31
0.0
  0
LINE
  5
250
330
85
100
AcDbEntity
  8
AM_1
  6
Continuous
 62
     4
100
AcDbLine
 10
-204.7500000000001
 20
90.82500000000004
 30
0.0
 11
-5.250000000000113
 21
90.82500000000004
 31
0.0
  0
LINE
  5
251
330
85
100
AcDbEntity
  8
AM_1
  6
Continuous
 62
     4
100
AcDbLine
 10
-204.7500000000001
 20
96.07500000000005
 30
0.0
 11
-5.250000000000113
 21
96.07500000000005
 31
0.0
  0
LINE
  5
252
330
85
100
AcDbEntity
  8
AM_1
  6
Continuous
 62
     4
100
AcDbLine
 10
-189.0
 20
96.07500000000005
 30
0.0
 11
-189.0
 21
85.57500000000004
 31
0.0
  0
LINE
  5
253
330
85
100
AcDbEntity
  8
AM_1
  6
Continuous
 62
     4
100
AcDbLine
 10
-94.50000000000011
 20
81.37500000000001
 30
0.0
 11
-94.50000000000011
 21
73.5
 31
0.0
  0
LINE
  5
254
330
85
100
AcDbEntity
  8
AM_1
  6
Continuous
 62
     4
100
AcDbLine
 10
-189.0
 20
81.37500000000001
 30
0.0
 11
-189.0
 21
73.5
 31
0.0
  0
LINE
  5
255
330
85
100
AcDbEntity
  8
AM_1
  6
Continuous
 62
     4
100
AcDbLine
 10
-42.00000000000011
 20
96.07500000000005
 30
0.0
 11
-42.00000000000011
 21
85.57500000000004
 31
0.0
  0
LINE
  5
256
330
85
100
AcDbEntity
  8
AM_1
  6
Continuous
 62
     4
100
AcDbLine
 10
-24.15000000000009
 20
96.07500000000005
 30
0.0
 11
-24.15000000000009
 21
85.57500000000004
 31
0.0
  0
TEXT
  5
257
330
85
100
AcDbEntity
  8
AM_1
  6
Continuous
 62
     4
100
AcDbText
 10
-199.4319742933185
 20
82.76024184257778
 30
0.0
 40
1.679999947547912
  1
REV.
  7
TSTYLE1
 11
-199.4319742933185
 21
84.4402417901257
 31
0.0
100
AcDbText
 73
     3
  0
TEXT
  5
258
330
85
100
AcDbEntity
  8
AM_1
  6
Continuous
 62
     4
100
AcDbText
 10
-134.6066957308486
 20
82.61631107442998
 30
0.0
 40
1.679999947547912
  1
DESCRIZIONE MODIFICA
  7
TSTYLE1
 11
-134.6066957308486
 21
84.29631102197788
 31
0.0
100
AcDbText
 73
     3
  0
TEXT
  5
259
330
85
100
AcDbEntity
  8
AM_1
  6
Continuous
 62
     4
100
AcDbText
 10
-36.26395982214769
 20
82.61189557600369
 30
0.0
 40
1.679999947547912
  1
DATA
  7
TSTYLE1
 11
-36.26395982214769
 21
84.29189552355159
 31
0.0
100
AcDbText
 73
     3
  0
TEXT
  5
25A
330
85
100
AcDbEntity
  8
AM_1
  6
Continuous
 62
     4
100
AcDbText
 10
-18.24366041781775
 20
82.60640024954387
 30
0.0
 40
1.679999947547912
  1
DISEG.
  7
TSTYLE1
 11
-18.24366041781775
 21
84.28640019709177
 31
0.0
100
AcDbText
 73
     3
  0
TEXT
  5
25B
330
85
100
AcDbEntity
  8
AM_1
  6
Continuous
 62
     4
100
AcDbText
 10
-203.4871604264547
 20
74.96428399588705
 30
0.0
 40
2.519999980926513
  1
POS. .
  7
TSTYLE2
 11
-203.4871604264547
 21
77.48428397681357
 31
0.0
100
AcDbText
 73
     3
  0
TEXT
  5
25C
330
85
100
AcDbEntity
  8
AM_1
  6
Continuous
 62
     4
100
AcDbText
 10
-187.0526847561282
 20
75.6829457201477
 30
0.0
 40
2.940000057220458
  1
MATERIALE: Fe 37 lam.sp.3mm
  7
TSTYLE3
 11
-187.0526847561282
 21
78.62294577736816
 31
0.0
100
AcDbText
 73
     3
  0
TEXT
  5
25D
330
85
100
AcDbEntity
  8
AM_1
  6
Continuous
 62
     4
100
AcDbText
 10
-93.50776758599602
 20
74.74942446798866
 30
0.0
 40
2.519999980926513
  1
TRATTAMENTI: Zincatura
  7
TSTYLE2
 11
-93.50776758599602
 21
77.26942444891517
 31
0.0
100
AcDbText
 73
     3
  0
TEXT
  5
25E
330
85
100
AcDbEntity
  8
AM_1
  6
Continuous
 62
     4
100
AcDbText
 10
-202.1506298697437
 20
68.57288435329564
 30
0.0
 40
2.940000057220458
  1
DENOMINAZIONE:
  7
TSTYLE3
 11
-202.1506298697437
 21
71.51288441051611
 31
0.0
100
AcDbText
 73
     3
  0
TEXT
  5
25F
330
85
100
AcDbEntity
  8
AM_1
  6
Continuous
 62
     4
100
AcDbText
 10
-202.5061122878339
 20
7.649337903466175
 30
0.0
 40
1.259999990463256
  1
SI VIETA L'USO E LA RIRPODUZIONE O LA VISIONE A TERZI DEL PRESENTE DISEGNO SENZA ESPLICITA AUTORIZZAZIONE,
  7
TSTYLE4
 11
-202.5061122878339
 21
8.909337893929432
 31
0.0
100
AcDbText
 73
     3
  0
TEXT
  5
260
330
85
100
AcDbEntity
  8
AM_1
  6
Continuous
 62
     4
100
AcDbText
 10
-69.10392340067128
 20
7.702058026995587
 30
0.0
 40
1.259999990463256
  1
DIERRE
  7
TSTYLE4
 11
-69.10392340067128
 21
8.962058017458844
 31
0.0
100
AcDbText
 73
     3
  0
TEXT
  5
261
330
85
100
AcDbEntity
  8
AM_1
  6
Continuous
 62
     4
100
AcDbText
 10
-62.520915296867
 20
7.7020570256376
 30
0.0
 40
1.259999990463256
  1
 TUTELERA' I PROPRI DIRITTI A NORMA DI LEGGE
  7
TSTYLE4
 11
-62.520915296867
 21
8.962057016100857
 31
0.0
100
AcDbText
 73
     3
  0
TEXT
  5
262
330
85
100
AcDbEntity
  8
AM_1
  6
Continuous
 62
     4
100
AcDbText
 10
-202.82557081823
 20
52.2184542309202
 30
0.0
 40
2.940000057220458
  1
MACCHINA:
  7
TSTYLE3
 11
-202.82557081823
 21
55.15845428814066
 31
0.0
100
AcDbText
 73
     3
  0
LINE
  5
263
330
85
100
AcDbEntity
  8
AM_1
  6
Continuous
 62
     4
100
AcDbLine
 10
-189.0
 20
85.57500000000004
 30
0.0
 11
-189.0
 21
81.37500000000001
 31
0.0
  0
LINE
  5
264
330
85
100
AcDbEntity
  8
AM_1
  6
Continuous
 62
     4
100
AcDbLine
 10
-24.15000000000009
 20
85.57500000000004
 30
0.0
 11
-24.15000000000009
 21
81.37500000000001
 31
0.0
  0
LINE
  5
265
330
85
100
AcDbEntity
  8
AM_1
  6
Continuous
 62
     4
100
AcDbLine
 10
-42.00000000000011
 20
85.57500000000004
 30
0.0
 11
-42.00000000000011
 21
81.37500000000001
 31
0.0
  0
TEXT
  5
266
330
85
100
AcDbEntity
  8
AM_2
  6
Continuous
 62
     4
100
AcDbText
 10
-136.9051870328102
 20
35.05302647073423
 30
0.0
 40
1.732499957084655
  1
CIRCOND. S. GIOVANNI EV. 23
 50
0.5
  7
TSTYLE5
 11
-136.9203057551866
 21
36.78546045952919
 31
0.0
100
AcDbText
 73
     3
  0
TEXT
  5
267
330
85
100
AcDbEntity
  8
AM_2
  6
Continuous
 62
     4
100
AcDbText
 10
-136.881522945731
 20
32.3413905950102
 30
0.0
 40
1.732499957084655
  1
41040 Spezzano (MO)
 50
0.5
  7
TSTYLE5
 11
-136.8966416681074
 21
34.07382458380516
 31
0.0
100
AcDbText
 73
     3
  0
TEXT
  5
268
330
85
100
AcDbEntity
  8
AM_2
  6
Continuous
 62
     4
100
AcDbText
 10
-136.8578588586518
 20
29.62975471928606
 30
0.0
 40
1.732499957084655
  1
Tel.  0536 / 921322
 50
0.5
  7
TSTYLE5
 11
-136.8729775810282
 21
31.36218870808102
 31
0.0
100
AcDbText
 73
     3
  0
TEXT
  5
269
330
85
100
AcDbEntity
  8
AM_2
  6
Continuous
 62
     4
100
AcDbText
 10
-136.8341947715727
 20
26.91811884356203
 30
0.0
 40
1.732499957084655
  1
Fax. 0536 / 921218
 50
0.5
  7
TSTYLE5
 11
-136.8493134939491
 21
28.650552832357
 31
0.0
100
AcDbText
 73
     3
  0
TEXT
  5
26A
330
85
100
AcDbEntity
  8
AM_2
  6
Continuous
 62
     4
100
AcDbText
 10
-136.8105306844937
 20
24.20648296783789
 30
0.0
 40
1.732499957084655
  1
E-mail. tecnico@dierreprotezioni.com
 50
0.5
  7
TSTYLE5
 11
-136.8256494068702
 21
25.93891695663285
 31
0.0
100
AcDbText
 73
     3
  0
LINE
  5
26B
330
85
100
AcDbEntity
  8
AM_1
  6
Continuous
 62
     4
100
AcDbLine
 10
-5.25
 20
18.89999999999998
 30
0.0
 11
-204.7500000000001
 21
18.89999999999998
 31
0.0
  0
LINE
  5
26C
330
85
100
AcDbEntity
  8
AM_1
  6
Continuous
 62
     4
100
AcDbLine
 10
-107.1
 20
10.5
 30
0.0
 11
-107.1
 21
18.89999999999998
 31
0.0
  0
LINE
  5
26D
330
85
100
AcDbEntity
  8
AM_1
  6
Continuous
 62
     4
100
AcDbLine
 10
-172.2000000000001
 20
10.5
 30
0.0
 11
-172.2000000000001
 21
18.89999999999998
 31
0.0
  0
LINE
  5
26E
330
85
100
AcDbEntity
  8
AM_1
  6
Continuous
 62
     4
100
AcDbLine
 10
-139.65
 20
10.5
 30
0.0
 11
-139.65
 21
18.89999999999998
 31
0.0
  0
TEXT
  5
26F
330
85
100
AcDbEntity
  8
AM_1
  6
Continuous
 62
     4
100
AcDbText
 10
-203.9091147660658
 20
59.65836891580488
 30
0.0
 40
3.674999952316284
  1
PIATTO UNIONE PROFILI 30x30 (a 90%%d)
 41
0.9459459459459459
 11
-203.9091147660658
 21
63.33336886812117
 31
0.0
100
AcDbText
 73
     3
  0
TEXT
  5
270
330
85
100
AcDbEntity
  8
AM_1
  6
Continuous
 62
     4
100
AcDbText
 10
-204.0922088867834
 20
46.84049092261523
 30
0.0
 40
3.674999952316284
  1
.
  7
TSTYLE6
 11
-204.0922088867834
 21
50.51549087493151
 31
0.0
100
AcDbText
 73
     3
  0
ARC
  5
271
330
85
100
AcDbEntity
  8
AM_2
  6
Continuous
 62
     4
100
AcDbCircle
 10
-194.9313789270575
 20
31.56844250609243
 30
0.0
 40
8.950512538357997
100
AcDbArc
 50
237.8184274609712
 51
321.1976420062186
  0
ARC
  5
272
330
85
100
AcDbEntity
  8
AM_2
  6
Continuous
 62
     4
100
AcDbCircle
 10
-194.313198774206
 20
30.68900174340945
 30
0.0
 40
7.923273494542144
100
AcDbArc
 50
323.3529774062099
 51
44.65536847520892
  0
LINE
  5
273
330
85
100
AcDbEntity
  8
AM_2
  6
Continuous
 62
     4
100
AcDbLine
 10
-186.7208039057341
 20
38.28264648556763
 30
0.0
 11
-188.6770005217194
 21
36.25780162560841
 31
0.0
  0
ARC
  5
274
330
85
100
AcDbEntity
  8
AM_2
  6
Continuous
 62
     4
100
AcDbCircle
 10
-193.5080924148106
 20
31.40890553215968
 30
0.0
 40
9.659999999999996
100
AcDbArc
 50
230.1466606583756
 51
45.3625857098742
  0
ARC
  5
275
330
85
100
AcDbEntity
  8
AM_2
  6
Continuous
 62
     4
100
AcDbCircle
 10
-193.264428209688
 20
31.60641758490476
 30
0.0
 40
5.904819344660666
100
AcDbArc
 50
227.8543072058527
 51
46.85228652636402
  0
LINE
  5
276
330
85
100
AcDbEntity
  8
AM_2
  6
Continuous
 62
     4
100
AcDbLine
 10
-190.4276726697325
 20
34.61011019218427
 30
0.0
 11
-189.2262309995274
 21
35.91453257697845
 31
0.0
  0
ARC
  5
277
330
85
100
AcDbEntity
  8
AM_2
  6
Continuous
 62
     4
100
AcDbCircle
 10
-194.0686851252324
 20
31.1416738350199
 30
0.0
 40
5.028620334127936
100
AcDbArc
 50
231.0971291909961
 51
43.6094645412201
  0
ARC
  5
278
330
85
100
AcDbEntity
  8
AM_2
  6
Continuous
 62
     4
100
AcDbCircle
 10
-193.5637985759398
 20
31.881209687342
 30
0.0
 40
5.904819344660666
100
AcDbArc
 50
47.85430720585243
 51
226.8522865263638
  0
LINE
  5
279
330
85
100
AcDbEntity
  8
AM_2
  6
Continuous
 62
     4
100
AcDbLine
 10
-196.4005541158953
 20
28.87751708006249
 30
0.0
 11
-197.6019957861004
 21
27.57309469526842
 31
0.0
  0
ARC
  5
27A
330
85
100
AcDbEntity
  8
AM_2
  6
Continuous
 62
     4
100
AcDbCircle
 10
-192.7595416603954
 20
32.34595343722685
 30
0.0
 40
5.028620334127936
100
AcDbArc
 50
51.09712919099617
 51
223.60946454122
  0
LINE
  5
27B
330
85
100
AcDbEntity
  8
AM_2
  6
Continuous
 62
     4
100
AcDbLine
 10
-198.3571876930865
 20
27.05819112232337
 30
0.0
 11
-200.5234721916229
 21
24.76811893815636
 31
0.0
  0
ARC
  5
27C
330
85
100
AcDbEntity
  8
AM_2
  6
Continuous
 62
     4
100
AcDbCircle
 10
-193.5080924148106
 20
31.40890553215968
 30
0.0
 40
9.659999999999996
100
AcDbArc
 50
49.8261009425247
 51
223.4287517252032
  0
ARC
  5
27D
330
85
100
AcDbEntity
  8
AM_2
  6
Continuous
 62
     4
100
AcDbCircle
 10
-192.4893625363506
 20
31.4482895665235
 30
0.0
 40
9.004254928678435
100
AcDbArc
 50
54.62314853321371
 51
125.3768514667855
  0
ARC
  5
27E
330
85
100
AcDbEntity
  8
AM_2
  6
Continuous
 62
     4
100
AcDbCircle
 10
-193.7130811748476
 20
33.17170315031672
 30
0.0
 40
6.890575272957633
100
AcDbArc
 50
125.3768514667862
 51
178.6115147484764
  0
ARC
  5
27F
330
85
100
AcDbEntity
  8
AM_2
  6
Continuous
 62
     4
100
AcDbCircle
 10
-193.6623477537864
 20
32.27726583429728
 30
0.0
 40
7.019990235378756
100
AcDbArc
 50
171.3036725542734
 51
228.0269063594526
  0
TEXT
  5
280
330
85
100
AcDbEntity
  8
AM_2
  6
Continuous
 62
     5
100
AcDbText
 10
-189.1976341400721
 20
20.46461399534905
 30
0.0
 40
1.763999938964843
  1
Protezioni e sistemi Modulari
  7
TSTYLE7
 11
-189.1976341400721
 21
22.2286139343139
 31
0.0
100
AcDbText
 73
     3
  0
ARC
  5
281
330
85
100
AcDbEntity
  8
AM_2
  6
Continuous
 62
     4
100
AcDbCircle
 10
-176.9402555176183
 20
33.86921111099161
 30
0.0
 40
4.199999999999988
100
AcDbArc
 50
0.0
 51
89.99999999999994
  0
LINE
  5
282
330
85
100
AcDbEntity
  8
AM_2
  6
Continuous
 62
     4
100
AcDbLine
 10
-176.9402555176183
 20
38.06921111099155
 30
0.0
 11
-181.9802555176184
 21
38.06921111099155
 31
0.0
  0
LINE
  5
283
330
85
100
AcDbEntity
  8
AM_2
  6
Continuous
 62
     4
100
AcDbLine
 10
-181.9802555176184
 20
38.06921111099155
 30
0.0
 11
-181.9802555176184
 21
27.14921111099159
 31
0.0
  0
LINE
  5
284
330
85
100
AcDbEntity
  8
AM_2
  6
Continuous
 62
     4
100
AcDbLine
 10
-181.9802555176184
 20
27.14921111099159
 30
0.0
 11
-176.9402555176183
 21
27.14921111099159
 31
0.0
  0
ARC
  5
285
330
85
100
AcDbEntity
  8
AM_2
  6
Continuous
 62
     4
100
AcDbCircle
 10
-176.9402555176183
 20
31.34921111099152
 30
0.0
 40
4.199999999999988
100
AcDbArc
 50
269.9999999999998
 51
359.9999999999998
  0
LINE
  5
286
330
85
100
AcDbEntity
  8
AM_2
  6
Continuous
 62
     4
100
AcDbLine
 10
-172.7402555176183
 20
31.34921111099152
 30
0.0
 11
-172.7402555176183
 21
33.8692111109915
 31
0.0
  0
LINE
  5
287
330
85
100
AcDbEntity
  8
AM_2
  6
Continuous
 62
     4
100
AcDbLine
 10
-177.3602555176183
 20
36.17921111099156
 30
0.0
 11
-180.0902555176183
 21
36.17921111099156
 31
0.0
  0
LINE
  5
288
330
85
100
AcDbEntity
  8
AM_2
  6
Continuous
 62
     4
100
AcDbLine
 10
-180.0902555176183
 20
36.17921111099156
 30
0.0
 11
-180.0902555176183
 21
29.03921111099157
 31
0.0
  0
LINE
  5
289
330
85
100
AcDbEntity
  8
AM_2
  6
Continuous
 62
     4
100
AcDbLine
 10
-180.0902555176183
 20
29.03921111099157
 30
0.0
 11
-177.3602555176182
 21
29.03921111099157
 31
0.0
  0
ARC
  5
28A
330
85
100
AcDbEntity
  8
AM_2
  6
Continuous
 62
     4
100
AcDbCircle
 10
-177.3602555176183
 20
31.76921111099159
 30
0.0
 40
2.730000000000003
100
AcDbArc
 50
269.9999999999998
 51
359.9999999999998
  0
LINE
  5
28B
330
85
100
AcDbEntity
  8
AM_2
  6
Continuous
 62
     4
100
AcDbLine
 10
-174.6302555176183
 20
31.76921111099159
 30
0.0
 11
-174.6302555176183
 21
33.44921111099154
 31
0.0
  0
ARC
  5
28C
330
85
100
AcDbEntity
  8
AM_2
  6
Continuous
 62
     4
100
AcDbCircle
 10
-177.3602555176183
 20
33.44921111099154
 30
0.0
 40
2.730000000000003
100
AcDbArc
 50
0.0
 51
89.99999999999994
  0
LINE
  5
28D
330
85
100
AcDbEntity
  8
AM_2
  6
Continuous
 62
     4
100
AcDbLine
 10
-169.5887104698055
 20
35.54921111099157
 30
0.0
 11
-171.4787104698056
 21
35.54921111099157
 31
0.0
  0
LINE
  5
28E
330
85
100
AcDbEntity
  8
AM_2
  6
Continuous
 62
     4
100
AcDbLine
 10
-171.4787104698056
 20
35.54921111099157
 30
0.0
 11
-171.4787104698056
 21
27.14921111099159
 31
0.0
  0
LINE
  5
28F
330
85
100
AcDbEntity
  8
AM_2
  6
Continuous
 62
     4
100
AcDbLine
 10
-171.4787104698056
 20
27.14921111099159
 30
0.0
 11
-169.5887104698055
 21
27.14921111099159
 31
0.0
  0
LINE
  5
290
330
85
100
AcDbEntity
  8
AM_2
  6
Continuous
 62
     4
100
AcDbLine
 10
-169.5887104698055
 20
27.14921111099159
 30
0.0
 11
-169.5887104698055
 21
35.54921111099157
 31
0.0
  0
LINE
  5
291
330
85
100
AcDbEntity
  8
AM_2
  6
Continuous
 62
     4
100
AcDbLine
 10
-166.5653152591371
 20
30.91628257638877
 30
0.0
 11
-159.9287303683059
 21
30.91628257638877
 31
0.0
  0
ARC
  5
292
330
85
100
AcDbEntity
  8
AM_2
  6
Continuous
 62
     4
100
AcDbCircle
 10
-164.1287104698056
 20
31.34921111099152
 30
0.0
 40
4.200000000000017
100
AcDbArc
 50
354.0835439994036
 51
342.3574175336841
  0
LINE
  5
293
330
85
100
AcDbEntity
  8
AM_2
  6
Continuous
 62
     4
100
AcDbLine
 10
-162.0912309088624
 20
30.07628257638885
 30
0.0
 11
-160.1262546054899
 21
30.07628257638885
 31
0.0
  0
ARC
  5
294
330
85
100
AcDbEntity
  8
AM_2
  6
Continuous
 62
     4
100
AcDbCircle
 10
-164.1287104698056
 20
31.55921111099156
 30
0.0
 40
2.52000000000001
100
AcDbArc
 50
194.7813103722751
 51
323.9519363800348
  0
LINE
  5
295
330
85
100
AcDbEntity
  8
AM_2
  6
Continuous
 62
     4
100
AcDbLine
 10
-166.1965897959478
 20
32.5542825763888
 30
0.0
 11
-162.0603934089307
 21
32.5542825763888
 31
0.0
  0
ARC
  5
296
330
85
100
AcDbEntity
  8
AM_2
  6
Continuous
 62
     4
100
AcDbCircle
 10
-164.1284916024392
 20
31.65675003017168
 30
0.0
 40
2.254461090707138
100
AcDbArc
 50
23.46032899248911
 51
156.5396710075119
  0
ARC
  5
297
330
85
100
AcDbEntity
  8
AM_2
  6
Continuous
 62
     4
100
AcDbCircle
 10
-153.9561538570072
 20
29.8999935932161
 30
0.0
 40
3.969217836160197
100
AcDbArc
 50
89.97705113130264
 51
144.7782320142476
  0
LINE
  5
298
330
85
100
AcDbEntity
  8
AM_2
  6
Continuous
 62
     4
100
AcDbLine
 10
-153.9545640530584
 20
33.8692111109915
 30
0.0
 11
-153.9545640530584
 21
35.54921111099157
 31
0.0
  0
LINE
  5
299
330
85
100
AcDbEntity
  8
AM_2
  6
Continuous
 62
     4
100
AcDbLine
 10
-154.739779982542
 20
35.54921111099157
 30
0.0
 11
-153.9545640530584
 21
35.54921111099157
 31
0.0
  0
ARC
  5
29A
330
85
100
AcDbEntity
  8
AM_2
  6
Continuous
 62
     4
100
AcDbCircle
 10
-154.5472488612376
 20
32.6279074118728
 30
0.0
 40
2.927641292090925
100
AcDbArc
 50
93.77067625261942
 51
154.9129671807307
  0
LINE
  5
29B
330
85
100
AcDbEntity
  8
AM_2
  6
Continuous
 62
     4
100
AcDbLine
 10
-145.397315259137
 20
30.91628257638877
 30
0.0
 11
-138.7607303683058
 21
30.91628257638877
 31
0.0
  0
ARC
  5
29C
330
85
100
AcDbEntity
  8
AM_2
  6
Continuous
 62
     4
100
AcDbCircle
 10
-142.9607104698056
 20
31.34921111099152
 30
0.0
 40
4.199999999999988
100
AcDbArc
 50
354.0835439994036
 51
342.3574175336841
  0
LINE
  5
29D
330
85
100
AcDbEntity
  8
AM_2
  6
Continuous
 62
     4
100
AcDbLine
 10
-140.9232309088624
 20
30.07628257638885
 30
0.0
 11
-138.95825460549
 21
30.07628257638885
 31
0.0
  0
ARC
  5
29E
330
85
100
AcDbEntity
  8
AM_2
  6
Continuous
 62
     4
100
AcDbCircle
 10
-142.9607104698056
 20
31.55921111099156
 30
0.0
 40
2.519999999999953
100
AcDbArc
 50
194.7813103722755
 51
323.9519363800356
  0
LINE
  5
29F
330
85
100
AcDbEntity
  8
AM_2
  6
Continuous
 62
     4
100
AcDbLine
 10
-145.0285897959479
 20
32.5542825763888
 30
0.0
 11
-140.8923934089306
 21
32.5542825763888
 31
0.0
  0
ARC
  5
2A0
330
85
100
AcDbEntity
  8
AM_2
  6
Continuous
 62
     4
100
AcDbCircle
 10
-142.9604916024393
 20
31.65675003017168
 30
0.0
 40
2.254461090707167
100
AcDbArc
 50
23.46032899248816
 51
156.5396710075116
  0
LINE
  5
2A1
330
85
100
AcDbEntity
  8
AM_1
  6
Continuous
 62
     4
100
AcDbLine
 10
-73.5
 20
10.5
 30
0.0
 11
-73.5
 21
73.5
 31
0.0
  0
LINE
  5
2A2
330
85
100
AcDbEntity
  8
AM_1
  6
Continuous
 62
     4
100
AcDbLine
 10
-34.64999999999998
 20
57.75
 30
0.0
 11
-34.64999999999998
 21
73.5
 31
0.0
  0
TEXT
  5
2A3
330
85
100
AcDbEntity
  8
AM_1
  6
Continuous
 62
     4
100
AcDbText
 10
-72.95071696829865
 20
67.78350660671367
 30
0.0
 40
2.940000057220458
  1
Data:19-07-06
  7
TSTYLE3
 11
-72.95071696829865
 21
70.72350666393413
 31
0.0
100
AcDbText
 73
     3
  0
TEXT
  5
2A4
330
85
100
AcDbEntity
  8
AM_1
  6
Continuous
 62
     4
100
AcDbText
 10
-33.68501081948295
 20
67.85244810451638
 30
0.0
 40
2.940000057220458
  1
Scala:1:1
  7
TSTYLE3
 11
-33.68501081948295
 21
70.79244816173684
 31
0.0
100
AcDbText
 73
     3
  0
TEXT
  5
2A5
330
85
100
AcDbEntity
  8
AM_1
  6
Continuous
 62
     4
100
AcDbText
 10
-71.95453075003704
 20
59.53088568081034
 30
0.0
 40
2.940000057220458
  1
Diseg: M.A.
  7
TSTYLE3
 11
-71.95453075003704
 21
62.4708857380308
 31
0.0
100
AcDbText
 73
     3
  0
TEXT
  5
2A6
330
85
100
AcDbEntity
  8
AM_1
  6
Continuous
 62
     4
100
AcDbText
 10
-33.5722563028815
 20
59.10904157985817
 30
0.0
 40
2.940000057220458
  1
Q.ta: .
  7
TSTYLE3
 11
-33.5722563028815
 21
62.04904163707863
 31
0.0
100
AcDbText
 73
     3
  0
TEXT
  5
2A7
330
85
100
AcDbEntity
  8
AM_1
  6
Continuous
 62
     4
100
AcDbText
 10
-71.84174418997833
 20
52.44879848101368
 30
0.0
 40
2.940000057220458
  1
Rifer: .
  7
TSTYLE3
 11
-71.84174418997833
 21
55.38879853823414
 31
0.0
100
AcDbText
 73
     3
  0
TEXT
  5
2A8
330
85
100
AcDbEntity
  8
AM_1
  6
Continuous
 62
     4
100
AcDbText
 10
-72.30647321754495
 20
45.69518496007435
 30
0.0
 40
2.940000057220458
  1
Codice N°:
  7
TSTYLE3
 11
-72.30647321754495
 21
48.63518501729481
 31
0.0
100
AcDbText
 73
     3
  0
TEXT
  5
2A9
330
85
100
AcDbEntity
  8
AM_1
  6
Continuous
 62
     4
100
AcDbText
 10
-70.03931518057527
 20
21.27234841653285
 30
0.0
 40
1.3125
  1
Le QUOTE senza tolleranza si intendono h11/H11
  7
TSTYLE8
 11
-70.03931518057527
 21
22.58484841653285
 31
0.0
100
AcDbText
 73
     3
  0
TEXT
  5
2AA
330
85
100
AcDbEntity
  8
AM_1
  6
Continuous
 62
     4
100
AcDbText
 10
-69.6928145019881
 20
15.60203641254645
 30
0.0
 40
1.3125
  1
Negli spigoli smussi 0,5x45°
  7
TSTYLE8
 11
-69.6928145019881
 21
16.91453641254645
 31
0.0
100
AcDbText
 73
     3
  0
TEXT
  5
2AB
330
85
100
AcDbEntity
  8
AM_1
  6
Continuous
 62
     4
100
AcDbText
 10
-69.6928145019881
 20
13.4543091398192
 30
0.0
 40
1.3125
  1
smussi e raggi non quotati =1mm
  7
TSTYLE8
 11
-69.6928145019881
 21
14.7668091398192
 31
0.0
100
AcDbText
 73
     3
  0
LINE
  5
2AC
330
85
100
AcDbEntity
  8
AM_1
  6
Continuous
 62
     4
100
AcDbLine
 10
-24.65837953268982
 20
14.63548641173577
 30
0.0
 11
-8.081203984854823
 21
14.63548641173577
 31
0.0
  0
CIRCLE
  5
2AD
330
85
100
AcDbEntity
  8
AM_1
  6
Continuous
 62
     4
100
AcDbCircle
 10
-11.23120398485486
 20
14.63548641173577
 30
0.0
 40
1.574999999999988
  0
CIRCLE
  5
2AE
330
85
100
AcDbEntity
  8
AM_1
  6
Continuous
 62
     4
100
AcDbCircle
 10
-11.23120398485486
 20
14.63548641173577
 30
0.0
 40
3.150000000000034
  0
LINE
  5
2AF
330
85
100
AcDbEntity
  8
AM_1
  6
Continuous
 62
     4
100
AcDbLine
 10
-17.14608200126423
 20
17.78548641173586
 30
0.0
 11
-17.14608200126423
 21
11.1820720241551
 31
0.0
  0
LINE
  5
2B0
330
85
100
AcDbEntity
  8
AM_1
  6
Continuous
 62
     4
100
AcDbLine
 10
-24.65837953268982
 20
16.21048641173581
 30
0.0
 11
-24.65837953268982
 21
13.06048641173584
 31
0.0
  0
LINE
  5
2B1
330
85
100
AcDbEntity
  8
AM_1
  6
Continuous
 62
     4
100
AcDbLine
 10
-17.14608200126423
 20
17.78548641173586
 30
0.0
 11
-24.65837953268982
 21
16.21048641173581
 31
0.0
  0
LINE
  5
2B2
330
85
100
AcDbEntity
  8
AM_1
  6
Continuous
 62
     4
100
AcDbLine
 10
-24.65837953268982
 20
13.06048641173584
 30
0.0
 11
-17.14608200126423
 21
11.1820720241551
 31
0.0
  0
LINE
  5
2B3
330
85
100
AcDbEntity
  8
AM_1
  6
Continuous
 62
     4
100
AcDbLine
 10
-11.23120398485486
 20
17.78548641173586
 30
0.0
 11
-11.23120398485486
 21
11.48548641173579
 31
0.0
  0
LINE
  5
2B4
330
85
100
AcDbEntity
  8
AM_1
  6
Continuous
 62
     4
100
AcDbLine
 10
-27.79046784976794
 20
18.89999999999998
 30
0.0
 11
-27.79046784976794
 21
10.5
 31
0.0
  0
TEXT
  5
2B5
330
85
100
AcDbEntity
  8
AM_1
  6
Continuous
 62
     4
100
AcDbText
 10
-64.39666760423171
 20
37.13912379534781
 30
0.0
 40
5.880000114440917
  1
27.219.00
  7
TSTYLE9
 11
-64.39666760423171
 21
43.01912390978873
 31
0.0
100
AcDbText
 73
     3
  0
TEXT
  5
2B6
330
85
100
AcDbEntity
  8
AM_1
  6
Continuous
 62
     4
100
AcDbText
 10
-71.87629485659076
 20
30.82900889286861
 30
0.0
 40
1.889999985694885
  1
LE TOLLERANZE SI INTENDONO SU PEZZO
  7
TSTYLE10
 11
-71.87629485659076
 21
32.7190088785635
 31
0.0
100
AcDbText
 73
     3
  0
TEXT
  5
2B7
330
85
100
AcDbEntity
  8
AM_1
  6
Continuous
 62
     4
100
AcDbText
 10
-71.87629485659076
 20
27.73628162014143
 30
0.0
 40
1.889999985694885
  1
FINITO COMPL.DI TRATT. SUPERFICIALI
  7
TSTYLE10
 11
-71.87629485659076
 21
29.62628160583631
 31
0.0
100
AcDbText
 73
     3
  0
LINE
  5
2B8
330
85
100
AcDbEntity
  8
AM_1
  6
Continuous
 62
     4
100
AcDbLine
 10
-73.5
 20
49.875
 30
0.0
 11
-5.25
 21
49.875
 31
0.0
  0
LINE
  5
2B9
330
85
100
AcDbEntity
  8
AM_1
  6
Continuous
 62
     4
100
AcDbLine
 10
-34.64999999999998
 20
57.75
 30
0.0
 11
-34.64999999999998
 21
73.5
 31
0.0
  0
LINE
  5
2BA
330
85
100
AcDbEntity
  8
AM_1
  6
Continuous
 62
     4
100
AcDbLine
 10
-73.5
 20
35.41983873813547
 30
0.0
 11
-5.25
 21
35.41983873813547
 31
0.0
  0
LINE
  5
2BB
330
85
100
AcDbEntity
  8
AM_1
  6
Continuous
 62
     4
100
AcDbLine
 10
-73.5
 20
24.67500000000007
 30
0.0
 11
-5.25
 21
24.67500000000007
 31
0.0
  0
HATCH
  5
2BC
330
85
100
AcDbEntity
  8
AM_2
  6
Continuous
 62
     4
100
AcDbHatch
 10
0.0
 20
0.0
 30
0.0
210
0.0
220
0.0
230
1.0
  2
ANSI31
 70
     0
 71
     0
 91
        1
 92
        1
 93
        6
 72
     1
 10
-162.0912309088624
 20
30.07628257638885
 11
-160.1262546054899
 21
30.07628257638885
 72
     1
 10
-166.5653152591371
 20
30.91628257638877
 11
-159.9510828076117
 21
30.91628257638877
 72
     1
 10
-166.1965897959478
 20
32.5542825763888
 11
-162.0603934089307
 21
32.5542825763888
 72
     2
 10
-164.1287104698056
 20
31.34921111099152
 40
4.200000000000017
 50
354.0835439994036
 51
702.357417533684
 73
     1
 72
     2
 10
-164.1287104698056
 20
31.55921111099156
 40
2.52000000000001
 50
194.7813103722751
 51
323.9519363800365
 73
     1
 72
     2
 10
-164.1284916024392
 20
31.65675003017168
 40
2.254461090707138
 50
23.46032899248911
 51
156.5396710075119
 73
     1
 97
        0
 75
     0
 76
     1
 52
0.0
 41
0.0330708651092109
 77
     0
 78
     1
 53
45.0
 43
0.0
 44
0.0
 45
-0.0742462097065108
 46
0.0742462097065109
 79
     0
 98
        1
 10
0.0
 20
0.0
  0
HATCH
  5
2BD
330
85
100
AcDbEntity
  8
AM_2
  6
Continuous
 62
     4
100
AcDbHatch
 10
0.0
 20
0.0
 30
0.0
210
0.0
220
0.0
230
1.0
  2
ANSI31
 70
     0
 71
     0
 91
        1
 92
        1
 93
        4
 72
     1
 10
-169.5887104698055
 20
27.14921111099159
 11
-169.5887104698055
 21
35.54921111099157
 72
     1
 10
-169.5887104698055
 20
35.54921111099157
 11
-171.4787104698056
 21
35.54921111099157
 72
     1
 10
-171.4787104698056
 20
35.54921111099157
 11
-171.4787104698056
 21
27.14921111099159
 72
     1
 10
-171.4787104698056
 20
27.14921111099159
 11
-169.5887104698055
 21
27.14921111099159
 97
        0
 75
     0
 76
     1
 52
0.0
 41
0.0330708651092109
 77
     0
 78
     1
 53
45.0
 43
0.0
 44
0.0
 45
-0.0742462097065108
 46
0.0742462097065109
 79
     0
 98
        1
 10
0.0
 20
0.0
  0
HATCH
  5
2BE
330
85
100
AcDbEntity
  8
AM_2
  6
Continuous
 62
     4
100
AcDbHatch
 10
0.0
 20
0.0
 30
0.0
210
0.0
220
0.0
230
1.0
  2
ANSI31
 70
     0
 71
     0
 91
        1
 92
        1
 93
       12
 72
     1
 10
-172.7402555176183
 20
31.34921111099152
 11
-172.7402555176183
 21
33.86921111099161
 72
     1
 10
-181.9802555176184
 20
27.14921111099159
 11
-176.9402555176183
 21
27.14921111099159
 72
     1
 10
-181.9802555176184
 20
38.06921111099155
 11
-181.9802555176184
 21
27.14921111099159
 72
     1
 10
-176.9402555176183
 20
38.06921111099155
 11
-181.9802555176184
 21
38.06921111099155
 72
     1
 10
-174.6302555176183
 20
31.76921111099159
 11
-174.6302555176183
 21
33.44921111099154
 72
     1
 10
-180.0902555176183
 20
29.03921111099157
 11
-177.3602555176183
 21
29.03921111099157
 72
     1
 10
-180.0902555176183
 20
36.17921111099156
 11
-180.0902555176183
 21
29.03921111099157
 72
     1
 10
-177.3602555176183
 20
36.17921111099156
 11
-180.0902555176183
 21
36.17921111099156
 72
     2
 10
-176.9402555176183
 20
33.86921111099161
 40
4.199999999999988
 50
0.0
 51
89.99999999999994
 73
     1
 72
     2
 10
-176.9402555176183
 20
31.34921111099152
 40
4.199999999999988
 50
269.9999999999998
 51
360.0
 73
     1
 72
     2
 10
-177.3602555176183
 20
33.44921111099154
 40
2.730000000000003
 50
0.0
 51
89.99999999999994
 73
     1
 72
     2
 10
-177.3602555176183
 20
31.76921111099159
 40
2.730000000000003
 50
269.9999999999998
 51
360.0
 73
     1
 97
        0
 75
     0
 76
     1
 52
0.0
 41
0.0330708651092109
 77
     0
 78
     1
 53
45.0
 43
0.0
 44
0.0
 45
-0.0742462097065108
 46
0.0742462097065109
 79
     0
 98
        1
 10
0.0
 20
0.0
  0
HATCH
  5
2BF
330
85
100
AcDbEntity
  8
AM_2
  6
Continuous
 62
     4
100
AcDbHatch
 10
0.0
 20
0.0
 30
0.0
210
0.0
220
0.0
230
1.0
  2
ANSI31
 70
     0
 71
     0
 91
        1
 92
        1
 93
        6
 72
     1
 10
-140.9232309088624
 20
30.07628257638885
 11
-138.95825460549
 21
30.07628257638885
 72
     1
 10
-145.3973152591371
 20
30.91628257638877
 11
-138.7830828076118
 21
30.91628257638877
 72
     1
 10
-145.0285897959479
 20
32.5542825763888
 11
-140.8923934089307
 21
32.5542825763888
 72
     2
 10
-142.9607104698056
 20
31.34921111099152
 40
4.199999999999988
 50
354.0835439994036
 51
702.357417533684
 73
     1
 72
     2
 10
-142.9607104698056
 20
31.55921111099156
 40
2.519999999999953
 50
194.7813103722755
 51
323.9519363800365
 73
     1
 72
     2
 10
-142.9604916024393
 20
31.65675003017168
 40
2.254461090707167
 50
23.46032899248816
 51
156.5396710075116
 73
     1
 97
        0
 75
     0
 76
     1
 52
0.0
 41
0.0330708651092109
 77
     0
 78
     1
 53
45.0
 43
0.0
 44
0.0
 45
-0.0742462097065108
 46
0.0742462097065109
 79
     0
 98
        1
 10
0.0
 20
0.0
  0
HATCH
  5
2C0
330
85
100
AcDbEntity
  8
AM_2
  6
Continuous
 62
     4
100
AcDbHatch
 10
0.0
 20
0.0
 30
0.0
210
0.0
220
0.0
230
1.0
  2
ANSI31
 70
     0
 71
     0
 91
        1
 92
        1
 93
        4
 72
     1
 10
-186.7208039057341
 20
38.28264648556763
 11
-188.6770005217194
 21
36.25780162560841
 72
     2
 10
-193.5080924148106
 20
31.40890553215968
 40
9.659999999999996
 50
230.1466606583756
 51
405.3625857098742
 73
     1
 72
     2
 10
-194.313198774206
 20
30.68900174340945
 40
7.923273494542144
 50
323.3529774062099
 51
404.6553684752088
 73
     1
 72
     2
 10
-194.9313789270575
 20
31.56844250609243
 40
8.950512538357997
 50
237.8184274609712
 51
321.1976420061425
 73
     1
 97
        0
 75
     0
 76
     1
 52
0.0
 41
0.0330708651092109
 77
     0
 78
     1
 53
45.0
 43
0.0
 44
0.0
 45
-0.0742462097065108
 46
0.0742462097065109
 79
     0
 98
        1
 10
0.0
 20
0.0
  0
HATCH
  5
2C1
330
85
100
AcDbEntity
  8
AM_2
  6
Continuous
 62
     4
100
AcDbHatch
 10
0.0
 20
0.0
 30
0.0
210
0.0
220
0.0
230
1.0
  2
ANSI31
 70
     0
 71
     0
 91
        1
 92
        1
 93
        3
 72
     1
 10
-190.4276726697325
 20
34.61011019218427
 11
-189.2262309995274
 21
35.91453257697833
 72
     2
 10
-193.264428209688
 20
31.60641758490476
 40
5.904819344660666
 50
227.8543072058527
 51
406.852286526364
 73
     1
 72
     2
 10
-194.0686851252324
 20
31.1416738350199
 40
5.028620334127936
 50
231.0971291909961
 51
403.609464541219
 73
     1
 97
        0
 75
     0
 76
     1
 52
0.0
 41
0.0330708651092109
 77
     0
 78
     1
 53
45.0
 43
0.0
 44
0.0
 45
-0.0742462097065108
 46
0.0742462097065109
 79
     0
 98
        1
 10
0.0
 20
0.0
  0
HATCH
  5
2C2
330
85
100
AcDbEntity
  8
AM_2
  6
Continuous
 62
     4
100
AcDbHatch
 10
0.0
 20
0.0
 30
0.0
210
0.0
220
0.0
230
1.0
  2
ANSI31
 70
     0
 71
     0
 91
        1
 92
        1
 93
        5
 72
     1
 10
-198.3571876930865
 20
27.05819112232337
 11
-200.5234721916229
 21
24.76811893815636
 72
     2
 10
-193.5080924148106
 20
31.40890553215968
 40
9.659999999999996
 50
49.8261009425247
 51
223.4287517252032
 73
     1
 72
     2
 10
-193.6623477537864
 20
32.27726583429728
 40
7.019990235378756
 50
171.3036725542734
 51
228.0269063594534
 73
     1
 72
     2
 10
-193.7130811748476
 20
33.17170315031672
 40
6.890575272957633
 50
125.3768514667862
 51
178.6115147484631
 73
     1
 72
     2
 10
-192.4893625363506
 20
31.4482895665235
 40
9.004254928678435
 50
54.62314853321371
 51
125.3768514667839
 73
     1
 97
        0
 75
     0
 76
     1
 52
0.0
 41
0.0330708651092109
 77
     0
 78
     1
 53
45.0
 43
0.0
 44
0.0
 45
-0.0742462097065108
 46
0.0742462097065109
 79
     0
 98
        1
 10
0.0
 20
0.0
  0
HATCH
  5
2C3
330
85
100
AcDbEntity
  8
AM_2
  6
Continuous
 62
     4
100
AcDbHatch
 10
0.0
 20
0.0
 30
0.0
210
0.0
220
0.0
230
1.0
  2
ANSI31
 70
     0
 71
     0
 91
        1
 92
        1
 93
        3
 72
     1
 10
-196.4005541158953
 20
28.87751708006249
 11
-197.6019957861004
 21
27.57309469526842
 72
     2
 10
-193.5637985759398
 20
31.881209687342
 40
5.904819344660666
 50
47.85430720585243
 51
226.8522865263638
 73
     1
 72
     2
 10
-192.7595416603954
 20
32.34595343722685
 40
5.028620334127936
 50
51.09712919099617
 51
223.60946454122
 73
     1
 97
        0
 75
     0
 76
     1
 52
0.0
 41
0.0330708651092109
 77
     0
 78
     1
 53
45.0
 43
0.0
 44
0.0
 45
-0.0742462097065108
 46
0.0742462097065109
 79
     0
 98
        1
 10
0.0
 20
0.0
  0
LINE
  5
2C4
330
85
100
AcDbEntity
  8
AM_2
  6
Continuous
 62
     4
100
AcDbLine
 10
-159.0887104698055
 20
35.54921111099157
 30
0.0
 11
-159.0887104698055
 21
27.14921111099159
 31
0.0
  0
LINE
  5
2C5
330
85
100
AcDbEntity
  8
AM_2
  6
Continuous
 62
     4
100
AcDbLine
 10
-159.0887104698055
 20
35.54921111099157
 30
0.0
 11
-157.1987104698056
 21
35.54921111099157
 31
0.0
  0
LINE
  5
2C6
330
85
100
AcDbEntity
  8
AM_2
  6
Continuous
 62
     4
100
AcDbLine
 10
-159.0887104698055
 20
27.14921111099159
 30
0.0
 11
-157.1987104698056
 21
27.14921111099159
 31
0.0
  0
LINE
  5
2C7
330
85
100
AcDbEntity
  8
AM_2
  6
Continuous
 62
     4
100
AcDbLine
 10
-157.1987104698056
 20
35.54921111099157
 30
0.0
 11
-157.1987104698056
 21
33.8692111109915
 31
0.0
  0
LINE
  5
2C8
330
85
100
AcDbEntity
  8
AM_2
  6
Continuous
 62
     4
100
AcDbLine
 10
-157.1987104698056
 20
32.18921111099155
 30
0.0
 11
-157.1987104698056
 21
27.14921111099159
 31
0.0
  0
HATCH
  5
2C9
330
85
100
AcDbEntity
  8
AM_2
  6
Continuous
 62
     4
100
AcDbHatch
 10
0.0
 20
0.0
 30
0.0
210
0.0
220
0.0
230
1.0
  2
ANSI31
 70
     0
 71
     0
 91
        1
 92
        1
 93
        9
 72
     1
 10
-157.1987104698056
 20
35.54921111099157
 11
-157.1987104698056
 21
33.8692111109915
 72
     1
 10
-159.0887104698055
 20
35.54921111099157
 11
-157.1987104698056
 21
35.54921111099157
 72
     1
 10
-159.0887104698055
 20
35.54921111099157
 11
-159.0887104698055
 21
27.14921111099159
 72
     1
 10
-159.0887104698055
 20
27.14921111099159
 11
-157.1987104698056
 21
27.14921111099159
 72
     1
 10
-157.1987104698056
 20
32.18921111099155
 11
-157.1987104698056
 21
27.14921111099159
 72
     1
 10
-153.9545640530584
 20
33.8692111109915
 11
-153.9545640530584
 21
35.54921111099157
 72
     1
 10
-154.739779982542
 20
35.54921111099157
 11
-153.9545640530584
 21
35.54921111099157
 72
     2
 10
-154.5472488612376
 20
32.6279074118728
 40
2.927641292090925
 50
93.77067625261942
 51
154.9129671807307
 73
     1
 72
     2
 10
-153.9561538570072
 20
29.8999935932161
 40
3.969217836160197
 50
89.97705113130264
 51
144.7782320142483
 73
     1
 97
        0
 75
     0
 76
     1
 52
0.0
 41
0.0330708651092109
 77
     0
 78
     1
 53
45.0
 43
0.0
 44
0.0
 45
-0.0742462097065108
 46
0.0742462097065109
 79
     0
 98
        1
 10
0.0
 20
0.0
  0
ARC
  5
2CA
330
85
100
AcDbEntity
  8
AM_2
  6
Continuous
 62
     4
100
AcDbCircle
 10
-147.5637538570072
 20
29.8999935932161
 30
0.0
 40
3.969217836160197
100
AcDbArc
 50
89.97705113130264
 51
144.7782320142476
  0
LINE
  5
2CB
330
85
100
AcDbEntity
  8
AM_2
  6
Continuous
 62
     4
100
AcDbLine
 10
-147.5621640530584
 20
33.8692111109915
 30
0.0
 11
-147.5621640530584
 21
35.54921111099157
 31
0.0
  0
LINE
  5
2CC
330
85
100
AcDbEntity
  8
AM_2
  6
Continuous
 62
     4
100
AcDbLine
 10
-148.347379982542
 20
35.54921111099157
 30
0.0
 11
-147.5621640530584
 21
35.54921111099157
 31
0.0
  0
ARC
  5
2CD
330
85
100
AcDbEntity
  8
AM_2
  6
Continuous
 62
     4
100
AcDbCircle
 10
-148.1548488612375
 20
32.6279074118728
 30
0.0
 40
2.927641292090925
100
AcDbArc
 50
93.77067625261942
 51
154.9129671807307
  0
LINE
  5
2CE
330
85
100
AcDbEntity
  8
AM_2
  6
Continuous
 62
     4
100
AcDbLine
 10
-152.6963104698055
 20
35.54921111099157
 30
0.0
 11
-152.6963104698055
 21
27.14921111099159
 31
0.0
  0
LINE
  5
2CF
330
85
100
AcDbEntity
  8
AM_2
  6
Continuous
 62
     4
100
AcDbLine
 10
-152.6963104698055
 20
35.54921111099157
 30
0.0
 11
-150.8063104698055
 21
35.54921111099157
 31
0.0
  0
LINE
  5
2D0
330
85
100
AcDbEntity
  8
AM_2
  6
Continuous
 62
     4
100
AcDbLine
 10
-152.6963104698055
 20
27.14921111099159
 30
0.0
 11
-150.8063104698055
 21
27.14921111099159
 31
0.0
  0
LINE
  5
2D1
330
85
100
AcDbEntity
  8
AM_2
  6
Continuous
 62
     4
100
AcDbLine
 10
-150.8063104698055
 20
35.54921111099157
 30
0.0
 11
-150.8063104698055
 21
33.8692111109915
 31
0.0
  0
LINE
  5
2D2
330
85
100
AcDbEntity
  8
AM_2
  6
Continuous
 62
     4
100
AcDbLine
 10
-150.8063104698055
 20
32.18921111099155
 30
0.0
 11
-150.8063104698055
 21
27.14921111099159
 31
0.0
  0
HATCH
  5
2D3
330
85
100
AcDbEntity
  8
AM_2
  6
Continuous
 62
     4
100
AcDbHatch
 10
0.0
 20
0.0
 30
0.0
210
0.0
220
0.0
230
1.0
  2
ANSI31
 70
     0
 71
     0
 91
        1
 92
        1
 93
        9
 72
     1
 10
-150.8063104698055
 20
35.54921111099157
 11
-150.8063104698055
 21
33.8692111109915
 72
     1
 10
-152.6963104698055
 20
35.54921111099157
 11
-150.8063104698055
 21
35.54921111099157
 72
     1
 10
-152.6963104698055
 20
35.54921111099157
 11
-152.6963104698055
 21
27.14921111099159
 72
     1
 10
-152.6963104698055
 20
27.14921111099159
 11
-150.8063104698055
 21
27.14921111099159
 72
     1
 10
-150.8063104698055
 20
32.18921111099155
 11
-150.8063104698055
 21
27.14921111099159
 72
     1
 10
-147.5621640530584
 20
33.8692111109915
 11
-147.5621640530584
 21
35.54921111099157
 72
     1
 10
-148.347379982542
 20
35.54921111099157
 11
-147.5621640530584
 21
35.54921111099157
 72
     2
 10
-148.1548488612375
 20
32.6279074118728
 40
2.927641292090925
 50
93.77067625261942
 51
154.9129671807307
 73
     1
 72
     2
 10
-147.5637538570072
 20
29.8999935932161
 40
3.969217836160197
 50
89.97705113130264
 51
144.7782320142483
 73
     1
 97
        0
 75
     0
 76
     1
 52
0.0
 41
0.0330708651092109
 77
     0
 78
     1
 53
45.0
 43
0.0
 44
0.0
 45
-0.0742462097065108
 46
0.0742462097065109
 79
     0
 98
        1
 10
0.0
 20
0.0
  0
LINE
  5
2D4
330
85
100
AcDbEntity
  8
AM_2
  6
Continuous
 62
     4
100
AcDbLine
 10
-171.4822755162365
 20
36.21701473347753
 30
0.0
 11
-169.5899010960704
 21
36.21701473347753
 31
0.0
  0
LINE
  5
2D5
330
85
100
AcDbEntity
  8
AM_2
  6
Continuous
 62
     4
100
AcDbLine
 10
-169.5899010960704
 20
36.21701473347753
 30
0.0
 11
-169.5899010960704
 21
37.95457119099706
 31
0.0
  0
LINE
  5
2D6
330
85
100
AcDbEntity
  8
AM_2
  6
Continuous
 62
     4
100
AcDbLine
 10
-169.5899010960704
 20
37.95457119099706
 30
0.0
 11
-171.4822755162365
 21
37.95457119099706
 31
0.0
  0
LINE
  5
2D7
330
85
100
AcDbEntity
  8
AM_2
  6
Continuous
 62
     4
100
AcDbLine
 10
-171.4822755162365
 20
37.95457119099706
 30
0.0
 11
-171.4822755162365
 21
36.21701473347753
 31
0.0
  0
LINE
  5
2D8
330
85
100
AcDbEntity
  8
AM_2
  6
Continuous
 62
     4
100
AcDbLine
 10
-171.3772755162365
 20
36.21701473347753
 30
0.0
 11
-171.3772755162365
 21
37.95457119099706
 31
0.0
  0
LINE
  5
2D9
330
85
100
AcDbEntity
  8
AM_2
  6
Continuous
 62
     4
100
AcDbLine
 10
-171.2722755162364
 20
36.21701473347753
 30
0.0
 11
-171.2722755162364
 21
37.95457119099706
 31
0.0
  0
LINE
  5
2DA
330
85
100
AcDbEntity
  8
AM_2
  6
Continuous
 62
     4
100
AcDbLine
 10
-171.1672755162365
 20
36.21701473347753
 30
0.0
 11
-171.1672755162365
 21
37.95457119099706
 31
0.0
  0
LINE
  5
2DB
330
85
100
AcDbEntity
  8
AM_2
  6
Continuous
 62
     4
100
AcDbLine
 10
-171.0622755162365
 20
36.21701473347753
 30
0.0
 11
-171.0622755162365
 21
37.95457119099706
 31
0.0
  0
LINE
  5
2DC
330
85
100
AcDbEntity
  8
AM_2
  6
Continuous
 62
     4
100
AcDbLine
 10
-170.9572755162364
 20
36.21701473347753
 30
0.0
 11
-170.9572755162364
 21
37.95457119099706
 31
0.0
  0
LINE
  5
2DD
330
85
100
AcDbEntity
  8
AM_2
  6
Continuous
 62
     4
100
AcDbLine
 10
-170.8522755162365
 20
36.21701473347753
 30
0.0
 11
-170.8522755162365
 21
37.95457119099706
 31
0.0
  0
LINE
  5
2DE
330
85
100
AcDbEntity
  8
AM_2
  6
Continuous
 62
     4
100
AcDbLine
 10
-170.7472755162365
 20
36.21701473347753
 30
0.0
 11
-170.7472755162365
 21
37.95457119099706
 31
0.0
  0
LINE
  5
2DF
330
85
100
AcDbEntity
  8
AM_2
  6
Continuous
 62
     4
100
AcDbLine
 10
-170.6422755162365
 20
36.21701473347753
 30
0.0
 11
-170.6422755162365
 21
37.95457119099706
 31
0.0
  0
LINE
  5
2E0
330
85
100
AcDbEntity
  8
AM_2
  6
Continuous
 62
     4
100
AcDbLine
 10
-170.5372755162365
 20
36.21701473347753
 30
0.0
 11
-170.5372755162365
 21
37.95457119099706
 31
0.0
  0
LINE
  5
2E1
330
85
100
AcDbEntity
  8
AM_2
  6
Continuous
 62
     4
100
AcDbLine
 10
-170.4322755162365
 20
36.21701473347753
 30
0.0
 11
-170.4322755162365
 21
37.95457119099706
 31
0.0
  0
LINE
  5
2E2
330
85
100
AcDbEntity
  8
AM_2
  6
Continuous
 62
     4
100
AcDbLine
 10
-170.3272755162364
 20
36.21701473347753
 30
0.0
 11
-170.3272755162364
 21
37.95457119099706
 31
0.0
  0
LINE
  5
2E3
330
85
100
AcDbEntity
  8
AM_2
  6
Continuous
 62
     4
100
AcDbLine
 10
-170.2222755162365
 20
36.21701473347753
 30
0.0
 11
-170.2222755162365
 21
37.95457119099706
 31
0.0
  0
LINE
  5
2E4
330
85
100
AcDbEntity
  8
AM_2
  6
Continuous
 62
     4
100
AcDbLine
 10
-170.1172755162365
 20
36.21701473347753
 30
0.0
 11
-170.1172755162365
 21
37.95457119099706
 31
0.0
  0
LINE
  5
2E5
330
85
100
AcDbEntity
  8
AM_2
  6
Continuous
 62
     4
100
AcDbLine
 10
-170.0122755162364
 20
36.21701473347753
 30
0.0
 11
-170.0122755162364
 21
37.95457119099706
 31
0.0
  0
LINE
  5
2E6
330
85
100
AcDbEntity
  8
AM_2
  6
Continuous
 62
     4
100
AcDbLine
 10
-169.9072755162364
 20
36.21701473347753
 30
0.0
 11
-169.9072755162364
 21
37.95457119099706
 31
0.0
  0
LINE
  5
2E7
330
85
100
AcDbEntity
  8
AM_2
  6
Continuous
 62
     4
100
AcDbLine
 10
-169.8022755162364
 20
36.21701473347753
 30
0.0
 11
-169.8022755162364
 21
37.95457119099706
 31
0.0
  0
LINE
  5
2E8
330
85
100
AcDbEntity
  8
AM_2
  6
Continuous
 62
     4
100
AcDbLine
 10
-169.6972755162364
 20
36.21701473347753
 30
0.0
 11
-169.6972755162364
 21
37.95457119099706
 31
0.0
  0
LINE
  5
2E9
330
85
100
AcDbEntity
  8
AM_0
  6
Continuous
 62
     3
100
AcDbLine
 10
-165.1255657879957
 20
14.74363733403277
 30
0.0
 11
-163.2681439129957
 21
11.52342249028277
 31
0.0
  0
LINE
  5
2EA
330
85
100
AcDbEntity
  8
AM_0
  6
Continuous
 62
     3
100
AcDbLine
 10
-165.1255657879957
 20
14.74363733403277
 30
0.0
 11
-161.410722037992
 21
14.74363733403277
 31
0.0
  0
LINE
  5
2EB
330
85
100
AcDbEntity
  8
AM_0
  6
Continuous
 62
     3
100
AcDbLine
 10
-161.4107220379957
 20
14.74363733403277
 30
0.0
 11
-163.2681439129957
 21
11.52342249028277
 31
0.0
  0
LINE
  5
2EC
330
85
100
AcDbEntity
  8
AM_0
  6
Continuous
 62
     3
100
AcDbLine
 10
-149.3531048504957
 20
14.71214319340777
 30
0.0
 11
-147.4956829754957
 21
11.49192834965777
 31
0.0
  0
LINE
  5
2ED
330
85
100
AcDbEntity
  8
AM_0
  6
Continuous
 62
     3
100
AcDbLine
 10
-143.6829926525025
 20
18.10199477450749
 30
0.0
 11
-147.4956829754957
 21
11.49192834965777
 31
0.0
  0
LINE
  5
2EE
330
85
100
AcDbEntity
  8
AM_0
  6
Continuous
 62
     3
100
AcDbLine
 10
-149.3531048504957
 20
14.71214319340777
 30
0.0
 11
-147.4956829754957
 21
11.49192834965777
 31
0.0
  0
LINE
  5
2EF
330
85
100
AcDbEntity
  8
AM_0
  6
Continuous
 62
     3
100
AcDbLine
 10
-145.6382611004957
 20
14.71214319340777
 30
0.0
 11
-147.4956829754957
 21
11.49192834965777
 31
0.0
  0
TEXT
  5
2F0
330
85
100
AcDbEntity
  8
AM_0
  6
Continuous
 62
     3
100
AcDbText
 10
-149.7993939129957
 20
15.67771936528277
 30
0.0
 40
1.799999952316284
  1
6,3
 41
0.8
  7
TSTYLE11
100
AcDbText
  0
LINE
  5
2F1
330
85
100
AcDbEntity
  8
AM_0
  6
Continuous
 62
     3
100
AcDbLine
 10
-111.1329926525032
 20
18.10199477450749
 30
0.0
 11
-114.9456829754964
 21
11.49192834965777
 31
0.0
  0
TEXT
  5
2F2
330
85
100
AcDbEntity
  8
AM_0
  6
Continuous
 62
     3
100
AcDbText
 10
-117.2493939129964
 20
15.67771936528277
 30
0.0
 40
1.799999952316284
  1
1,6
 41
0.8
  7
TSTYLE11
100
AcDbText
  0
LINE
  5
2F3
330
85
100
AcDbEntity
  8
AM_0
  6
Continuous
 62
     3
100
AcDbLine
 10
-116.8031048504964
 20
14.71214319340777
 30
0.0
 11
-114.9456829754964
 21
11.49192834965777
 31
0.0
  0
LINE
  5
2F4
330
85
100
AcDbEntity
  8
AM_0
  6
Continuous
 62
     3
100
AcDbLine
 10
-132.5755657879964
 20
14.74363733403277
 30
0.0
 11
-130.7181439129964
 21
11.52342249028277
 31
0.0
  0
LINE
  5
2F5
330
85
100
AcDbEntity
  8
AM_0
  6
Continuous
 62
     3
100
AcDbLine
 10
-128.8607220379964
 20
14.74363733403277
 30
0.0
 11
-130.7181439129964
 21
11.52342249028277
 31
0.0
  0
LINE
  5
2F6
330
85
100
AcDbEntity
  8
AM_0
  6
Continuous
 62
     3
100
AcDbLine
 10
-132.5755657879964
 20
14.74363733403277
 30
0.0
 11
-128.8607220379928
 21
14.74363733403277
 31
0.0
  0
LINE
  5
2F7
330
85
100
AcDbEntity
  8
AM_0
  6
Continuous
 62
     3
100
AcDbLine
 10
-125.1458782879891
 20
14.74363733403277
 30
0.0
 11
-127.0033001629891
 21
11.52342249028277
 31
0.0
  0
LINE
  5
2F8
330
85
100
AcDbEntity
  8
AM_0
  6
Continuous
 62
     3
100
AcDbLine
 10
-128.8607220379891
 20
14.74363733403277
 30
0.0
 11
-127.0033001629891
 21
11.52342249028277
 31
0.0
  0
LINE
  5
2F9
330
85
100
AcDbEntity
  8
AM_0
  6
Continuous
 62
     3
100
AcDbLine
 10
-125.1458782879891
 20
14.74363733403277
 30
0.0
 11
-128.8607220379928
 21
14.74363733403277
 31
0.0
  0
LINE
  5
2FA
330
85
100
AcDbEntity
  8
AM_0
  6
Continuous
 62
     3
100
AcDbLine
 10
-78.582992652504
 20
18.10199477450749
 30
0.0
 11
-82.39568297549714
 21
11.49192834965777
 31
0.0
  0
TEXT
  5
2FB
330
85
100
AcDbEntity
  8
AM_0
  6
Continuous
 62
     3
100
AcDbText
 10
-84.69939391299716
 20
15.67771936528277
 30
0.0
 40
1.799999952316284
  1
0,8
 41
0.8
  7
TSTYLE11
100
AcDbText
  0
LINE
  5
2FC
330
85
100
AcDbEntity
  8
AM_0
  6
Continuous
 62
     3
100
AcDbLine
 10
-84.25310485049715
 20
14.71214319340777
 30
0.0
 11
-82.39568297549714
 21
11.49192834965777
 31
0.0
  0
LINE
  5
2FD
330
85
100
AcDbEntity
  8
AM_0
  6
Continuous
 62
     3
100
AcDbLine
 10
-100.0255657879971
 20
14.74363733403277
 30
0.0
 11
-98.16814391299715
 21
11.52342249028277
 31
0.0
  0
LINE
  5
2FE
330
85
100
AcDbEntity
  8
AM_0
  6
Continuous
 62
     3
100
AcDbLine
 10
-96.31072203799716
 20
14.74363733403277
 30
0.0
 11
-98.16814391299715
 21
11.52342249028277
 31
0.0
  0
LINE
  5
2FF
330
85
100
AcDbEntity
  8
AM_0
  6
Continuous
 62
     3
100
AcDbLine
 10
-100.0255657879971
 20
14.74363733403277
 30
0.0
 11
-96.31072203799352
 21
14.74363733403277
 31
0.0
  0
LINE
  5
300
330
85
100
AcDbEntity
  8
AM_0
  6
Continuous
 62
     3
100
AcDbLine
 10
-92.59587828798988
 20
14.74363733403277
 30
0.0
 11
-94.45330016298987
 21
11.52342249028277
 31
0.0
  0
LINE
  5
301
330
85
100
AcDbEntity
  8
AM_0
  6
Continuous
 62
     3
100
AcDbLine
 10
-96.31072203798987
 20
14.74363733403277
 30
0.0
 11
-94.45330016298987
 21
11.52342249028277
 31
0.0
  0
LINE
  5
302
330
85
100
AcDbEntity
  8
AM_0
  6
Continuous
 62
     3
100
AcDbLine
 10
-92.59587828798988
 20
14.74363733403277
 30
0.0
 11
-96.31072203799352
 21
14.74363733403277
 31
0.0
  0
LINE
  5
303
330
85
100
AcDbEntity
  8
AM_0
  6
Continuous
 62
     3
100
AcDbLine
 10
-92.59587828798988
 20
14.74363733403277
 30
0.0
 11
-88.88103453798624
 21
14.74363733403277
 31
0.0
  0
LINE
  5
304
330
85
100
AcDbEntity
  8
AM_0
  6
Continuous
 62
     3
100
AcDbLine
 10
-88.88103453798988
 20
14.74363733403277
 30
0.0
 11
-90.73845641298987
 21
11.52342249028277
 31
0.0
  0
LINE
  5
305
330
85
100
AcDbEntity
  8
AM_0
  6
Continuous
 62
     3
100
AcDbLine
 10
-92.59587828798988
 20
14.74363733403277
 30
0.0
 11
-90.73845641298987
 21
11.52342249028277
 31
0.0
  0
TEXT
  5
306
330
85
100
AcDbEntity
  8
AM_0
  6
Continuous
 62
     3
100
AcDbText
 10
-180.4685345379949
 20
15.55271936528277
 30
0.0
 40
1.799999952316284
  1
0
 41
0.8
  7
TSTYLE11
100
AcDbText
  0
LINE
  5
307
330
85
100
AcDbEntity
  8
AM_0
  6
Continuous
 62
     3
100
AcDbLine
 10
-178.1882611004949
 20
14.71214319340777
 30
0.0
 11
-180.0456829754949
 21
11.49192834965777
 31
0.0
  0
LINE
  5
308
330
85
100
AcDbEntity
  8
AM_0
  6
Continuous
 62
     3
100
AcDbLine
 10
-181.9031048504949
 20
14.71214319340777
 30
0.0
 11
-180.0456829754949
 21
11.49192834965777
 31
0.0
  0
LINE
  5
309
330
85
100
AcDbEntity
  8
AM_0
  6
Continuous
 62
     3
100
AcDbLine
 10
-176.2329926525018
 20
18.10199477450749
 30
0.0
 11
-180.0456829754949
 21
11.49192834965777
 31
0.0
  0
ARC
  5
30A
330
85
100
AcDbEntity
  8
AM_0
  6
Continuous
 62
     3
100
AcDbCircle
 10
-197.3858368411385
 20
12.80330343496951
 30
0.0
 40
1.6015625
100
AcDbArc
 50
44.3983178607854
 51
206.9282795558678
  0
ARC
  5
30B
330
85
100
AcDbEntity
  8
AM_0
  6
Continuous
 62
     3
100
AcDbCircle
 10
-193.8345501629957
 20
13.75486780278277
 30
0.0
 40
1.6015625
100
AcDbArc
 50
224.3983178610141
 51
14.99999955309509
  0
LINE
  5
30C
330
85
100
AcDbEntity
  8
AM_0
  6
Continuous
 62
     3
100
AcDbLine
 10
-196.2742831729812
 20
13.95727149228094
 30
0.0
 11
-194.9788557116845
 21
12.63434682901914
 31
0.0
  0
ENDBLK
  5
30D
330
85
100
AcDbEntity
  8
0
100
AcDbBlockEnd
  0
BLOCK
  5
30E
330
86
100
AcDbEntity
  8
0
100
AcDbBlockBegin
  2
*D80
 70
     1
 10
0.0
 20
0.0
 30
0.0
  3
*D80
  1

  0
LINE
  5
30F
330
86
100
AcDbEntity
  8
AM_0
  6
Continuous
 62
     3
100
AcDbLine
 10
-149.4148807525635
 20
234.5967522323781
 30
0.0
 11
-149.4148807525635
 21
277.1518961588542
 31
0.0
  0
LINE
  5
310
330
86
100
AcDbEntity
  8
AM_0
  6
Continuous
 62
     3
100
AcDbLine
 10
-149.4148807525635
 20
275.9852294921875
 30
0.0
 11
-146.4148807525635
 21
276.5252294921875
 31
0.0
  0
LINE
  5
311
330
86
100
AcDbEntity
  8
AM_0
  6
Continuous
 62
     3
100
AcDbLine
 10
-146.4148807525635
 20
276.5252294921875
 30
0.0
 11
-146.4148807525635
 21
275.4452294921875
 31
0.0
  0
LINE
  5
312
330
86
100
AcDbEntity
  8
AM_0
  6
Continuous
 62
     3
100
AcDbLine
 10
-146.4148807525635
 20
275.4452294921875
 30
0.0
 11
-149.4148807525635
 21
275.9852294921875
 31
0.0
  0
LINE
  5
313
330
86
100
AcDbEntity
  8
AM_0
  6
Continuous
 62
     3
100
AcDbLine
 10
-69.41488075256348
 20
275.9852294921875
 30
0.0
 11
-72.41488075256348
 21
275.4452294921875
 31
0.0
  0
LINE
  5
314
330
86
100
AcDbEntity
  8
AM_0
  6
Continuous
 62
     3
100
AcDbLine
 10
-72.41488075256348
 20
275.4452294921875
 30
0.0
 11
-72.41488075256348
 21
276.5252294921875
 31
0.0
  0
LINE
  5
315
330
86
100
AcDbEntity
  8
AM_0
  6
Continuous
 62
     3
100
AcDbLine
 10
-72.41488075256348
 20
276.5252294921875
 30
0.0
 11
-69.41488075256348
 21
275.9852294921875
 31
0.0
  0
LINE
  5
316
330
86
100
AcDbEntity
  8
AM_0
  6
Continuous
 62
     3
100
AcDbLine
 10
-149.4148807525635
 20
275.9852294921875
 30
0.0
 11
-69.41488075256348
 21
275.9852294921875
 31
0.0
  0
TEXT
  5
317
330
86
100
AcDbEntity
  8
AM_0
  6
Continuous
 62
     4
100
AcDbText
 10
-111.5148788452148
 20
277.1518960421875
 30
0.0
 40
3.5
  1
80
 41
0.8
  7
TSTYLE12
 72
     1
 11
-109.4148788452148
 21
278.9018960421875
 31
0.0
100
AcDbText
 73
     2
  0
LINE
  5
318
330
86
100
AcDbEntity
  8
AM_0
  6
Continuous
 62
     3
100
AcDbLine
 10
-69.41488075256348
 20
233.596752219252
 30
0.0
 11
-69.41488075256348
 21
277.1518961588542
 31
0.0
  0
POINT
  5
319
330
86
100
AcDbEntity
  8
DEFPOINTS
 62
     3
100
AcDbPoint
 10
-149.4148807525635
 20
229.596752166748
 30
0.0
  0
POINT
  5
31A
330
86
100
AcDbEntity
  8
DEFPOINTS
 62
     3
100
AcDbPoint
 10
-69.41488075256348
 20
229.596752166748
 30
0.0
  0
POINT
  5
31B
330
86
100
AcDbEntity
  8
DEFPOINTS
 62
     3
100
AcDbPoint
 10
-69.41488075256348
 20
275.9852294921875
 30
0.0
  0
ENDBLK
  5
31C
330
86
100
AcDbEntity
  8
0
100
AcDbBlockEnd
  0
BLOCK
  5
31D
330
87
100
AcDbEntity
  8
0
100
AcDbBlockBegin
  2
*D81
 70
     1
 10
0.0
 20
0.0
 30
0.0
  3
*D81
  1

  0
LINE
  5
31E
330
87
100
AcDbEntity
  8
AM_0
  6
Continuous
 62
     3
100
AcDbLine
 10
-152.414880724654
 20
231.596752166748
 30
0.0
 11
-193.6856428782145
 21
231.596752166748
 31
0.0
  0
LINE
  5
31F
330
87
100
AcDbEntity
  8
AM_0
  6
Continuous
 62
     3
100
AcDbLine
 10
-192.5189762115478
 20
231.596752166748
 30
0.0
 11
-191.9789762115478
 21
228.5967521667481
 31
0.0
  0
LINE
  5
320
330
87
100
AcDbEntity
  8
AM_0
  6
Continuous
 62
     3
100
AcDbLine
 10
-191.9789762115478
 20
228.5967521667481
 30
0.0
 11
-193.0589762115478
 21
228.5967521667481
 31
0.0
  0
LINE
  5
321
330
87
100
AcDbEntity
  8
AM_0
  6
Continuous
 62
     3
100
AcDbLine
 10
-193.0589762115478
 20
228.5967521667481
 30
0.0
 11
-192.5189762115478
 21
231.596752166748
 31
0.0
  0
LINE
  5
322
330
87
100
AcDbEntity
  8
AM_0
  6
Continuous
 62
     3
100
AcDbLine
 10
-192.5189762115478
 20
201.5967521667481
 30
0.0
 11
-193.0589762115478
 21
204.596752166748
 31
0.0
  0
LINE
  5
323
330
87
100
AcDbEntity
  8
AM_0
  6
Continuous
 62
     3
100
AcDbLine
 10
-193.0589762115478
 20
204.596752166748
 30
0.0
 11
-191.9789762115478
 21
204.596752166748
 31
0.0
  0
LINE
  5
324
330
87
100
AcDbEntity
  8
AM_0
  6
Continuous
 62
     3
100
AcDbLine
 10
-191.9789762115478
 20
204.596752166748
 30
0.0
 11
-192.5189762115478
 21
201.5967521667481
 31
0.0
  0
LINE
  5
325
330
87
100
AcDbEntity
  8
AM_0
  6
Continuous
 62
     3
100
AcDbLine
 10
-192.5189762115478
 20
231.596752166748
 30
0.0
 11
-192.5189762115478
 21
201.5967521667481
 31
0.0
  0
TEXT
  5
326
330
87
100
AcDbEntity
  8
AM_0
  6
Continuous
 62
     4
100
AcDbText
 10
-193.6856389468506
 20
214.4967502593992
 30
0.0
 40
3.5
  1
30
 50
90.0
 41
0.8
  7
TSTYLE12
 72
     1
 11
-195.4356389468506
 21
216.5967502593992
 31
0.0
100
AcDbText
 73
     2
  0
LINE
  5
327
330
87
100
AcDbEntity
  8
AM_0
  6
Continuous
 62
     3
100
AcDbLine
 10
-151.4148809318669
 20
201.5967521667481
 30
0.0
 11
-193.6856428782145
 21
201.5967521667481
 31
0.0
  0
POINT
  5
328
330
87
100
AcDbEntity
  8
DEFPOINTS
 62
     3
100
AcDbPoint
 10
-147.4148807525635
 20
231.596752166748
 30
0.0
  0
POINT
  5
329
330
87
100
AcDbEntity
  8
DEFPOINTS
 62
     3
100
AcDbPoint
 10
-147.4148807525635
 20
201.5967521667481
 30
0.0
  0
POINT
  5
32A
330
87
100
AcDbEntity
  8
DEFPOINTS
 62
     3
100
AcDbPoint
 10
-192.5189762115478
 20
201.5967521667481
 30
0.0
  0
ENDBLK
  5
32B
330
87
100
AcDbEntity
  8
0
100
AcDbBlockEnd
  0
BLOCK
  5
32C
330
88
100
AcDbEntity
  8
0
100
AcDbBlockBegin
  2
*D82
 70
     1
 10
0.0
 20
0.0
 30
0.0
  3
*D82
  1

  0
LINE
  5
32D
330
88
100
AcDbEntity
  8
AM_0
  6
Continuous
 62
     3
100
AcDbLine
 10
-154.4148806005738
 20
146.1851940155029
 30
0.0
 11
-193.6856428782145
 21
146.1851940155029
 31
0.0
  0
LINE
  5
32E
330
88
100
AcDbEntity
  8
AM_0
  6
Continuous
 62
     3
100
AcDbLine
 10
-192.5189762115478
 20
146.1851940155029
 30
0.0
 11
-191.9789762115478
 21
143.1851940155029
 31
0.0
  0
LINE
  5
32F
330
88
100
AcDbEntity
  8
AM_0
  6
Continuous
 62
     3
100
AcDbLine
 10
-191.9789762115478
 20
143.1851940155029
 30
0.0
 11
-193.0589762115478
 21
143.1851940155029
 31
0.0
  0
LINE
  5
330
330
88
100
AcDbEntity
  8
AM_0
  6
Continuous
 62
     3
100
AcDbLine
 10
-193.0589762115478
 20
143.1851940155029
 30
0.0
 11
-192.5189762115478
 21
146.1851940155029
 31
0.0
  0
LINE
  5
331
330
88
100
AcDbEntity
  8
AM_0
  6
Continuous
 62
     3
100
AcDbLine
 10
-192.5189762115478
 20
149.1851940155029
 30
0.0
 11
-193.0589762115478
 21
152.1851940155029
 31
0.0
  0
LINE
  5
332
330
88
100
AcDbEntity
  8
AM_0
  6
Continuous
 62
     3
100
AcDbLine
 10
-193.0589762115478
 20
152.1851940155029
 30
0.0
 11
-191.9789762115478
 21
152.1851940155029
 31
0.0
  0
LINE
  5
333
330
88
100
AcDbEntity
  8
AM_0
  6
Continuous
 62
     3
100
AcDbLine
 10
-191.9789762115478
 20
152.1851940155029
 30
0.0
 11
-192.5189762115478
 21
149.1851940155029
 31
0.0
  0
LINE
  5
334
330
88
100
AcDbEntity
  8
AM_0
  6
Continuous
 62
     3
100
AcDbLine
 10
-192.5189762115478
 20
141.6851940155029
 30
0.0
 11
-192.5189762115478
 21
146.1851940155029
 31
0.0
  0
LINE
  5
335
330
88
100
AcDbEntity
  8
AM_0
  6
Continuous
 62
     3
100
AcDbLine
 10
-192.5189762115478
 20
146.1851940155029
 30
0.0
 11
-192.5189762115478
 21
149.1851940155029
 31
0.0
  0
LINE
  5
336
330
88
100
AcDbEntity
  8
AM_0
  6
Continuous
 62
     3
100
AcDbLine
 10
-192.5189762115478
 20
149.1851940155029
 30
0.0
 11
-192.5189762115478
 21
159.9851894378662
 31
0.0
  0
TEXT
  5
337
330
88
100
AcDbEntity
  8
AM_0
  6
Continuous
 62
     4
100
AcDbText
 10
-193.6856408541993
 20
155.9018564860025
 30
0.0
 40
3.5
  1
3
 50
90.0
 41
0.8
  7
TSTYLE12
 72
     1
 11
-195.4356408541993
 21
156.8351898193358
 31
0.0
100
AcDbText
 73
     2
  0
LINE
  5
338
330
88
100
AcDbEntity
  8
AM_0
  6
Continuous
 62
     3
100
AcDbLine
 10
-153.4148804475323
 20
149.1851940155029
 30
0.0
 11
-193.6856428782145
 21
149.1851940155029
 31
0.0
  0
POINT
  5
339
330
88
100
AcDbEntity
  8
DEFPOINTS
 62
     3
100
AcDbPoint
 10
-149.4148807525635
 20
146.1851940155029
 30
0.0
  0
POINT
  5
33A
330
88
100
AcDbEntity
  8
DEFPOINTS
 62
     3
100
AcDbPoint
 10
-149.4148807525635
 20
149.1851940155029
 30
0.0
  0
POINT
  5
33B
330
88
100
AcDbEntity
  8
DEFPOINTS
 62
     3
100
AcDbPoint
 10
-192.5189762115478
 20
149.1851940155029
 30
0.0
  0
ENDBLK
  5
33C
330
88
100
AcDbEntity
  8
0
100
AcDbBlockEnd
  0
BLOCK
  5
33D
330
89
100
AcDbEntity
  8
0
100
AcDbBlockBegin
  2
*D83
 70
     1
 10
0.0
 20
0.0
 30
0.0
  3
*D83
  1

  0
LINE
  5
33E
330
89
100
AcDbEntity
  8
AM_0
  6
Continuous
 62
     3
100
AcDbLine
 10
-152.4148809452901
 20
231.596752166748
 30
0.0
 11
-179.2095514933268
 21
231.596752166748
 31
0.0
  0
LINE
  5
33F
330
89
100
AcDbEntity
  8
AM_0
  6
Continuous
 62
     3
100
AcDbLine
 10
-178.0428848266601
 20
231.596752166748
 30
0.0
 11
-178.5828848266601
 21
234.5967521667481
 31
0.0
  0
LINE
  5
340
330
89
100
AcDbEntity
  8
AM_0
  6
Continuous
 62
     3
100
AcDbLine
 10
-178.5828848266601
 20
234.5967521667481
 30
0.0
 11
-177.5028848266601
 21
234.5967521667481
 31
0.0
  0
LINE
  5
341
330
89
100
AcDbEntity
  8
AM_0
  6
Continuous
 62
     3
100
AcDbLine
 10
-177.5028848266601
 20
234.5967521667481
 30
0.0
 11
-178.0428848266601
 21
231.596752166748
 31
0.0
  0
LINE
  5
342
330
89
100
AcDbEntity
  8
AM_0
  6
Continuous
 62
     3
100
AcDbLine
 10
-178.0428848266601
 20
225.096752166748
 30
0.0
 11
-177.5028848266601
 21
222.0967521667481
 31
0.0
  0
LINE
  5
343
330
89
100
AcDbEntity
  8
AM_0
  6
Continuous
 62
     3
100
AcDbLine
 10
-177.5028848266601
 20
222.0967521667481
 30
0.0
 11
-178.5828848266601
 21
222.0967521667481
 31
0.0
  0
LINE
  5
344
330
89
100
AcDbEntity
  8
AM_0
  6
Continuous
 62
     3
100
AcDbLine
 10
-178.5828848266601
 20
222.0967521667481
 30
0.0
 11
-178.0428848266601
 21
225.096752166748
 31
0.0
  0
LINE
  5
345
330
89
100
AcDbEntity
  8
AM_0
  6
Continuous
 62
     3
100
AcDbLine
 10
-178.0428848266601
 20
248.9300804138184
 30
0.0
 11
-178.0428848266601
 21
231.596752166748
 31
0.0
  0
LINE
  5
346
330
89
100
AcDbEntity
  8
AM_0
  6
Continuous
 62
     3
100
AcDbLine
 10
-178.0428848266601
 20
231.596752166748
 30
0.0
 11
-178.0428848266601
 21
225.096752166748
 31
0.0
  0
LINE
  5
347
330
89
100
AcDbEntity
  8
AM_0
  6
Continuous
 62
     3
100
AcDbLine
 10
-178.0428848266601
 20
225.096752166748
 30
0.0
 11
-178.0428848266601
 21
220.5967521667481
 31
0.0
  0
TEXT
  5
348
330
89
100
AcDbEntity
  8
AM_0
  6
Continuous
 62
     4
100
AcDbText
 10
-179.2095475619629
 20
239.713416290283
 30
0.0
 40
3.5
  1
6.5
 50
90.0
 41
0.8
  7
TSTYLE12
 72
     1
 11
-180.9595475619629
 21
242.513416290283
 31
0.0
100
AcDbText
 73
     2
  0
LINE
  5
349
330
89
100
AcDbEntity
  8
AM_0
  6
Continuous
 62
     3
100
AcDbLine
 10
-140.0555268875797
 20
225.096752166748
 30
0.0
 11
-179.2095514933268
 21
225.096752166748
 31
0.0
  0
POINT
  5
34A
330
89
100
AcDbEntity
  8
DEFPOINTS
 62
     3
100
AcDbPoint
 10
-147.4148807525635
 20
231.596752166748
 30
0.0
  0
POINT
  5
34B
330
89
100
AcDbEntity
  8
DEFPOINTS
 62
     3
100
AcDbPoint
 10
-136.0555267333984
 20
225.096752166748
 30
0.0
  0
POINT
  5
34C
330
89
100
AcDbEntity
  8
DEFPOINTS
 62
     3
100
AcDbPoint
 10
-178.0428848266601
 20
225.096752166748
 30
0.0
  0
ENDBLK
  5
34D
330
89
100
AcDbEntity
  8
0
100
AcDbBlockEnd
  0
BLOCK
  5
34E
330
8A
100
AcDbEntity
  8
0
100
AcDbBlockBegin
  2
*D84
 70
     1
 10
0.0
 20
0.0
 30
0.0
  3
*D84
  1

  0
LINE
  5
34F
330
8A
100
AcDbEntity
  8
AM_0
  6
Continuous
 62
     3
100
AcDbLine
 10
-141.05552645263
 20
225.096752166748
 30
0.0
 11
-179.2095514933268
 21
225.096752166748
 31
0.0
  0
LINE
  5
350
330
8A
100
AcDbEntity
  8
AM_0
  6
Continuous
 62
     3
100
AcDbLine
 10
-178.0428848266601
 20
225.096752166748
 30
0.0
 11
-177.5028848266601
 21
222.0967521667481
 31
0.0
  0
LINE
  5
351
330
8A
100
AcDbEntity
  8
AM_0
  6
Continuous
 62
     3
100
AcDbLine
 10
-177.5028848266601
 20
222.0967521667481
 30
0.0
 11
-178.5828848266601
 21
222.0967521667481
 31
0.0
  0
LINE
  5
352
330
8A
100
AcDbEntity
  8
AM_0
  6
Continuous
 62
     3
100
AcDbLine
 10
-178.5828848266601
 20
222.0967521667481
 30
0.0
 11
-178.0428848266601
 21
225.096752166748
 31
0.0
  0
LINE
  5
353
330
8A
100
AcDbEntity
  8
AM_0
  6
Continuous
 62
     3
100
AcDbLine
 10
-178.0428848266601
 20
208.0967521667481
 30
0.0
 11
-178.5828848266601
 21
211.096752166748
 31
0.0
  0
LINE
  5
354
330
8A
100
AcDbEntity
  8
AM_0
  6
Continuous
 62
     3
100
AcDbLine
 10
-178.5828848266601
 20
211.096752166748
 30
0.0
 11
-177.5028848266601
 21
211.096752166748
 31
0.0
  0
LINE
  5
355
330
8A
100
AcDbEntity
  8
AM_0
  6
Continuous
 62
     3
100
AcDbLine
 10
-177.5028848266601
 20
211.096752166748
 30
0.0
 11
-178.0428848266601
 21
208.0967521667481
 31
0.0
  0
LINE
  5
356
330
8A
100
AcDbEntity
  8
AM_0
  6
Continuous
 62
     3
100
AcDbLine
 10
-178.0428848266601
 20
225.096752166748
 30
0.0
 11
-178.0428848266601
 21
208.0967521667481
 31
0.0
  0
TEXT
  5
357
330
8A
100
AcDbEntity
  8
AM_0
  6
Continuous
 62
     4
100
AcDbText
 10
-179.2095475619629
 20
214.7300855000812
 30
0.0
 40
3.5
  1
17
 50
90.0
 41
0.8
  7
TSTYLE12
 72
     1
 11
-180.9595475619629
 21
216.5967521667479
 31
0.0
100
AcDbText
 73
     2
  0
LINE
  5
358
330
8A
100
AcDbEntity
  8
AM_0
  6
Continuous
 62
     3
100
AcDbLine
 10
-140.0555269013485
 20
208.0967521667481
 30
0.0
 11
-179.2095514933268
 21
208.0967521667481
 31
0.0
  0
POINT
  5
359
330
8A
100
AcDbEntity
  8
DEFPOINTS
 62
     3
100
AcDbPoint
 10
-136.0555267333984
 20
225.096752166748
 30
0.0
  0
POINT
  5
35A
330
8A
100
AcDbEntity
  8
DEFPOINTS
 62
     3
100
AcDbPoint
 10
-136.0555267333984
 20
208.0967521667481
 30
0.0
  0
POINT
  5
35B
330
8A
100
AcDbEntity
  8
DEFPOINTS
 62
     3
100
AcDbPoint
 10
-178.0428848266601
 20
208.0967521667481
 30
0.0
  0
ENDBLK
  5
35C
330
8A
100
AcDbEntity
  8
0
100
AcDbBlockEnd
  0
BLOCK
  5
35D
330
8B
100
AcDbEntity
  8
0
100
AcDbBlockBegin
  2
*D85
 70
     1
 10
0.0
 20
0.0
 30
0.0
  3
*D85
  1

  0
LINE
  5
35E
330
8B
100
AcDbEntity
  8
AM_0
  6
Continuous
 62
     3
100
AcDbLine
 10
-141.0555267854683
 20
208.0967521667481
 30
0.0
 11
-179.2095514933268
 21
208.0967521667481
 31
0.0
  0
LINE
  5
35F
330
8B
100
AcDbEntity
  8
AM_0
  6
Continuous
 62
     3
100
AcDbLine
 10
-178.0428848266601
 20
208.0967521667481
 30
0.0
 11
-178.5828848266601
 21
211.096752166748
 31
0.0
  0
LINE
  5
360
330
8B
100
AcDbEntity
  8
AM_0
  6
Continuous
 62
     3
100
AcDbLine
 10
-178.5828848266601
 20
211.096752166748
 30
0.0
 11
-177.5028848266601
 21
211.096752166748
 31
0.0
  0
LINE
  5
361
330
8B
100
AcDbEntity
  8
AM_0
  6
Continuous
 62
     3
100
AcDbLine
 10
-177.5028848266601
 20
211.096752166748
 30
0.0
 11
-178.0428848266601
 21
208.0967521667481
 31
0.0
  0
LINE
  5
362
330
8B
100
AcDbEntity
  8
AM_0
  6
Continuous
 62
     3
100
AcDbLine
 10
-178.0428848266601
 20
201.5967521667481
 30
0.0
 11
-177.5028848266601
 21
198.596752166748
 31
0.0
  0
LINE
  5
363
330
8B
100
AcDbEntity
  8
AM_0
  6
Continuous
 62
     3
100
AcDbLine
 10
-177.5028848266601
 20
198.596752166748
 30
0.0
 11
-178.5828848266601
 21
198.596752166748
 31
0.0
  0
LINE
  5
364
330
8B
100
AcDbEntity
  8
AM_0
  6
Continuous
 62
     3
100
AcDbLine
 10
-178.5828848266601
 20
198.596752166748
 30
0.0
 11
-178.0428848266601
 21
201.5967521667481
 31
0.0
  0
LINE
  5
365
330
8B
100
AcDbEntity
  8
AM_0
  6
Continuous
 62
     3
100
AcDbLine
 10
-178.0428848266601
 20
212.596752166748
 30
0.0
 11
-178.0428848266601
 21
208.0967521667481
 31
0.0
  0
LINE
  5
366
330
8B
100
AcDbEntity
  8
AM_0
  6
Continuous
 62
     3
100
AcDbLine
 10
-178.0428848266601
 20
208.0967521667481
 30
0.0
 11
-178.0428848266601
 21
201.5967521667481
 31
0.0
  0
LINE
  5
367
330
8B
100
AcDbEntity
  8
AM_0
  6
Continuous
 62
     3
100
AcDbLine
 10
-178.0428848266601
 20
201.5967521667481
 30
0.0
 11
-178.0428848266601
 21
184.2633984883626
 31
0.0
  0
TEXT
  5
368
330
8B
100
AcDbEntity
  8
AM_0
  6
Continuous
 62
     4
100
AcDbText
 10
-179.2095475619629
 20
187.8800753275551
 30
0.0
 40
3.5
  1
6.5
 50
90.0
 41
0.8
  7
TSTYLE12
 72
     1
 11
-180.9595475619629
 21
190.6800753275551
 31
0.0
100
AcDbText
 73
     2
  0
LINE
  5
369
330
8B
100
AcDbEntity
  8
AM_0
  6
Continuous
 62
     3
100
AcDbLine
 10
-151.4148806065213
 20
201.5967521667481
 30
0.0
 11
-179.2095514933268
 21
201.5967521667481
 31
0.0
  0
POINT
  5
36A
330
8B
100
AcDbEntity
  8
DEFPOINTS
 62
     3
100
AcDbPoint
 10
-136.0555267333984
 20
208.0967521667481
 30
0.0
  0
POINT
  5
36B
330
8B
100
AcDbEntity
  8
DEFPOINTS
 62
     3
100
AcDbPoint
 10
-147.4148807525635
 20
201.5967521667481
 30
0.0
  0
POINT
  5
36C
330
8B
100
AcDbEntity
  8
DEFPOINTS
 62
     3
100
AcDbPoint
 10
-178.0428848266601
 20
201.5967521667481
 30
0.0
  0
ENDBLK
  5
36D
330
8B
100
AcDbEntity
  8
0
100
AcDbBlockEnd
  0
BLOCK
  5
36E
330
8C
100
AcDbEntity
  8
0
100
AcDbBlockBegin
  2
*D86
 70
     1
 10
0.0
 20
0.0
 30
0.0
  3
*D86
  1

  0
LINE
  5
36F
330
8C
100
AcDbEntity
  8
AM_0
  6
Continuous
 62
     3
100
AcDbLine
 10
-66.41488061076415
 20
231.596752166748
 30
0.0
 11
-32.31217892964681
 21
231.596752166748
 31
0.0
  0
LINE
  5
370
330
8C
100
AcDbEntity
  8
AM_0
  6
Continuous
 62
     3
100
AcDbLine
 10
-33.47884559631348
 20
231.596752166748
 30
0.0
 11
-34.01884559631348
 21
234.5967521667481
 31
0.0
  0
LINE
  5
371
330
8C
100
AcDbEntity
  8
AM_0
  6
Continuous
 62
     3
100
AcDbLine
 10
-34.01884559631348
 20
234.5967521667481
 30
0.0
 11
-32.93884559631348
 21
234.5967521667481
 31
0.0
  0
LINE
  5
372
330
8C
100
AcDbEntity
  8
AM_0
  6
Continuous
 62
     3
100
AcDbLine
 10
-32.93884559631348
 20
234.5967521667481
 30
0.0
 11
-33.47884559631348
 21
231.596752166748
 31
0.0
  0
LINE
  5
373
330
8C
100
AcDbEntity
  8
AM_0
  6
Continuous
 62
     3
100
AcDbLine
 10
-33.47884559631348
 20
213.096752166748
 30
0.0
 11
-32.93884559631348
 21
210.0967521667481
 31
0.0
  0
LINE
  5
374
330
8C
100
AcDbEntity
  8
AM_0
  6
Continuous
 62
     3
100
AcDbLine
 10
-32.93884559631348
 20
210.0967521667481
 30
0.0
 11
-34.01884559631348
 21
210.0967521667481
 31
0.0
  0
LINE
  5
375
330
8C
100
AcDbEntity
  8
AM_0
  6
Continuous
 62
     3
100
AcDbLine
 10
-34.01884559631348
 20
210.0967521667481
 30
0.0
 11
-33.47884559631348
 21
213.096752166748
 31
0.0
  0
LINE
  5
376
330
8C
100
AcDbEntity
  8
AM_0
  6
Continuous
 62
     3
100
AcDbLine
 10
-33.47884559631348
 20
251.8467521667481
 30
0.0
 11
-33.47884559631348
 21
231.596752166748
 31
0.0
  0
LINE
  5
377
330
8C
100
AcDbEntity
  8
AM_0
  6
Continuous
 62
     3
100
AcDbLine
 10
-33.47884559631348
 20
231.596752166748
 30
0.0
 11
-33.47884559631348
 21
213.096752166748
 31
0.0
  0
LINE
  5
378
330
8C
100
AcDbEntity
  8
AM_0
  6
Continuous
 62
     3
100
AcDbLine
 10
-33.47884559631348
 20
213.096752166748
 30
0.0
 11
-33.47884559631348
 21
208.596752166748
 31
0.0
  0
TEXT
  5
379
330
8C
100
AcDbEntity
  8
AM_0
  6
Continuous
 62
     4
100
AcDbText
 10
-34.64550833161617
 20
240.2384197870889
 30
0.0
 40
3.5
  1
18.5
 50
90.0
 41
0.8
  7
TSTYLE12
 72
     1
 11
-36.39550833161616
 21
243.9717531204222
 31
0.0
100
AcDbText
 73
     2
  0
LINE
  5
37A
330
8C
100
AcDbEntity
  8
AM_0
  6
Continuous
 62
     3
100
AcDbLine
 10
-67.41488063912402
 20
213.096752166748
 30
0.0
 11
-32.31217892964681
 21
213.096752166748
 31
0.0
  0
POINT
  5
37B
330
8C
100
AcDbEntity
  8
DEFPOINTS
 62
     3
100
AcDbPoint
 10
-71.41488075256347
 20
231.596752166748
 30
0.0
  0
POINT
  5
37C
330
8C
100
AcDbEntity
  8
DEFPOINTS
 62
     3
100
AcDbPoint
 10
-71.41488075256347
 20
213.096752166748
 30
0.0
  0
POINT
  5
37D
330
8C
100
AcDbEntity
  8
DEFPOINTS
 62
     3
100
AcDbPoint
 10
-33.47884559631348
 20
213.096752166748
 30
0.0
  0
ENDBLK
  5
37E
330
8C
100
AcDbEntity
  8
0
100
AcDbBlockEnd
  0
BLOCK
  5
37F
330
8D
100
AcDbEntity
  8
0
100
AcDbBlockBegin
  2
*D87
 70
     1
 10
0.0
 20
0.0
 30
0.0
  3
*D87
  1

  0
LINE
  5
380
330
8D
100
AcDbEntity
  8
AM_0
  6
Continuous
 62
     3
100
AcDbLine
 10
-66.41488059735564
 20
213.096752166748
 30
0.0
 11
-32.31217702229816
 21
213.096752166748
 31
0.0
  0
LINE
  5
381
330
8D
100
AcDbEntity
  8
AM_0
  6
Continuous
 62
     3
100
AcDbLine
 10
-33.47884368896483
 20
213.096752166748
 30
0.0
 11
-34.01884368896483
 21
216.0967521667481
 31
0.0
  0
LINE
  5
382
330
8D
100
AcDbEntity
  8
AM_0
  6
Continuous
 62
     3
100
AcDbLine
 10
-34.01884368896483
 20
216.0967521667481
 30
0.0
 11
-32.93884368896483
 21
216.0967521667481
 31
0.0
  0
LINE
  5
383
330
8D
100
AcDbEntity
  8
AM_0
  6
Continuous
 62
     3
100
AcDbLine
 10
-32.93884368896483
 20
216.0967521667481
 30
0.0
 11
-33.47884368896483
 21
213.096752166748
 31
0.0
  0
LINE
  5
384
330
8D
100
AcDbEntity
  8
AM_0
  6
Continuous
 62
     3
100
AcDbLine
 10
-33.47884368896483
 20
201.5967521667481
 30
0.0
 11
-32.93884368896483
 21
198.596752166748
 31
0.0
  0
LINE
  5
385
330
8D
100
AcDbEntity
  8
AM_0
  6
Continuous
 62
     3
100
AcDbLine
 10
-32.93884368896483
 20
198.596752166748
 30
0.0
 11
-34.01884368896483
 21
198.596752166748
 31
0.0
  0
LINE
  5
386
330
8D
100
AcDbEntity
  8
AM_0
  6
Continuous
 62
     3
100
AcDbLine
 10
-34.01884368896483
 20
198.596752166748
 30
0.0
 11
-33.47884368896483
 21
201.5967521667481
 31
0.0
  0
LINE
  5
387
330
8D
100
AcDbEntity
  8
AM_0
  6
Continuous
 62
     3
100
AcDbLine
 10
-33.47884368896483
 20
217.596752166748
 30
0.0
 11
-33.47884368896483
 21
213.096752166748
 31
0.0
  0
LINE
  5
388
330
8D
100
AcDbEntity
  8
AM_0
  6
Continuous
 62
     3
100
AcDbLine
 10
-33.47884368896483
 20
213.096752166748
 30
0.0
 11
-33.47884368896483
 21
201.5967521667481
 31
0.0
  0
LINE
  5
389
330
8D
100
AcDbEntity
  8
AM_0
  6
Continuous
 62
     3
100
AcDbLine
 10
-33.47884368896483
 20
201.5967521667481
 30
0.0
 11
-33.47884368896483
 21
181.346752166748
 31
0.0
  0
TEXT
  5
38A
330
8D
100
AcDbEntity
  8
AM_0
  6
Continuous
 62
     4
100
AcDbText
 10
-34.64550642426757
 20
185.9550855000812
 30
0.0
 40
3.5
  1
11.5
 50
90.0
 41
0.8
  7
TSTYLE12
 72
     1
 11
-36.39550642426757
 21
189.2217521667479
 31
0.0
100
AcDbText
 73
     2
  0
LINE
  5
38B
330
8D
100
AcDbEntity
  8
AM_0
  6
Continuous
 62
     3
100
AcDbLine
 10
-67.41488062839721
 20
201.5967521667481
 30
0.0
 11
-32.31217702229816
 21
201.5967521667481
 31
0.0
  0
POINT
  5
38C
330
8D
100
AcDbEntity
  8
DEFPOINTS
 62
     3
100
AcDbPoint
 10
-71.41488075256347
 20
213.096752166748
 30
0.0
  0
POINT
  5
38D
330
8D
100
AcDbEntity
  8
DEFPOINTS
 62
     3
100
AcDbPoint
 10
-71.41488075256347
 20
201.5967521667481
 30
0.0
  0
POINT
  5
38E
330
8D
100
AcDbEntity
  8
DEFPOINTS
 62
     3
100
AcDbPoint
 10
-33.47884368896483
 20
201.5967521667481
 30
0.0
  0
ENDBLK
  5
38F
330
8D
100
AcDbEntity
  8
0
100
AcDbBlockEnd
  0
BLOCK
  5
390
330
8E
100
AcDbEntity
  8
0
100
AcDbBlockBegin
  2
*D88
 70
     1
 10
0.0
 20
0.0
 30
0.0
  3
*D88
  1

  0
LINE
  5
391
330
8E
100
AcDbEntity
  8
AM_0
  6
Continuous
 62
     3
100
AcDbLine
 10
-79.41488075256348
 20
224.9363173831082
 30
0.0
 11
-79.41488075256348
 21
261.2718645731608
 31
0.0
  0
LINE
  5
392
330
8E
100
AcDbEntity
  8
AM_0
  6
Continuous
 62
     3
100
AcDbLine
 10
-79.41488075256348
 20
260.1051979064942
 30
0.0
 11
-82.41488075256347
 21
259.5651979064941
 31
0.0
  0
LINE
  5
393
330
8E
100
AcDbEntity
  8
AM_0
  6
Continuous
 62
     3
100
AcDbLine
 10
-82.41488075256347
 20
259.5651979064941
 30
0.0
 11
-82.41488075256347
 21
260.6451979064942
 31
0.0
  0
LINE
  5
394
330
8E
100
AcDbEntity
  8
AM_0
  6
Continuous
 62
     3
100
AcDbLine
 10
-82.41488075256347
 20
260.6451979064942
 30
0.0
 11
-79.41488075256348
 21
260.1051979064942
 31
0.0
  0
LINE
  5
395
330
8E
100
AcDbEntity
  8
AM_0
  6
Continuous
 62
     3
100
AcDbLine
 10
-69.41488075256348
 20
260.1051979064942
 30
0.0
 11
-66.41488075256347
 21
260.6451979064942
 31
0.0
  0
LINE
  5
396
330
8E
100
AcDbEntity
  8
AM_0
  6
Continuous
 62
     3
100
AcDbLine
 10
-66.41488075256347
 20
260.6451979064942
 30
0.0
 11
-66.41488075256347
 21
259.5651979064941
 31
0.0
  0
LINE
  5
397
330
8E
100
AcDbEntity
  8
AM_0
  6
Continuous
 62
     3
100
AcDbLine
 10
-66.41488075256347
 20
259.5651979064941
 30
0.0
 11
-69.41488075256348
 21
260.1051979064942
 31
0.0
  0
LINE
  5
398
330
8E
100
AcDbEntity
  8
AM_0
  6
Continuous
 62
     3
100
AcDbLine
 10
-83.91488075256347
 20
260.1051979064942
 30
0.0
 11
-79.41488075256348
 21
260.1051979064942
 31
0.0
  0
LINE
  5
399
330
8E
100
AcDbEntity
  8
AM_0
  6
Continuous
 62
     3
100
AcDbLine
 10
-79.41488075256348
 20
260.1051979064942
 30
0.0
 11
-69.41488075256348
 21
260.1051979064942
 31
0.0
  0
LINE
  5
39A
330
8E
100
AcDbEntity
  8
AM_0
  6
Continuous
 62
     3
100
AcDbLine
 10
-69.41488075256348
 20
260.1051979064942
 30
0.0
 11
-55.11487770080567
 21
260.1051979064942
 31
0.0
  0
TEXT
  5
39B
330
8E
100
AcDbEntity
  8
AM_0
  6
Continuous
 62
     4
100
AcDbText
 10
-61.64821065266927
 20
261.2718682711914
 30
0.0
 40
3.5
  1
10
 41
0.8
  7
TSTYLE12
 72
     1
 11
-60.01487731933593
 21
263.0218682711914
 31
0.0
100
AcDbText
 73
     2
  0
LINE
  5
39C
330
8E
100
AcDbEntity
  8
AM_0
  6
Continuous
 62
     3
100
AcDbLine
 10
-69.41488075256348
 20
233.5967521181565
 30
0.0
 11
-69.41488075256348
 21
261.2718645731608
 31
0.0
  0
POINT
  5
39D
330
8E
100
AcDbEntity
  8
DEFPOINTS
 62
     3
100
AcDbPoint
 10
-79.41488075256348
 20
219.9363174438476
 30
0.0
  0
POINT
  5
39E
330
8E
100
AcDbEntity
  8
DEFPOINTS
 62
     3
100
AcDbPoint
 10
-69.41488075256348
 20
229.596752166748
 30
0.0
  0
POINT
  5
39F
330
8E
100
AcDbEntity
  8
DEFPOINTS
 62
     3
100
AcDbPoint
 10
-69.41488075256348
 20
260.1051979064942
 30
0.0
  0
ENDBLK
  5
3A0
330
8E
100
AcDbEntity
  8
0
100
AcDbBlockEnd
  0
BLOCK
  5
3A1
330
8F
100
AcDbEntity
  8
0
100
AcDbBlockBegin
  2
*D89
 70
     1
 10
0.0
 20
0.0
 30
0.0
  3
*D89
  1

  0
LINE
  5
3A2
330
8F
100
AcDbEntity
  8
AM_0
  6
Continuous
 62
     3
100
AcDbLine
 10
-99.41488075256348
 20
224.9363175530292
 30
0.0
 11
-99.41488075256348
 21
261.2718645731608
 31
0.0
  0
LINE
  5
3A3
330
8F
100
AcDbEntity
  8
AM_0
  6
Continuous
 62
     3
100
AcDbLine
 10
-99.41488075256348
 20
260.1051979064942
 30
0.0
 11
-96.41488075256347
 21
260.6451979064942
 31
0.0
  0
LINE
  5
3A4
330
8F
100
AcDbEntity
  8
AM_0
  6
Continuous
 62
     3
100
AcDbLine
 10
-96.41488075256347
 20
260.6451979064942
 30
0.0
 11
-96.41488075256347
 21
259.5651979064941
 31
0.0
  0
LINE
  5
3A5
330
8F
100
AcDbEntity
  8
AM_0
  6
Continuous
 62
     3
100
AcDbLine
 10
-96.41488075256347
 20
259.5651979064941
 30
0.0
 11
-99.41488075256348
 21
260.1051979064942
 31
0.0
  0
LINE
  5
3A6
330
8F
100
AcDbEntity
  8
AM_0
  6
Continuous
 62
     3
100
AcDbLine
 10
-79.41488075256348
 20
260.1051979064942
 30
0.0
 11
-82.41488075256347
 21
259.5651979064941
 31
0.0
  0
LINE
  5
3A7
330
8F
100
AcDbEntity
  8
AM_0
  6
Continuous
 62
     3
100
AcDbLine
 10
-82.41488075256347
 20
259.5651979064941
 30
0.0
 11
-82.41488075256347
 21
260.6451979064942
 31
0.0
  0
LINE
  5
3A8
330
8F
100
AcDbEntity
  8
AM_0
  6
Continuous
 62
     3
100
AcDbLine
 10
-82.41488075256347
 20
260.6451979064942
 30
0.0
 11
-79.41488075256348
 21
260.1051979064942
 31
0.0
  0
LINE
  5
3A9
330
8F
100
AcDbEntity
  8
AM_0
  6
Continuous
 62
     3
100
AcDbLine
 10
-99.41488075256348
 20
260.1051979064942
 30
0.0
 11
-79.41488075256348
 21
260.1051979064942
 31
0.0
  0
TEXT
  5
3AA
330
8F
100
AcDbEntity
  8
AM_0
  6
Continuous
 62
     4
100
AcDbText
 10
-91.51487884521484
 20
261.2718682711914
 30
0.0
 40
3.5
  1
20
 41
0.8
  7
TSTYLE12
 72
     1
 11
-89.41487884521484
 21
263.0218682711914
 31
0.0
100
AcDbText
 73
     2
  0
LINE
  5
3AB
330
8F
100
AcDbEntity
  8
AM_0
  6
Continuous
 62
     3
100
AcDbLine
 10
-79.41488075256348
 20
223.9363176118593
 30
0.0
 11
-79.41488075256348
 21
261.2718645731608
 31
0.0
  0
POINT
  5
3AC
330
8F
100
AcDbEntity
  8
DEFPOINTS
 62
     3
100
AcDbPoint
 10
-99.41488075256348
 20
219.9363174438476
 30
0.0
  0
POINT
  5
3AD
330
8F
100
AcDbEntity
  8
DEFPOINTS
 62
     3
100
AcDbPoint
 10
-79.41488075256348
 20
219.9363174438476
 30
0.0
  0
POINT
  5
3AE
330
8F
100
AcDbEntity
  8
DEFPOINTS
 62
     3
100
AcDbPoint
 10
-79.41488075256348
 20
260.1051979064942
 30
0.0
  0
ENDBLK
  5
3AF
330
8F
100
AcDbEntity
  8
0
100
AcDbBlockEnd
  0
BLOCK
  5
3B0
330
90
100
AcDbEntity
  8
0
100
AcDbBlockBegin
  2
*D90
 70
     1
 10
0.0
 20
0.0
 30
0.0
  3
*D90
  1

  0
LINE
  5
3B1
330
90
100
AcDbEntity
  8
AM_0
  6
Continuous
 62
     3
100
AcDbLine
 10
-149.4148807525635
 20
234.5967519161574
 30
0.0
 11
-149.4148807525635
 21
261.2718645731608
 31
0.0
  0
LINE
  5
3B2
330
90
100
AcDbEntity
  8
AM_0
  6
Continuous
 62
     3
100
AcDbLine
 10
-149.4148807525635
 20
260.1051979064942
 30
0.0
 11
-146.4148807525635
 21
260.6451979064942
 31
0.0
  0
LINE
  5
3B3
330
90
100
AcDbEntity
  8
AM_0
  6
Continuous
 62
     3
100
AcDbLine
 10
-146.4148807525635
 20
260.6451979064942
 30
0.0
 11
-146.4148807525635
 21
259.5651979064941
 31
0.0
  0
LINE
  5
3B4
330
90
100
AcDbEntity
  8
AM_0
  6
Continuous
 62
     3
100
AcDbLine
 10
-146.4148807525635
 20
259.5651979064941
 30
0.0
 11
-149.4148807525635
 21
260.1051979064942
 31
0.0
  0
LINE
  5
3B5
330
90
100
AcDbEntity
  8
AM_0
  6
Continuous
 62
     3
100
AcDbLine
 10
-130.9148807525635
 20
260.1051979064942
 30
0.0
 11
-133.9148807525635
 21
259.5651979064941
 31
0.0
  0
LINE
  5
3B6
330
90
100
AcDbEntity
  8
AM_0
  6
Continuous
 62
     3
100
AcDbLine
 10
-133.9148807525635
 20
259.5651979064941
 30
0.0
 11
-133.9148807525635
 21
260.6451979064942
 31
0.0
  0
LINE
  5
3B7
330
90
100
AcDbEntity
  8
AM_0
  6
Continuous
 62
     3
100
AcDbLine
 10
-133.9148807525635
 20
260.6451979064942
 30
0.0
 11
-130.9148807525635
 21
260.1051979064942
 31
0.0
  0
LINE
  5
3B8
330
90
100
AcDbEntity
  8
AM_0
  6
Continuous
 62
     3
100
AcDbLine
 10
-149.4148807525635
 20
260.1051979064942
 30
0.0
 11
-130.9148807525635
 21
260.1051979064942
 31
0.0
  0
TEXT
  5
3B9
330
90
100
AcDbEntity
  8
AM_0
  6
Continuous
 62
     4
100
AcDbText
 10
-143.8982083638509
 20
261.2718682711914
 30
0.0
 40
3.5
  1
18.5
 41
0.8
  7
TSTYLE12
 72
     1
 11
-140.1648750305175
 21
263.0218682711914
 31
0.0
100
AcDbText
 73
     2
  0
LINE
  5
3BA
330
90
100
AcDbEntity
  8
AM_0
  6
Continuous
 62
     3
100
AcDbLine
 10
-130.9148807525635
 20
233.59675214812
 30
0.0
 11
-130.9148807525635
 21
261.2718645731608
 31
0.0
  0
POINT
  5
3BB
330
90
100
AcDbEntity
  8
DEFPOINTS
 62
     3
100
AcDbPoint
 10
-149.4148807525635
 20
229.596752166748
 30
0.0
  0
POINT
  5
3BC
330
90
100
AcDbEntity
  8
DEFPOINTS
 62
     3
100
AcDbPoint
 10
-130.9148807525635
 20
229.596752166748
 30
0.0
  0
POINT
  5
3BD
330
90
100
AcDbEntity
  8
DEFPOINTS
 62
     3
100
AcDbPoint
 10
-130.9148807525635
 20
260.1051979064942
 30
0.0
  0
ENDBLK
  5
3BE
330
90
100
AcDbEntity
  8
0
100
AcDbBlockEnd
  0
BLOCK
  5
3BF
330
91
100
AcDbEntity
  8
0
100
AcDbBlockBegin
  2
*D91
 70
     1
 10
0.0
 20
0.0
 30
0.0
  3
*D91
  1

  0
LINE
  5
3C0
330
91
100
AcDbEntity
  8
AM_0
  6
Continuous
 62
     3
100
AcDbLine
 10
-70.26772787986138
 20
201.9584480781701
 30
0.0
 11
-68.10465646689218
 21
199.8107232209326
 31
0.0
  0
LINE
  5
3C1
330
91
100
AcDbEntity
  8
AM_0
  6
Continuous
 62
     3
100
AcDbLine
 10
-68.10465646689218
 20
199.8107232209326
 30
0.0
 11
-68.9893406747243
 21
199.1912606696735
 31
0.0
  0
LINE
  5
3C2
330
91
100
AcDbEntity
  8
AM_0
  6
Continuous
 62
     3
100
AcDbLine
 10
-68.9893406747243
 20
199.1912606696735
 30
0.0
 11
-70.26772787986138
 21
201.9584480781701
 31
0.0
  0
LINE
  5
3C3
330
91
100
AcDbEntity
  8
AM_0
  6
Continuous
 62
     3
100
AcDbLine
 10
-70.26772787986138
 20
201.9584480781701
 30
0.0
 11
-56.96361714368935
 21
182.9582088488296
 31
0.0
  0
TEXT
  5
3C4
330
91
100
AcDbEntity
  8
AM_0
  6
Continuous
 62
     4
100
AcDbText
 10
-61.82973902335831
 20
191.94177325171
 30
0.0
 40
3.5
  1
R=2
 50
305.0
 41
0.8
  7
TSTYLE12
 72
     1
 11
-58.25487091680867
 21
189.8873643833121
 31
0.0
100
AcDbText
 73
     2
  0
POINT
  5
3C5
330
91
100
AcDbEntity
  8
DEFPOINTS
 62
     3
100
AcDbPoint
 10
-70.26772787986138
 20
201.9584480781701
 30
0.0
  0
POINT
  5
3C6
330
91
100
AcDbEntity
  8
DEFPOINTS
 62
     3
100
AcDbPoint
 10
-71.41488075256347
 20
203.5967521667481
 30
0.0
  0
ENDBLK
  5
3C7
330
91
100
AcDbEntity
  8
0
100
AcDbBlockEnd
  0
BLOCK
  5
3C8
330
92
100
AcDbEntity
  8
0
100
AcDbBlockBegin
  2
*D92
 70
     1
 10
0.0
 20
0.0
 30
0.0
  3
*D92
  1

  0
LINE
  5
3C9
330
92
100
AcDbEntity
  8
AM_0
  6
Continuous
 62
     3
100
AcDbLine
 10
-148.8290943149366
 20
231.0109657291211
 30
0.0
 11
-151.3322523203369
 21
232.7504484108401
 31
0.0
  0
LINE
  5
3CA
330
92
100
AcDbEntity
  8
AM_0
  6
Continuous
 62
     3
100
AcDbLine
 10
-151.3322523203369
 20
232.7504484108401
 30
0.0
 11
-150.5685769966555
 21
233.5141237345215
 31
0.0
  0
LINE
  5
3CB
330
92
100
AcDbEntity
  8
AM_0
  6
Continuous
 62
     3
100
AcDbLine
 10
-150.5685769966555
 20
233.5141237345215
 30
0.0
 11
-148.8290943149366
 21
231.0109657291211
 31
0.0
  0
LINE
  5
3CC
330
92
100
AcDbEntity
  8
AM_0
  6
Continuous
 62
     3
100
AcDbLine
 10
-148.8290943149366
 20
231.0109657291211
 30
0.0
 11
-165.3046163651945
 21
247.4864877793792
 31
0.0
  0
TEXT
  5
3CD
330
92
100
AcDbEntity
  8
AM_0
  6
Continuous
 62
     4
100
AcDbText
 10
-162.5822557896882
 20
246.4140461355982
 30
0.0
 40
3.5
  1
R=2
 50
315.0
 41
0.8
  7
TSTYLE12
 72
     1
 11
-158.7049536061819
 21
245.0116176862449
 31
0.0
100
AcDbText
 73
     2
  0
POINT
  5
3CE
330
92
100
AcDbEntity
  8
DEFPOINTS
 62
     3
100
AcDbPoint
 10
-148.8290943149366
 20
231.0109657291211
 30
0.0
  0
POINT
  5
3CF
330
92
100
AcDbEntity
  8
DEFPOINTS
 62
     3
100
AcDbPoint
 10
-147.4148807525635
 20
229.596752166748
 30
0.0
  0
ENDBLK
  5
3D0
330
92
100
AcDbEntity
  8
0
100
AcDbBlockEnd
  0
BLOCK
  5
3D1
330
93
100
AcDbEntity
  8
0
100
AcDbBlockBegin
  2
*D93
 70
     1
 10
0.0
 20
0.0
 30
0.0
  3
*D93
  1

  0
LINE
  5
3D2
330
93
100
AcDbEntity
  8
AM_0
  6
Continuous
 62
     3
100
AcDbLine
 10
-133.9148807525635
 20
203.0967520102965
 30
0.0
 11
-133.9148807525635
 21
173.8666966756185
 31
0.0
  0
LINE
  5
3D3
330
93
100
AcDbEntity
  8
AM_0
  6
Continuous
 62
     3
100
AcDbLine
 10
-133.9148807525635
 20
175.0333633422851
 30
0.0
 11
-136.9148807525635
 21
174.4933633422851
 31
0.0
  0
LINE
  5
3D4
330
93
100
AcDbEntity
  8
AM_0
  6
Continuous
 62
     3
100
AcDbLine
 10
-136.9148807525635
 20
174.4933633422851
 30
0.0
 11
-136.9148807525635
 21
175.5733633422851
 31
0.0
  0
LINE
  5
3D5
330
93
100
AcDbEntity
  8
AM_0
  6
Continuous
 62
     3
100
AcDbLine
 10
-136.9148807525635
 20
175.5733633422851
 30
0.0
 11
-133.9148807525635
 21
175.0333633422851
 31
0.0
  0
LINE
  5
3D6
330
93
100
AcDbEntity
  8
AM_0
  6
Continuous
 62
     3
100
AcDbLine
 10
-127.9148807525634
 20
175.0333633422851
 30
0.0
 11
-124.9148807525634
 21
175.5733633422851
 31
0.0
  0
LINE
  5
3D7
330
93
100
AcDbEntity
  8
AM_0
  6
Continuous
 62
     3
100
AcDbLine
 10
-124.9148807525634
 20
175.5733633422851
 30
0.0
 11
-124.9148807525634
 21
174.4933633422851
 31
0.0
  0
LINE
  5
3D8
330
93
100
AcDbEntity
  8
AM_0
  6
Continuous
 62
     3
100
AcDbLine
 10
-124.9148807525634
 20
174.4933633422851
 30
0.0
 11
-127.9148807525634
 21
175.0333633422851
 31
0.0
  0
LINE
  5
3D9
330
93
100
AcDbEntity
  8
AM_0
  6
Continuous
 62
     3
100
AcDbLine
 10
-138.4148807525634
 20
175.0333633422851
 30
0.0
 11
-133.9148807525635
 21
175.0333633422851
 31
0.0
  0
LINE
  5
3DA
330
93
100
AcDbEntity
  8
AM_0
  6
Continuous
 62
     3
100
AcDbLine
 10
-133.9148807525635
 20
175.0333633422851
 30
0.0
 11
-127.9148807525634
 21
175.0333633422851
 31
0.0
  0
LINE
  5
3DB
330
93
100
AcDbEntity
  8
AM_0
  6
Continuous
 62
     3
100
AcDbLine
 10
-127.9148807525634
 20
175.0333633422851
 30
0.0
 11
-87.84216429970483
 21
175.0333633422851
 31
0.0
  0
TEXT
  5
3DC
330
93
100
AcDbEntity
  8
AM_0
  6
Continuous
 62
     4
100
AcDbText
 10
-119.1618577668161
 20
176.2000375216797
 30
0.0
 40
3.5
  1
N%%d4 Fori %%c6
 41
0.8
  7
TSTYLE12
 72
     1
 11
-105.6285244334828
 21
177.9500375216797
 31
0.0
100
AcDbText
 73
     2
  0
LINE
  5
3DD
330
93
100
AcDbEntity
  8
AM_0
  6
Continuous
 62
     3
100
AcDbLine
 10
-127.9148807525634
 20
204.0967521893917
 30
0.0
 11
-127.9148807525634
 21
173.8666966756185
 31
0.0
  0
POINT
  5
3DE
330
93
100
AcDbEntity
  8
DEFPOINTS
 62
     3
100
AcDbPoint
 10
-133.9148807525635
 20
208.0967521667481
 30
0.0
  0
POINT
  5
3DF
330
93
100
AcDbEntity
  8
DEFPOINTS
 62
     3
100
AcDbPoint
 10
-127.9148807525634
 20
208.0967521667481
 30
0.0
  0
POINT
  5
3E0
330
93
100
AcDbEntity
  8
DEFPOINTS
 62
     3
100
AcDbPoint
 10
-127.9148807525634
 20
175.0333633422851
 30
0.0
  0
ENDBLK
  5
3E1
330
93
100
AcDbEntity
  8
0
100
AcDbBlockEnd
  0
ENDSEC
  0
SECTION
  2
ENTITIES
  0
LINE
  5
94
330
A
100
AcDbEntity
  8
AM_0
  6
Continuous
 62
     7
100
AcDbLine
 10
-48.0
 20
18.5
 30
0.0
 11
28.0
 21
18.5
 31
0.0
  0
ARC
  5
95
330
A
100
AcDbEntity
  8
AM_0
  6
Continuous
 62
     7
100
AcDbCircle
 10
28.0
 20
16.5
 30
0.0
 40
2.0
100
AcDbArc
 50
0.0
 51
90.0
  0
ARC
  5
96
330
A
100
AcDbEntity
  8
AM_0
  6
Continuous
 62
     7
100
AcDbCircle
 10
-48.0
 20
16.5
 30
0.0
 40
2.0
100
AcDbArc
 50
90.0
 51
180.0
  0
LINE
  5
97
330
A
100
AcDbEntity
  8
AM_0
  6
Continuous
 62
     7
100
AcDbLine
 10
28.0
 20
-11.5
 30
0.0
 11
-48.0
 21
-11.5
 31
0.0
  0
ARC
  5
98
330
A
100
AcDbEntity
  8
AM_0
  6
Continuous
 62
     7
100
AcDbCircle
 10
28.0
 20
-9.5
 30
0.0
 40
2.0
100
AcDbArc
 50
270.0
 51
0.0
  0
ARC
  5
99
330
A
100
AcDbEntity
  8
AM_0
  6
Continuous
 62
     7
100
AcDbCircle
 10
-48.0
 20
-9.5
 30
0.0
 40
2.0
100
AcDbArc
 50
180.0
 51
270.0
  0
LINE
  5
9A
330
A
100
AcDbEntity
  8
AM_0
  6
Continuous
 62
     7
100
AcDbLine
 10
-50.0
 20
16.5
 30
0.0
 11
-50.0
 21
-9.5
 31
0.0
  0
LINE
  5
9B
330
A
100
AcDbEntity
  8
AM_0
  6
Continuous
 62
     7
100
AcDbLine
 10
30.0
 20
-9.5
 30
0.0
 11
30.0
 21
16.5
 31
0.0
  0
LINE
  5
9C
330
A
100
AcDbEntity
  8
AM_0
  6
CENTER2
 62
     2
100
AcDbLine
 10
20.0
 20
6.839565277099609
 30
0.0
 11
20.0
 21
-7.125900268554687
 31
0.0
  0
LINE
  5
9D
330
A
100
AcDbEntity
  8
AM_0
  6
CENTER2
 62
     2
100
AcDbLine
 10
0.0
 20
-7.125900268554687
 30
0.0
 11
0.0
 21
6.839565277099609
 31
0.0
  0
LINE
  5
9E
330
A
100
AcDbEntity
  8
AM_0
  6
CENTER2
 62
     2
100
AcDbLine
 10
-7.950719833374023
 20
0.0
 30
0.0
 11
28.0
 21
0.0
 31
0.0
  0
LINE
  5
9F
330
A
100
AcDbEntity
  8
AM_0
  6
CENTER2
 62
     2
100
AcDbLine
 10
-31.5
 20
-9.5
 30
0.0
 11
-31.5
 21
16.5
 31
0.0
  0
LINE
  5
A0
330
A
100
AcDbEntity
  8
AM_0
  6
CENTER2
 62
     2
100
AcDbLine
 10
-25.9388484954834
 20
12.0
 30
0.0
 11
-36.64064598083496
 21
12.0
 31
0.0
  0
LINE
  5
A1
330
A
100
AcDbEntity
  8
AM_0
  6
CENTER2
 62
     2
100
AcDbLine
 10
-36.64064598083496
 20
-5.0
 30
0.0
 11
-25.9388484954834
 21
-5.0
 31
0.0
  0
CIRCLE
  5
A2
330
A
100
AcDbEntity
  8
AM_0
  6
Continuous
 62
     7
100
AcDbCircle
 10
-31.5
 20
12.0
 30
0.0
 40
3.0
  0
CIRCLE
  5
A3
330
A
100
AcDbEntity
  8
AM_0
  6
Continuous
 62
     7
100
AcDbCircle
 10
-31.5
 20
-5.0
 30
0.0
 40
3.0
  0
CIRCLE
  5
A4
330
A
100
AcDbEntity
  8
AM_0
  6
Continuous
 62
     7
100
AcDbCircle
 10
0.0
 20
0.0
 30
0.0
 40
3.0
  0
CIRCLE
  5
A5
330
A
100
AcDbEntity
  8
AM_0
  6
Continuous
 62
     7
100
AcDbCircle
 10
20.0
 20
0.0
 30
0.0
 40
3.0
  0
LINE
  5
A7
330
A
100
AcDbEntity
  8
AM_0
  6
Continuous
 62
     7
100
AcDbLine
 10
-50.0
 20
-63.91155815124512
 30
0.0
 11
30.0
 21
-63.91155815124512
 31
0.0
  0
LINE
  5
A8
330
A
100
AcDbEntity
  8
AM_0
  6
Continuous
 62
     7
100
AcDbLine
 10
30.0
 20
-66.91155815124512
 30
0.0
 11
-50.0
 21
-66.91155815124512
 31
0.0
  0
LINE
  5
A9
330
A
100
AcDbEntity
  8
AM_0
  6
Continuous
 62
     7
100
AcDbLine
 10
-50.0
 20
-63.91155815124512
 30
0.0
 11
-50.0
 21
-66.91155815124512
 31
0.0
  0
LINE
  5
AA
330
A
100
AcDbEntity
  8
AM_0
  6
Continuous
 62
     7
100
AcDbLine
 10
30.0
 20
-63.91155815124512
 30
0.0
 11
30.0
 21
-66.91155815124512
 31
0.0
  0
LINE
  5
AB
330
A
100
AcDbEntity
  8
AM_0
  6
CENTER2
 62
     2
100
AcDbLine
 10
-31.5
 20
-58.60407686233521
 30
0.0
 11
-31.5
 21
-73.93467330932617
 31
0.0
  0
LINE
  5
AC
330
A
100
AcDbEntity
  8
AM_0
  6
CENTER2
 62
     2
100
AcDbLine
 10
0.0
 20
-58.60407686233521
 30
0.0
 11
0.0
 21
-73.93467330932617
 31
0.0
  0
LINE
  5
AD
330
A
100
AcDbEntity
  8
AM_0
  6
CENTER2
 62
     2
100
AcDbLine
 10
20.0
 20
-58.60407686233521
 30
0.0
 11
20.0
 21
-73.93467330932617
 31
0.0
  0
ENDSEC
  0
SECTION
  2
OBJECTS
  0
DICTIONARY
  5
19
330
0
100
AcDbDictionary
281
     1
  3
ACAD_COLOR
350
413
  3
ACAD_GROUP
350
1A
  3
ACAD_LAYOUT
350
3E2
  3
ACAD_MATERIAL
350
3E6
  3
ACAD_MLEADERSTYLE
350
43C
  3
ACAD_MLINESTYLE
350
1B
  3
ACAD_PLOTSETTINGS
350
3E5
  3
ACAD_PLOTSTYLENAME
350
3E3
  3
ACAD_SCALELIST
350
414
  3
ACAD_TABLESTYLE
350
436
  3
ACAD_VISUALSTYLE
350
3FF
  3
ACDB_RECOMPOSE_DATA
350
4E2
  3
AcDbVariableDictionary
350
4C8
  3
AEC_PROPERTY_SET_DEFS
350
46A
  3
ASE_INDEX_DICTIONARY
350
483
  3
DWGPROPS
350
4E3
  3
qs_topprt_diz
350
442
  3
QSCATDICT
350
43F
  3
QsPallStyleDict
350
441
  3
QsTop499
350
47F
  3
TopSpotLight
350
449
  0
DICTIONARY
  5
48C
330
7
100
AcDbDictionary
280
     1
281
     1
  0
DICTIONARY
  5
46B
330
14
100
AcDbDictionary
280
     1
281
     1
  3
ADSK_XREC_LAYER_RECONCILED
360
46C
  0
DICTIONARY
  5
46D
330
1E
100
AcDbDictionary
280
     1
281
     1
  3
ADSK_XREC_LAYER_RECONCILED
360
46E
  0
DICTIONARY
  5
46F
330
1F
100
AcDbDictionary
280
     1
281
     1
  3
ADSK_XREC_LAYER_RECONCILED
360
470
  0
DICTIONARY
  5
471
330
20
100
AcDbDictionary
280
     1
281
     1
  3
ADSK_XREC_LAYER_RECONCILED
360
472
  0
DICTIONARY
  5
473
330
21
100
AcDbDictionary
280
     1
281
     1
  3
ADSK_XREC_LAYER_RECONCILED
360
474
  0
DICTIONARY
  5
475
330
22
100
AcDbDictionary
280
     1
281
     1
  3
ADSK_XREC_LAYER_RECONCILED
360
476
  0
DICTIONARY
  5
477
330
23
100
AcDbDictionary
280
     1
281
     1
  3
ADSK_XREC_LAYER_RECONCILED
360
478
  0
DICTIONARY
  5
479
330
24
100
AcDbDictionary
280
     1
281
     1
  3
ADSK_XREC_LAYER_RECONCILED
360
47A
  0
DICTIONARY
  5
47B
330
25
100
AcDbDictionary
280
     1
281
     1
  3
ADSK_XREC_LAYER_RECONCILED
360
47C
  0
DICTIONARY
  5
47D
330
444
100
AcDbDictionary
280
     1
281
     1
  3
ADSK_XREC_LAYER_RECONCILED
360
47E
  0
DICTIONARY
  5
413
102
{ACAD_REACTORS
330
19
102
}
330
19
100
AcDbDictionary
281
     1
  0
DICTIONARY
  5
1A
102
{ACAD_REACTORS
330
19
102
}
330
19
100
AcDbDictionary
281
     1
  0
DICTIONARY
  5
3E2
102
{ACAD_REACTORS
330
19
102
}
330
19
100
AcDbDictionary
281
     1
  3
Layout1
350
439
  3
Model
350
438
  0
DICTIONARY
  5
3E6
102
{ACAD_REACTORS
330
19
102
}
330
19
100
AcDbDictionary
281
     1
  3
ByBlock
350
3EF
  3
ByLayer
350
3E7
  3
Global
350
3F7
  0
DICTIONARY
  5
43C
102
{ACAD_REACTORS
330
19
102
}
330
19
100
AcDbDictionary
281
     1
  3
Standard
350
43D
  0
DICTIONARY
  5
1B
102
{ACAD_REACTORS
330
19
102
}
330
19
100
AcDbDictionary
281
     1
  3
STANDARD
350
1C
  0
DICTIONARY
  5
3E5
102
{ACAD_REACTORS
330
19
102
}
330
19
100
AcDbDictionary
281
     1
  3
Kyocera_1010 OR
350
45E
  3
Kyocera_1010 VER
350
45F
  3
Olivetti_200 A3
350
460
  3
Olivetti_200 A4
350
461
  3
PLOTTER
350
462
  0
ACDBDICTIONARYWDFLT
  5
3E3
102
{ACAD_REACTORS
330
19
102
}
330
19
100
AcDbDictionary
281
     1
  3
Normal
350
3E4
100
AcDbDictionaryWithDefault
340
3E4
  0
DICTIONARY
  5
414
102
{ACAD_REACTORS
330
19
102
}
330
19
100
AcDbDictionary
281
     1
  3
A0
350
415
  3
A1
350
416
  3
A2
350
417
  3
A3
350
418
  3
A4
350
419
  3
A5
350
41A
  3
A6
350
41B
  3
A7
350
41C
  3
A8
350
41D
  3
A9
350
41E
  3
B0
350
41F
  3
B1
350
420
  3
B2
350
421
  3
B3
350
422
  3
B4
350
423
  3
B5
350
424
  3
B6
350
425
  3
B7
350
426
  3
B8
350
427
  3
B9
350
428
  3
C0
350
429
  3
C1
350
42A
  3
C2
350
42B
  3
C3
350
42C
  3
C4
350
42D
  3
C5
350
42E
  3
C6
350
42F
  3
C7
350
430
  3
C8
350
431
  3
C9
350
432
  3
D0
350
433
  3
D1
350
434
  3
D2
350
435
  0
DICTIONARY
  5
436
102
{ACAD_REACTORS
330
19
102
}
330
19
100
AcDbDictionary
281
     1
  3
QSTABFORI
350
463
  3
QSTABREGION
350
465
  3
Standard
350
437
  0
DICTIONARY
  5
3FF
102
{ACAD_REACTORS
330
19
102
}
330
19
100
AcDbDictionary
281
     1
  3
2dWireframe
350
405
  3
3D Hidden
350
407
  3
3dWireframe
350
406
  3
Basic
350
404
  3
Brighten
350
40B
  3
ColorChange
350
40F
  3
Conceptual
350
408
  3
Dim
350
40A
  3
EdgeColorOff
350
412
  3
Facepattern
350
40E
  3
Flat
350
400
  3
FlatWithEdges
350
401
  3
Gouraud
350
402
  3
GouraudWithEdges
350
403
  3
Hidden
350
4D3
  3
JitterOff
350
410
  3
Linepattern
350
40D
  3
OverhangOff
350
411
  3
Realistic
350
409
  3
Shaded
350
4D8
  3
Shaded with edges
350
4D7
  3
Shades of Gray
350
4D4
  3
Sketchy
350
4D5
  3
Thicken
350
40C
  3
Wireframe
350
4D2
  3
X-Ray
350
4D6
  0
XRECORD
  5
4E2
102
{ACAD_REACTORS
330
19
102
}
330
19
100
AcDbXrecord
280
     1
 90
        1
330
437
330
463
330
465
  0
DICTIONARY
  5
4C8
102
{ACAD_REACTORS
330
19
102
}
330
19
100
AcDbDictionary
281
     1
  3
CANNOSCALE
350
4CC
  3
CMLEADERSTYLE
350
4CA
  3
CTABLESTYLE
350
4C9
  3
DIMASSOC
350
4CF
  3
DRAWORDERCTL
350
4CB
  3
INDEXCTL
350
4CE
  3
SORTENTS
350
4CD
  3
XCLIPFRAME
350
4DE
  0
DICTIONARY
  5
46A
102
{ACAD_REACTORS
330
19
102
}
330
19
100
AcDbDictionary
281
     1
  0
DICTIONARY
  5
483
102
{ACAD_REACTORS
330
19
102
}
330
19
100
AcDbDictionary
281
     1
  3
ASEBlockHierarchyIndexRecord
350
485
1001
DCO15
1040
1713692902.709
  0
XRECORD
  5
4E3
102
{ACAD_REACTORS
330
19
102
}
330
19
100
AcDbXrecord
280
     1
  1
DWGPROPS COOKIE
  2

  3

  4

  6

  7

  8
mpistoia
  9

300
=
301
=
302
=
303
=
304
=
305
=
306
=
307
=
308
=
309
=
 40
0.0008647106481481
 41
2444972.041666667
 42
2455637.620448021
  1

 90
        0
  0
DICTIONARY
  5
442
102
{ACAD_REACTORS
330
19
102
}
330
19
100
AcDbDictionary
281
     1
  3
UCNT
350
443
  0
DICTIONARY
  5
43F
102
{ACAD_REACTORS
330
19
102
}
330
19
100
AcDbDictionary
281
     1
  3
DEFAULT
350
440
  0
DICTIONARY
  5
441
102
{ACAD_REACTORS
330
19
102
}
330
19
100
AcDbDictionary
281
     1
  0
DICTIONARY
  5
47F
102
{ACAD_REACTORS
330
19
102
}
330
19
100
AcDbDictionary
281
     1
  3
TOP
350
481
  3
X4a51
350
480
  0
DICTIONARY
  5
449
102
{ACAD_REACTORS
330
19
102
}
330
19
100
AcDbDictionary
281
     1
  3
colors
350
44A
  0
XRECORD
  5
46C
102
{ACAD_REACTORS
330
46B
102
}
330
46B
100
AcDbXrecord
280
     1
290
     1
  0
XRECORD
  5
46E
102
{ACAD_REACTORS
330
46D
102
}
330
46D
100
AcDbXrecord
280
     1
290
     1
  0
XRECORD
  5
470
102
{ACAD_REACTORS
330
46F
102
}
330
46F
100
AcDbXrecord
280
     1
290
     1
  0
XRECORD
  5
472
102
{ACAD_REACTORS
330
471
102
}
330
471
100
AcDbXrecord
280
     1
290
     1
  0
XRECORD
  5
474
102
{ACAD_REACTORS
330
473
102
}
330
473
100
AcDbXrecord
280
     1
290
     1
  0
XRECORD
  5
476
102
{ACAD_REACTORS
330
475
102
}
330
475
100
AcDbXrecord
280
     1
290
     1
  0
XRECORD
  5
478
102
{ACAD_REACTORS
330
477
102
}
330
477
100
AcDbXrecord
280
     1
290
     1
  0
XRECORD
  5
47A
102
{ACAD_REACTORS
330
479
102
}
330
479
100
AcDbXrecord
280
     1
290
     1
  0
XRECORD
  5
47C
102
{ACAD_REACTORS
330
47B
102
}
330
47B
100
AcDbXrecord
280
     1
290
     1
  0
XRECORD
  5
47E
102
{ACAD_REACTORS
330
47D
102
}
330
47D
100
AcDbXrecord
280
     1
290
     1
  0
LAYOUT
  5
439
102
{ACAD_XDICTIONARY
360
510
102
}
102
{ACAD_REACTORS
330
3E2
102
}
330
3E2
100
AcDbPlotSettings
  1

  2
Microsoft XPS Document Writer
  4

  6

 40
0.0
 41
0.0
 42
0.0
 43
0.0
 44
0.0
 45
0.0
 46
0.0
 47
0.0
 48
0.0
 49
0.0
140
0.0
141
0.0
142
1.0
143
1.0
 70
   688
 72
     0
 73
     0
 74
     5
  7

 75
    16
147
1.0
148
0.0
149
0.0
100
AcDbLayout
  1
Layout1
 70
     0
 71
     1
 10
-216.0861053466797
 20
-2.531367063522338
 11
3.42302393913269
 21
300.2922973632812
 12
0.0
 22
0.0
 32
0.0
 14
1.000000000000000E+20
 24
1.000000000000000E+20
 34
1.000000000000000E+20
 15
-1.000000000000000E+20
 25
-1.000000000000000E+20
 35
-1.000000000000000E+20
146
0.0
 13
0.0
 23
0.0
 33
0.0
 16
1.0
 26
0.0
 36
0.0
 17
0.0
 27
1.0
 37
0.0
 76
     0
330
B
  0
LAYOUT
  5
438
102
{ACAD_XDICTIONARY
360
50E
102
}
102
{ACAD_REACTORS
330
3E2
102
}
330
3E2
100
AcDbPlotSettings
  1

  2
Microsoft XPS Document Writer
  4

  6

 40
0.0
 41
0.0
 42
0.0
 43
0.0
 44
0.0
 45
0.0
 46
0.0
 47
0.0
 48
0.0
 49
0.0
140
0.0
141
0.0
142
1.0
143
1.0
 70
  1712
 72
     0
 73
     0
 74
     0
  7

 75
     0
147
1.0
148
0.0
149
0.0
100
AcDbLayout
  1
Model
 70
     1
 71
     0
 10
0.0
 20
0.0
 11
12.0
 21
9.0
 12
0.0
 22
0.0
 32
0.0
 14
0.0
 24
0.0
 34
0.0
 15
0.0
 25
0.0
 35
0.0
146
0.0
 13
0.0
 23
0.0
 33
0.0
 16
1.0
 26
0.0
 36
0.0
 17
0.0
 27
1.0
 37
0.0
 76
     0
330
A
331
15
  0
MATERIAL
  5
3EF
102
{ACAD_XDICTIONARY
360
3F0
102
}
102
{ACAD_REACTORS
330
3E6
102
}
330
3E6
100
AcDbMaterial
  1
ByBlock
 72
     0
 43
0.0208333333333333
 43
0.0
 43
0.0
 43
0.0
 43
0.0
 43
0.0208333333333333
 43
0.0
 43
0.0
 43
0.0
 43
0.0
 43
1.0
 43
0.0
 43
0.0
 43
0.0
 43
0.0
 43
1.0
 77
     0
 47
0.0208333333333333
 47
0.0
 47
0.0
 47
0.0
 47
0.0
 47
0.0208333333333333
 47
0.0
 47
0.0
 47
0.0
 47
0.0
 47
1.0
 47
0.0
 47
0.0
 47
0.0
 47
0.0
 47
1.0
171
     0
 49
0.0208333333333333
 49
0.0
 49
0.0
 49
0.0
 49
0.0
 49
0.0208333333333333
 49
0.0
 49
0.0
 49
0.0
 49
0.0
 49
1.0
 49
0.0
 49
0.0
 49
0.0
 49
0.0
 49
1.0
175
     0
142
0.0208333333333333
142
0.0
142
0.0
142
0.0
142
0.0
142
0.0208333333333333
142
0.0
142
0.0
142
0.0
142
0.0
142
1.0
142
0.0
142
0.0
142
0.0
142
0.0
142
1.0
179
     0
144
0.0208333333333333
144
0.0
144
0.0
144
0.0
144
0.0
144
0.0208333333333333
144
0.0
144
0.0
144
0.0
144
0.0
144
1.0
144
0.0
144
0.0
144
0.0
144
0.0
144
1.0
147
0.0208333333333333
147
0.0
147
0.0
147
0.0
147
0.0
147
0.0208333333333333
147
0.0
147
0.0
147
0.0
147
0.0
147
1.0
147
0.0
147
0.0
147
0.0
147
0.0
147
1.0
  0
MATERIAL
  5
3E7
102
{ACAD_XDICTIONARY
360
3E8
102
}
102
{ACAD_REACTORS
330
3E6
102
}
330
3E6
100
AcDbMaterial
  1
ByLayer
 72
     0
 43
0.0208333333333333
 43
0.0
 43
0.0
 43
0.0
 43
0.0
 43
0.0208333333333333
 43
0.0
 43
0.0
 43
0.0
 43
0.0
 43
1.0
 43
0.0
 43
0.0
 43
0.0
 43
0.0
 43
1.0
 77
     0
 47
0.0208333333333333
 47
0.0
 47
0.0
 47
0.0
 47
0.0
 47
0.0208333333333333
 47
0.0
 47
0.0
 47
0.0
 47
0.0
 47
1.0
 47
0.0
 47
0.0
 47
0.0
 47
0.0
 47
1.0
171
     0
 49
0.0208333333333333
 49
0.0
 49
0.0
 49
0.0
 49
0.0
 49
0.0208333333333333
 49
0.0
 49
0.0
 49
0.0
 49
0.0
 49
1.0
 49
0.0
 49
0.0
 49
0.0
 49
0.0
 49
1.0
175
     0
142
0.0208333333333333
142
0.0
142
0.0
142
0.0
142
0.0
142
0.0208333333333333
142
0.0
142
0.0
142
0.0
142
0.0
142
1.0
142
0.0
142
0.0
142
0.0
142
0.0
142
1.0
179
     0
144
0.0208333333333333
144
0.0
144
0.0
144
0.0
144
0.0
144
0.0208333333333333
144
0.0
144
0.0
144
0.0
144
0.0
144
1.0
144
0.0
144
0.0
144
0.0
144
0.0
144
1.0
147
0.0208333333333333
147
0.0
147
0.0
147
0.0
147
0.0
147
0.0208333333333333
147
0.0
147
0.0
147
0.0
147
0.0
147
1.0
147
0.0
147
0.0
147
0.0
147
0.0
147
1.0
  0
MATERIAL
  5
3F7
102
{ACAD_XDICTIONARY
360
3F8
102
}
102
{ACAD_REACTORS
330
3E6
102
}
330
3E6
100
AcDbMaterial
  1
Global
 72
     0
 43
0.0208333333333333
 43
0.0
 43
0.0
 43
0.0
 43
0.0
 43
0.0208333333333333
 43
0.0
 43
0.0
 43
0.0
 43
0.0
 43
1.0
 43
0.0
 43
0.0
 43
0.0
 43
0.0
 43
1.0
 77
     0
 47
0.0208333333333333
 47
0.0
 47
0.0
 47
0.0
 47
0.0
 47
0.0208333333333333
 47
0.0
 47
0.0
 47
0.0
 47
0.0
 47
1.0
 47
0.0
 47
0.0
 47
0.0
 47
0.0
 47
1.0
171
     0
 49
0.0208333333333333
 49
0.0
 49
0.0
 49
0.0
 49
0.0
 49
0.0208333333333333
 49
0.0
 49
0.0
 49
0.0
 49
0.0
 49
1.0
 49
0.0
 49
0.0
 49
0.0
 49
0.0
 49
1.0
175
     0
142
0.0208333333333333
142
0.0
142
0.0
142
0.0
142
0.0
142
0.0208333333333333
142
0.0
142
0.0
142
0.0
142
0.0
142
1.0
142
0.0
142
0.0
142
0.0
142
0.0
142
1.0
179
     0
144
0.0208333333333333
144
0.0
144
0.0
144
0.0
144
0.0
144
0.0208333333333333
144
0.0
144
0.0
144
0.0
144
0.0
144
1.0
144
0.0
144
0.0
144
0.0
144
0.0
144
1.0
147
0.0208333333333333
147
0.0
147
0.0
147
0.0
147
0.0
147
0.0208333333333333
147
0.0
147
0.0
147
0.0
147
0.0
147
1.0
147
0.0
147
0.0
147
0.0
147
0.0
147
1.0
  0
MLEADERSTYLE
  5
43D
102
{ACAD_REACTORS
330
43C
102
}
330
43C
100
AcDbMLeaderStyle
170
     2
171
     1
172
     0
 90
        2
 40
0.0
 41
0.0
173
     1
 91
-1056964608
340
11
 92
       -2
290
     1
 42
2.0
291
     1
 43
0.36
  3
Standard
 44
4.0
300

342
17
174
     1
178
     6
175
     1
176
     0
 93
-1056964608
 45
4.0
292
     0
297
     0
 46
4.0
 94
-1056964608
 47
1.0
 49
1.0
140
1.0
293
     1
141
0.0
294
     1
177
     0
142
1.0
295
     0
296
     0
143
0.125
1001
ACAD_MLEADERVER
1070
     2
  0
MLINESTYLE
  5
1C
102
{ACAD_REACTORS
330
1B
102
}
330
1B
100
AcDbMlineStyle
  2
STANDARD
 70
     0
  3

 62
     0
 51
90.00000000000019
 52
90.00000000000019
 71
     2
 49
0.5
 62
   256
  6
BYLAYER
 49
-0.5
 62
   256
  6
BYLAYER
  0
PLOTSETTINGS
  5
45E
102
{ACAD_XDICTIONARY
360
512
102
}
102
{ACAD_REACTORS
330
3E5
102
}
330
3E5
100
AcDbPlotSettings
  1
Kyocera_1010 OR
  2
Kyocera_1010.pc3
  4
A4
  6

 40
4.984749794006347
 41
5.154074668884277
 42
5.111740112304687
 43
4.9847412109375
 44
210.0156707763672
 45
297.0106506347656
 46
0.0
 47
109.7870247470818
 48
0.0
 49
0.0
140
0.0
141
0.0
142
1.0
143
0.6770771918566143
 70
 11956
 72
     1
 73
     1
 74
     1
  7
DIERRE BN.ctb
 75
     0
147
1.476936473458659
148
-222.4649060220283
149
-239.0808115236937
1001
ACAD_PSEXT
1000
Kyocera_1010.pc3
1000
Kyocera Mita FS-1010 KX
1000
\\PC5
1000

1070
     0
  0
PLOTSETTINGS
  5
45F
102
{ACAD_XDICTIONARY
360
514
102
}
102
{ACAD_REACTORS
330
3E5
102
}
330
3E5
100
AcDbPlotSettings
  1
Kyocera_1010 VER
  2
Kyocera_1010.pc3
  4
A4
  6

 40
4.984749794006347
 41
5.154074668884277
 42
5.111740112304687
 43
4.9847412109375
 44
210.0156707763672
 45
297.0106506347656
 46
51.67548120477697
 47
0.0
 48
0.0
 49
0.0
140
0.0
141
0.0
142
1.0
143
0.4718508448115938
 70
 11956
 72
     1
 73
     0
 74
     1
  7
DIERRE BN.ctb
 75
     0
147
2.119313785268927
148
-222.4649060220283
149
-239.0808115236937
1001
ACAD_PSEXT
1000
Kyocera_1010.pc3
1000
Kyocera Mita FS-1010 KX
1000
\\PC5
1000

1070
     0
  0
PLOTSETTINGS
  5
460
102
{ACAD_XDICTIONARY
360
516
102
}
102
{ACAD_REACTORS
330
3E5
102
}
330
3E5
100
AcDbPlotSettings
  1
Olivetti_200 A3
  2
Olivetti_200.pc3
  4
A3
  6

 40
4.984749794006347
 41
5.111746788024902
 42
5.154083251953125
 43
4.9847412109375
 44
297.0106506347656
 45
419.9889831542968
 46
0.0
 47
156.6621412366913
 48
0.0
 49
0.0
140
0.0
141
0.0
142
1.0
143
0.4718508730467012
 70
 11956
 72
     1
 73
     1
 74
     1
  7
DIERRE BN.ctb
 75
     0
147
2.119313658451206
148
-222.4649060220283
149
-239.0808115236937
1001
ACAD_PSEXT
1000
Olivetti_200.pc3
1000
Olivetti d-Copia 200MF KX
1000
IP_192.168.1.151
1000

1070
     0
  0
PLOTSETTINGS
  5
461
102
{ACAD_XDICTIONARY
360
518
102
}
102
{ACAD_REACTORS
330
3E5
102
}
330
3E5
100
AcDbPlotSettings
  1
Olivetti_200 A4
  2
Olivetti_200.pc3
  4
A4
  6

 40
4.984749794006347
 41
5.154074668884277
 42
5.111740112304687
 43
4.9847412109375
 44
210.0156707763672
 45
297.0106506347656
 46
51.67548120477697
 47
0.0
 48
0.0
 49
0.0
140
0.0
141
0.0
142
1.0
143
0.4718508448115938
 70
 11956
 72
     1
 73
     0
 74
     1
  7
DIERRE BN.ctb
 75
     0
147
2.119313785268927
148
-222.4649060220283
149
-239.0808115236937
1001
ACAD_PSEXT
1000
Olivetti_200.pc3
1000
Olivetti d-Copia 200MF KX
1000
IP_192.168.1.151
1000

1070
     0
  0
PLOTSETTINGS
  5
462
102
{ACAD_XDICTIONARY
360
51A
102
}
102
{ACAD_REACTORS
330
3E5
102
}
330
3E5
100
AcDbPlotSettings
  1
PLOTTER
  2
PLOTTER.pc3
  4
User622
  6

 40
0.0
 41
0.0
 42
0.0
 43
0.0
 44
841.0
 45
1189.0
 46
0.0
 47
0.0
 48
0.0
 49
0.0
140
0.0
141
0.0
142
1.0
143
1.0
 70
 11936
 72
     1
 73
     0
 74
     1
  7
DIERRE BN.ctb
 75
     0
147
2.194137304425714
148
-222.4649060220283
149
-239.0808115236937
1001
ACAD_PSEXT
1000
PLOTTER.pc3
1000
HP DesignJet 430 (E/A0) by HP
1000
\\SERVER2003
1000

1070
     0
  0
ACDBPLACEHOLDER
  5
3E4
102
{ACAD_REACTORS
330
3E3
102
}
330
3E3
  0
SCALE
  5
415
102
{ACAD_REACTORS
330
414
102
}
330
414
100
AcDbScale
 70
     0
300
1:1
140
1.0
141
1.0
290
     1
  0
SCALE
  5
416
102
{ACAD_REACTORS
330
414
102
}
330
414
100
AcDbScale
 70
     0
300
1:2
140
1.0
141
2.0
290
     0
  0
SCALE
  5
417
102
{ACAD_REACTORS
330
414
102
}
330
414
100
AcDbScale
 70
     0
300
1:4
140
1.0
141
4.0
290
     0
  0
SCALE
  5
418
102
{ACAD_REACTORS
330
414
102
}
330
414
100
AcDbScale
 70
     0
300
1:5
140
1.0
141
5.0
290
     0
  0
SCALE
  5
419
102
{ACAD_REACTORS
330
414
102
}
330
414
100
AcDbScale
 70
     0
300
1:8
140
1.0
141
8.0
290
     0
  0
SCALE
  5
41A
102
{ACAD_REACTORS
330
414
102
}
330
414
100
AcDbScale
 70
     0
300
1:10
140
1.0
141
10.0
290
     0
  0
SCALE
  5
41B
102
{ACAD_REACTORS
330
414
102
}
330
414
100
AcDbScale
 70
     0
300
1:16
140
1.0
141
16.0
290
     0
  0
SCALE
  5
41C
102
{ACAD_REACTORS
330
414
102
}
330
414
100
AcDbScale
 70
     0
300
1:20
140
1.0
141
20.0
290
     0
  0
SCALE
  5
41D
102
{ACAD_REACTORS
330
414
102
}
330
414
100
AcDbScale
 70
     0
300
1:30
140
1.0
141
30.0
290
     0
  0
SCALE
  5
41E
102
{ACAD_REACTORS
330
414
102
}
330
414
100
AcDbScale
 70
     0
300
1:40
140
1.0
141
40.0
290
     0
  0
SCALE
  5
41F
102
{ACAD_REACTORS
330
414
102
}
330
414
100
AcDbScale
 70
     0
300
1:50
140
1.0
141
50.0
290
     0
  0
SCALE
  5
420
102
{ACAD_REACTORS
330
414
102
}
330
414
100
AcDbScale
 70
     0
300
1:100
140
1.0
141
100.0
290
     0
  0
SCALE
  5
421
102
{ACAD_REACTORS
330
414
102
}
330
414
100
AcDbScale
 70
     0
300
2:1
140
2.0
141
1.0
290
     0
  0
SCALE
  5
422
102
{ACAD_REACTORS
330
414
102
}
330
414
100
AcDbScale
 70
     0
300
4:1
140
4.0
141
1.0
290
     0
  0
SCALE
  5
423
102
{ACAD_REACTORS
330
414
102
}
330
414
100
AcDbScale
 70
     0
300
8:1
140
8.0
141
1.0
290
     0
  0
SCALE
  5
424
102
{ACAD_REACTORS
330
414
102
}
330
414
100
AcDbScale
 70
     0
300
10:1
140
10.0
141
1.0
290
     0
  0
SCALE
  5
425
102
{ACAD_REACTORS
330
414
102
}
330
414
100
AcDbScale
 70
     0
300
100:1
140
100.0
141
1.0
290
     0
  0
SCALE
  5
426
102
{ACAD_REACTORS
330
414
102
}
330
414
100
AcDbScale
 70
     0
300
1/128" = 1'-0"
140
0.0078125
141
12.0
290
     0
  0
SCALE
  5
427
102
{ACAD_REACTORS
330
414
102
}
330
414
100
AcDbScale
 70
     0
300
1/64" = 1'-0"
140
0.015625
141
12.0
290
     0
  0
SCALE
  5
428
102
{ACAD_REACTORS
330
414
102
}
330
414
100
AcDbScale
 70
     0
300
1/32" = 1'-0"
140
0.03125
141
12.0
290
     0
  0
SCALE
  5
429
102
{ACAD_REACTORS
330
414
102
}
330
414
100
AcDbScale
 70
     0
300
1/16" = 1'-0"
140
0.0625
141
12.0
290
     0
  0
SCALE
  5
42A
102
{ACAD_REACTORS
330
414
102
}
330
414
100
AcDbScale
 70
     0
300
3/32" = 1'-0"
140
0.09375
141
12.0
290
     0
  0
SCALE
  5
42B
102
{ACAD_REACTORS
330
414
102
}
330
414
100
AcDbScale
 70
     0
300
1/8" = 1'-0"
140
0.125
141
12.0
290
     0
  0
SCALE
  5
42C
102
{ACAD_REACTORS
330
414
102
}
330
414
100
AcDbScale
 70
     0
300
3/16" = 1'-0"
140
0.1875
141
12.0
290
     0
  0
SCALE
  5
42D
102
{ACAD_REACTORS
330
414
102
}
330
414
100
AcDbScale
 70
     0
300
1/4" = 1'-0"
140
0.25
141
12.0
290
     0
  0
SCALE
  5
42E
102
{ACAD_REACTORS
330
414
102
}
330
414
100
AcDbScale
 70
     0
300
3/8" = 1'-0"
140
0.375
141
12.0
290
     0
  0
SCALE
  5
42F
102
{ACAD_REACTORS
330
414
102
}
330
414
100
AcDbScale
 70
     0
300
1/2" = 1'-0"
140
0.5
141
12.0
290
     0
  0
SCALE
  5
430
102
{ACAD_REACTORS
330
414
102
}
330
414
100
AcDbScale
 70
     0
300
3/4" = 1'-0"
140
0.75
141
12.0
290
     0
  0
SCALE
  5
431
102
{ACAD_REACTORS
330
414
102
}
330
414
100
AcDbScale
 70
     0
300
1" = 1'-0"
140
1.0
141
12.0
290
     0
  0
SCALE
  5
432
102
{ACAD_REACTORS
330
414
102
}
330
414
100
AcDbScale
 70
     0
300
1-1/2" = 1'-0"
140
1.5
141
12.0
290
     0
  0
SCALE
  5
433
102
{ACAD_REACTORS
330
414
102
}
330
414
100
AcDbScale
 70
     0
300
3" = 1'-0"
140
3.0
141
12.0
290
     0
  0
SCALE
  5
434
102
{ACAD_REACTORS
330
414
102
}
330
414
100
AcDbScale
 70
     0
300
6" = 1'-0"
140
6.0
141
12.0
290
     0
  0
SCALE
  5
435
102
{ACAD_REACTORS
330
414
102
}
330
414
100
AcDbScale
 70
     0
300
1'-0" = 1'-0"
140
12.0
141
12.0
290
     0
  0
TABLESTYLE
  5
463
102
{ACAD_XDICTIONARY
360
464
102
}
102
{ACAD_REACTORS
330
436
102
}
330
436
100
AcDbTableStyle
  3
Standard
 70
     1
 71
     0
 40
1.5
 41
1.5
280
     1
281
     0
  7
ROMANS
140
3.0
170
     5
 62
     7
 63
     7
283
     0
274
    -2
284
     1
 64
     0
275
    -2
285
     1
 65
     0
276
    -2
286
     1
 66
     0
277
    -2
287
     1
 67
     0
278
    -2
288
     1
 68
     0
279
    -2
289
     1
 69
     0
  7
ROMANS
140
6.0
170
     5
 62
     1
 63
     7
283
     0
274
    -2
284
     1
 64
     0
275
    -2
285
     1
 65
     0
276
    -2
286
     1
 66
     0
277
    -2
287
     1
 67
     0
278
    -2
288
     1
 68
     0
279
    -2
289
     1
 69
     0
  7
ROMANS
140
3.5
170
     5
 62
     3
 63
     7
283
     0
274
    -2
284
     1
 64
     0
275
    -2
285
     1
 65
     0
276
    -2
286
     1
 66
     0
277
    -2
287
     1
 67
     0
278
    -2
288
     1
 68
     0
279
    -2
289
     1
 69
     0
  0
TABLESTYLE
  5
465
102
{ACAD_XDICTIONARY
360
466
102
}
102
{ACAD_REACTORS
330
436
102
}
330
436
100
AcDbTableStyle
  3
Standard
 70
     0
 71
     0
 40
1.5
 41
1.5
280
     0
281
     0
  7
ROMANS
140
4.5
170
     5
 62
     7
 63
     7
283
     0
274
    -2
284
     1
 64
     0
275
    -2
285
     1
 65
     0
276
    -2
286
     1
 66
     0
277
    -2
287
     1
 67
     0
278
    -2
288
     1
 68
     0
279
    -2
289
     1
 69
     0
  7
ROMANS
140
6.0
170
     5
 62
     1
 63
     7
283
     0
274
    -2
284
     1
 64
     0
275
    -2
285
     1
 65
     0
276
    -2
286
     1
 66
     0
277
    -2
287
     1
 67
     0
278
    -2
288
     1
 68
     0
279
    -2
289
     1
 69
     0
  7
ROMANS
140
5.0
170
     5
 62
     3
 63
     7
283
     0
274
    -2
284
     1
 64
     0
275
    -2
285
     1
 65
     0
276
    -2
286
     1
 66
     0
277
    -2
287
     1
 67
     0
278
    -2
288
     1
 68
     0
279
    -2
289
     1
 69
     0
  0
TABLESTYLE
  5
437
102
{ACAD_XDICTIONARY
360
486
102
}
102
{ACAD_REACTORS
330
436
102
}
330
436
100
AcDbTableStyle
  3
Standard
 70
     0
 71
     0
 40
0.06
 41
0.06
280
     0
281
     0
  7
STANDARD
140
0.18
170
     2
 62
     0
 63
     7
283
     0
274
    -2
284
     1
 64
     0
275
    -2
285
     1
 65
     0
276
    -2
286
     1
 66
     0
277
    -2
287
     1
 67
     0
278
    -2
288
     1
 68
     0
279
    -2
289
     1
 69
     0
  7
STANDARD
140
0.25
170
     5
 62
     0
 63
     7
283
     0
274
    -2
284
     1
 64
     0
275
    -2
285
     1
 65
     0
276
    -2
286
     1
 66
     0
277
    -2
287
     1
 67
     0
278
    -2
288
     1
 68
     0
279
    -2
289
     1
 69
     0
  7
STANDARD
140
0.18
170
     5
 62
     0
 63
     7
283
     0
274
    -2
284
     1
 64
     0
275
    -2
285
     1
 65
     0
276
    -2
286
     1
 66
     0
277
    -2
287
     1
 67
     0
278
    -2
288
     1
 68
     0
279
    -2
289
     1
 69
     0
  0
VISUALSTYLE
  5
405
102
{ACAD_XDICTIONARY
360
4F1
102
}
102
{ACAD_REACTORS
330
3FF
102
}
330
3FF
100
AcDbVisualStyle
  2
2dWireframe
 70
     4
 71
     0
 72
     2
 73
     0
 90
        0
 40
-0.6
 41
-30.0
 62
     5
 63
     7
 74
     1
 91
        4
 64
     7
 65
   257
 75
     1
175
     1
 42
1.0
 92
        0
 66
   257
 43
1.0
 76
     1
 77
     6
 78
     2
 67
     7
 79
     5
170
     0
171
     0
290
     0
174
     0
 93
        1
 44
0.0
173
     0
291
     0
 45
0.0
1001
ACAD
1000
AcDbSavedByObjectVersion
1070
     0
  0
VISUALSTYLE
  5
407
102
{ACAD_XDICTIONARY
360
4F5
102
}
102
{ACAD_REACTORS
330
3FF
102
}
330
3FF
100
AcDbVisualStyle
  2
3D Hidden
 70
     6
 71
     1
 72
     2
 73
     2
 90
        0
 40
-0.6
 41
-30.0
 62
     5
 63
     7
 74
     2
 91
        2
 64
     7
 65
   257
 75
     2
175
     1
 42
179.0
 92
        0
 66
   257
 43
1.0
 76
     1
 77
     6
 78
     2
 67
     7
 79
     3
170
     0
171
     0
290
     0
174
     0
 93
        1
 44
0.0
173
     0
291
     0
 45
0.0
1001
ACAD
1000
AcDbSavedByObjectVersion
1070
     0
  0
VISUALSTYLE
  5
406
102
{ACAD_XDICTIONARY
360
4F3
102
}
102
{ACAD_REACTORS
330
3FF
102
}
330
3FF
100
AcDbVisualStyle
  2
3dWireframe
 70
     5
 71
     0
 72
     2
 73
     0
 90
        0
 40
-0.6
 41
-30.0
 62
     5
 63
     7
 74
     1
 91
        4
 64
     7
 65
   257
 75
     1
175
     1
 42
1.0
 92
        0
 66
   257
 43
1.0
 76
     1
 77
     6
 78
     2
 67
     7
 79
     5
170
     0
171
     0
290
     0
174
     0
 93
        1
 44
0.0
173
     0
291
     0
 45
0.0
1001
ACAD
1000
AcDbSavedByObjectVersion
1070
     0
  0
VISUALSTYLE
  5
404
102
{ACAD_XDICTIONARY
360
4EF
102
}
102
{ACAD_REACTORS
330
3FF
102
}
330
3FF
100
AcDbVisualStyle
  2
Basic
 70
     7
 71
     1
 72
     0
 73
     1
 90
        0
 40
-0.6
 41
-30.0
 62
     5
 63
     7
 74
     0
 91
        4
 64
     7
 65
   257
 75
     1
175
     1
 42
1.0
 92
        8
 66
     7
 43
1.0
 76
     1
 77
     6
 78
     2
 67
     7
 79
     5
170
     0
171
     0
290
     0
174
     0
 93
        1
 44
0.0
173
     0
291
     1
 45
0.0
1001
ACAD
1000
AcDbSavedByObjectVersion
1070
     0
  0
VISUALSTYLE
  5
40B
102
{ACAD_XDICTIONARY
360
4FD
102
}
102
{ACAD_REACTORS
330
3FF
102
}
330
3FF
100
AcDbVisualStyle
  2
Brighten
 70
    12
 71
     2
 72
     2
 73
     0
 90
        0
 40
-0.6
 41
-30.0
 62
     5
 63
     7
 74
     1
 91
        4
 64
     7
 65
   257
 75
     1
175
     1
 42
1.0
 92
        8
 66
     7
 43
1.0
 76
     1
 77
     6
 78
     2
 67
     7
 79
     5
170
     0
171
     0
290
     0
174
     0
 93
        1
 44
50.0
173
     0
291
     1
 45
0.0
1001
ACAD
1000
AcDbSavedByObjectVersion
1070
     0
  0
VISUALSTYLE
  5
40F
102
{ACAD_XDICTIONARY
360
505
102
}
102
{ACAD_REACTORS
330
3FF
102
}
330
3FF
100
AcDbVisualStyle
  2
ColorChange
 70
    16
 71
     2
 72
     2
 73
     3
 90
        0
 40
-0.6
 41
-30.0
 62
     5
 63
     8
 74
     1
 91
        4
 64
     7
 65
   257
 75
     1
175
     1
 42
1.0
 92
        8
 66
     8
 43
1.0
 76
     1
 77
     6
 78
     2
 67
     7
 79
     5
170
     0
171
     0
290
     0
174
     0
 93
        1
 44
0.0
173
     0
291
     1
 45
0.0
1001
ACAD
1000
AcDbSavedByObjectVersion
1070
     0
  0
VISUALSTYLE
  5
408
102
{ACAD_XDICTIONARY
360
4F7
102
}
102
{ACAD_REACTORS
330
3FF
102
}
330
3FF
100
AcDbVisualStyle
  2
Conceptual
 70
     9
 71
     3
 72
     2
 73
     0
 90
        0
 40
-0.6
 41
-30.0
 62
     5
 63
     7
 74
     2
 91
        2
 64
     7
 65
   257
 75
     1
175
     1
 42
179.0
 92
        8
 66
     7
 43
1.0
 76
     1
 77
     6
 78
     2
 67
     7
 79
     3
170
     0
171
     0
290
     0
174
     0
 93
        1
 44
0.0
173
     0
291
     0
 45
0.0
1001
ACAD
1000
AcDbSavedByObjectVersion
1070
     0
  0
VISUALSTYLE
  5
40A
102
{ACAD_XDICTIONARY
360
4FB
102
}
102
{ACAD_REACTORS
330
3FF
102
}
330
3FF
100
AcDbVisualStyle
  2
Dim
 70
    11
 71
     2
 72
     2
 73
     0
 90
        0
 40
-0.6
 41
-30.0
 62
     5
 63
     7
 74
     1
 91
        4
 64
     7
 65
   257
 75
     1
175
     1
 42
1.0
 92
        8
 66
     7
 43
1.0
 76
     1
 77
     6
 78
     2
 67
     7
 79
     5
170
     0
171
     0
290
     0
174
     0
 93
        1
 44
-50.0
173
     0
291
     1
 45
0.0
1001
ACAD
1000
AcDbSavedByObjectVersion
1070
     0
  0
VISUALSTYLE
  5
412
102
{ACAD_XDICTIONARY
360
50B
102
}
102
{ACAD_REACTORS
330
3FF
102
}
330
3FF
100
AcDbVisualStyle
  2
EdgeColorOff
 70
    22
 71
     2
 72
     2
 73
     0
 90
        0
 40
-0.6
 41
-30.0
 62
     5
 63
     7
 74
     1
 91
        4
 64
     7
 65
   257
 75
     1
175
     1
 42
1.0
 92
        8
 66
     7
 43
1.0
 76
     1
 77
     6
 78
     2
 67
     7
 79
     5
170
     0
171
     0
290
     0
174
     0
 93
        1
 44
0.0
173
     0
291
     1
 45
0.0
1001
ACAD
1000
AcDbSavedByObjectVersion
1070
     0
  0
VISUALSTYLE
  5
40E
102
{ACAD_XDICTIONARY
360
503
102
}
102
{ACAD_REACTORS
330
3FF
102
}
330
3FF
100
AcDbVisualStyle
  2
Facepattern
 70
    15
 71
     2
 72
     2
 73
     0
 90
        0
 40
-0.6
 41
-30.0
 62
     5
 63
     7
 74
     1
 91
        4
 64
     7
 65
   257
 75
     1
175
     1
 42
1.0
 92
        8
 66
     7
 43
1.0
 76
     1
 77
     6
 78
     2
 67
     7
 79
     5
170
     0
171
     0
290
     0
174
     0
 93
        1
 44
0.0
173
     0
291
     1
 45
0.0
1001
ACAD
1000
AcDbSavedByObjectVersion
1070
     0
  0
VISUALSTYLE
  5
400
102
{ACAD_XDICTIONARY
360
4E7
102
}
102
{ACAD_REACTORS
330
3FF
102
}
330
3FF
100
AcDbVisualStyle
  2
Flat
 70
     0
 71
     2
 72
     1
 73
     1
 90
        2
 40
-0.6
 41
30.0
 62
     5
 63
     7
 74
     0
 91
        4
 64
     7
 65
   257
 75
     1
175
     1
 42
1.0
 92
        8
 66
     7
 43
1.0
 76
     1
 77
     6
 78
     2
 67
     7
 79
     5
170
     0
171
     0
290
     0
174
     0
 93
       13
 44
0.0
173
     0
291
     1
 45
0.0
1001
ACAD
1000
AcDbSavedByObjectVersion
1070
     0
  0
VISUALSTYLE
  5
401
102
{ACAD_XDICTIONARY
360
4E9
102
}
102
{ACAD_REACTORS
330
3FF
102
}
330
3FF
100
AcDbVisualStyle
  2
FlatWithEdges
 70
     1
 71
     2
 72
     1
 73
     1
 90
        2
 40
-0.6
 41
30.0
 62
     5
 63
     7
 74
     1
 91
        4
 64
     7
 65
   257
 75
     1
175
     1
 42
1.0
 92
        0
 66
   257
 43
1.0
 76
     1
 77
     6
 78
     2
 67
     7
 79
     5
170
     0
171
     0
290
     0
174
     0
 93
       13
 44
0.0
173
     0
291
     1
 45
0.0
1001
ACAD
1000
AcDbSavedByObjectVersion
1070
     0
  0
VISUALSTYLE
  5
402
102
{ACAD_XDICTIONARY
360
4EB
102
}
102
{ACAD_REACTORS
330
3FF
102
}
330
3FF
100
AcDbVisualStyle
  2
Gouraud
 70
     2
 71
     2
 72
     2
 73
     1
 90
        2
 40
-0.6
 41
30.0
 62
     5
 63
     7
 74
     0
 91
        4
 64
     7
 65
   257
 75
     1
175
     1
 42
1.0
 92
        0
 66
     7
 43
1.0
 76
     1
 77
     6
 78
     2
 67
     7
 79
     5
170
     0
171
     0
290
     0
174
     0
 93
       13
 44
0.0
173
     0
291
     1
 45
0.0
1001
ACAD
1000
AcDbSavedByObjectVersion
1070
     0
  0
VISUALSTYLE
  5
403
102
{ACAD_XDICTIONARY
360
4ED
102
}
102
{ACAD_REACTORS
330
3FF
102
}
330
3FF
100
AcDbVisualStyle
  2
GouraudWithEdges
 70
     3
 71
     2
 72
     2
 73
     1
 90
        2
 40
-0.6
 41
30.0
 62
     5
 63
     7
 74
     1
 91
        4
 64
     7
 65
   257
 75
     1
175
     1
 42
1.0
 92
        0
 66
   257
 43
1.0
 76
     1
 77
     6
 78
     2
 67
     7
 79
     5
170
     0
171
     0
290
     0
174
     0
 93
       13
 44
0.0
173
     0
291
     1
 45
0.0
1001
ACAD
1000
AcDbSavedByObjectVersion
1070
     0
  0
VISUALSTYLE
  5
4D3
102
{ACAD_XDICTIONARY
360
520
102
}
102
{ACAD_REACTORS
330
3FF
102
}
330
3FF
100
AcDbVisualStyle
  2
Hidden
 70
     6
 71
     1
 72
     2
 73
     2
 90
        0
 40
-0.6
 41
-30.0
 62
     5
 63
     7
 74
     2
 91
        2
 64
     7
 65
   257
 75
     2
175
     1
 42
40.0
 92
        0
 66
   257
 43
1.0
 76
     1
 77
     6
 78
     2
 67
     7
 79
     3
170
     0
171
     0
290
     0
174
     0
 93
        1
 44
0.0
173
     0
291
     0
 45
0.0
1001
ACAD
1000
AcDbSavedByObjectVersion
1070
     0
  0
VISUALSTYLE
  5
410
102
{ACAD_XDICTIONARY
360
507
102
}
102
{ACAD_REACTORS
330
3FF
102
}
330
3FF
100
AcDbVisualStyle
  2
JitterOff
 70
    20
 71
     2
 72
     2
 73
     0
 90
        0
 40
-0.6
 41
-30.0
 62
     5
 63
     7
 74
     1
 91
        4
 64
     7
 65
   257
 75
     1
175
     1
 42
1.0
 92
       10
 66
     7
 43
1.0
 76
     1
 77
     6
 78
     2
 67
     7
 79
     5
170
     0
171
     0
290
     0
174
     0
 93
        1
 44
0.0
173
     0
291
     1
 45
0.0
1001
ACAD
1000
AcDbSavedByObjectVersion
1070
     0
  0
VISUALSTYLE
  5
40D
102
{ACAD_XDICTIONARY
360
501
102
}
102
{ACAD_REACTORS
330
3FF
102
}
330
3FF
100
AcDbVisualStyle
  2
Linepattern
 70
    14
 71
     2
 72
     2
 73
     0
 90
        0
 40
-0.6
 41
-30.0
 62
     5
 63
     7
 74
     1
 91
        4
 64
     7
 65
   257
 75
     7
175
     7
 42
1.0
 92
        8
 66
     7
 43
1.0
 76
     1
 77
     6
 78
     2
 67
     7
 79
     5
170
     0
171
     0
290
     0
174
     0
 93
        1
 44
0.0
173
     0
291
     1
 45
0.0
1001
ACAD
1000
AcDbSavedByObjectVersion
1070
     0
  0
VISUALSTYLE
  5
411
102
{ACAD_XDICTIONARY
360
509
102
}
102
{ACAD_REACTORS
330
3FF
102
}
330
3FF
100
AcDbVisualStyle
  2
OverhangOff
 70
    21
 71
     2
 72
     2
 73
     0
 90
        0
 40
-0.6
 41
-30.0
 62
     5
 63
     7
 74
     1
 91
        4
 64
     7
 65
   257
 75
     1
175
     1
 42
1.0
 92
        9
 66
     7
 43
1.0
 76
     1
 77
     6
 78
     2
 67
     7
 79
     5
170
     0
171
     0
290
     0
174
     0
 93
        1
 44
0.0
173
     0
291
     1
 45
0.0
1001
ACAD
1000
AcDbSavedByObjectVersion
1070
     0
  0
VISUALSTYLE
  5
409
102
{ACAD_XDICTIONARY
360
4F9
102
}
102
{ACAD_REACTORS
330
3FF
102
}
330
3FF
100
AcDbVisualStyle
  2
Realistic
 70
     8
 71
     2
 72
     2
 73
     0
 90
        0
 40
-0.6
 41
-30.0
 62
     5
 63
     7
 74
     1
 91
        0
 64
     7
 65
   257
 75
     1
175
     1
 42
1.0
 92
        8
 66
     8
 43
1.0
 76
     1
 77
     6
 78
     2
 67
     7
 79
     5
170
     0
171
     0
290
     0
174
     0
 93
       13
 44
0.0
173
     0
291
     0
 45
0.0
1001
ACAD
1000
AcDbSavedByObjectVersion
1070
     0
  0
VISUALSTYLE
  5
4D8
102
{ACAD_XDICTIONARY
360
52A
102
}
102
{ACAD_REACTORS
330
3FF
102
}
330
3FF
100
AcDbVisualStyle
  2
Shaded
 70
    27
 71
     2
 72
     2
 73
     1
 90
        2
 40
-0.6
 41
30.0
 62
     5
 63
     7
 74
     0
 91
        4
 64
     7
 65
   257
 75
     1
175
     1
 42
1.0
 92
        8
 66
   257
 43
1.0
 76
     1
 77
     6
 78
     2
 67
     8
 79
     3
170
     0
171
     0
290
     0
174
     0
 93
        5
 44
0.0
173
     0
291
     0
 45
0.0
1001
ACAD
1000
AcDbSavedByObjectVersion
1070
     0
  0
VISUALSTYLE
  5
4D7
102
{ACAD_XDICTIONARY
360
528
102
}
102
{ACAD_REACTORS
330
3FF
102
}
330
3FF
100
AcDbVisualStyle
  2
Shaded with edges
 70
    26
 71
     2
 72
     2
 73
     1
 90
        2
 40
-0.6
 41
30.0
 62
     5
 63
     7
 74
     1
 91
       10
 64
     7
 65
   257
 75
     2
175
     1
 42
1.0
 92
        8
 66
   257
 43
1.0
 76
     1
 77
     6
 78
     2
 67
     7
 79
     3
170
     0
171
     0
290
     0
174
     0
 93
        5
 44
0.0
173
     0
291
     0
 45
0.0
1001
ACAD
1000
AcDbSavedByObjectVersion
1070
     0
  0
VISUALSTYLE
  5
4D4
102
{ACAD_XDICTIONARY
360
522
102
}
102
{ACAD_REACTORS
330
3FF
102
}
330
3FF
100
AcDbVisualStyle
  2
Shades of Gray
 70
    23
 71
     2
 72
     2
 73
     3
 90
        0
 40
-0.6
 41
-30.0
 62
     5
 63
     7
 74
     2
 91
        2
 64
     7
 65
     7
 75
     1
175
     1
 42
40.0
 92
        8
 66
     7
 43
1.0
 76
     1
 77
     6
 78
     2
 67
     7
 79
     3
170
     0
171
     0
290
     0
174
     0
 93
        1
 44
0.0
173
     0
291
     0
 45
0.0
1001
ACAD
1000
AcDbSavedByObjectVersion
1070
     0
  0
VISUALSTYLE
  5
4D5
102
{ACAD_XDICTIONARY
360
524
102
}
102
{ACAD_REACTORS
330
3FF
102
}
330
3FF
100
AcDbVisualStyle
  2
Sketchy
 70
    24
 71
     1
 72
     2
 73
     2
 90
        0
 40
-0.6
 41
-30.0
 62
     5
 63
     7
 74
     2
 91
        2
 64
     7
 65
     7
 75
     1
175
     1
 42
40.0
 92
       11
 66
     7
 43
1.0
 76
     1
 77
     6
 78
     2
 67
     7
 79
     6
170
     0
171
     0
290
     0
174
     0
 93
        1
 44
0.0
173
     0
291
     0
 45
0.0
1001
ACAD
1000
AcDbSavedByObjectVersion
1070
     0
  0
VISUALSTYLE
  5
40C
102
{ACAD_XDICTIONARY
360
4FF
102
}
102
{ACAD_REACTORS
330
3FF
102
}
330
3FF
100
AcDbVisualStyle
  2
Thicken
 70
    13
 71
     2
 72
     2
 73
     0
 90
        0
 40
-0.6
 41
-30.0
 62
     5
 63
     7
 74
     1
 91
        4
 64
     7
 65
   257
 75
     1
175
     1
 42
1.0
 92
       12
 66
     7
 43
1.0
 76
     1
 77
     6
 78
     2
 67
     7
 79
     5
170
     0
171
     0
290
     0
174
     0
 93
        1
 44
0.0
173
     0
291
     1
 45
0.0
1001
ACAD
1000
AcDbSavedByObjectVersion
1070
     0
  0
VISUALSTYLE
  5
4D2
102
{ACAD_XDICTIONARY
360
51E
102
}
102
{ACAD_REACTORS
330
3FF
102
}
330
3FF
100
AcDbVisualStyle
  2
Wireframe
 70
     5
 71
     0
 72
     2
 73
     0
 90
        0
 40
-0.6
 41
-30.0
 62
     5
 63
     7
 74
     1
 91
        4
 64
     7
 65
   257
 75
     1
175
     1
 42
1.0
 92
        0
 66
   257
 43
1.0
 76
     1
 77
     6
 78
     2
 67
     7
 79
     3
170
     0
171
     0
290
     0
174
     0
 93
        1
 44
0.0
173
     0
291
     0
 45
0.0
1001
ACAD
1000
AcDbSavedByObjectVersion
1070
     0
  0
VISUALSTYLE
  5
4D6
102
{ACAD_XDICTIONARY
360
526
102
}
102
{ACAD_REACTORS
330
3FF
102
}
330
3FF
100
AcDbVisualStyle
  2
X-Ray
 70
    25
 71
     2
 72
     2
 73
     1
 90
        1
 40
0.5
 41
-30.0
 62
     5
 63
     7
 74
     1
 91
        0
 64
     7
 65
   257
 75
     1
175
     1
 42
1.0
 92
        8
 66
     7
 43
1.0
 76
     1
 77
     6
 78
     2
 67
     7
 79
     3
170
     0
171
     0
290
     0
174
     0
 93
       13
 44
0.0
173
     0
291
     0
 45
0.0
1001
ACAD
1000
AcDbSavedByObjectVersion
1070
     0
  0
DICTIONARYVAR
  5
4CC
102
{ACAD_REACTORS
330
4C8
102
}
330
4C8
100
DictionaryVariables
280
     0
  1
1:1
  0
DICTIONARYVAR
  5
4CA
102
{ACAD_REACTORS
330
4C8
102
}
330
4C8
100
DictionaryVariables
280
     0
  1
STANDARD
  0
DICTIONARYVAR
  5
4C9
102
{ACAD_REACTORS
330
4C8
102
}
330
4C8
100
DictionaryVariables
280
     0
  1
STANDARD
  0
DICTIONARYVAR
  5
4CF
102
{ACAD_REACTORS
330
4C8
102
}
330
4C8
100
DictionaryVariables
280
     0
  1
1
  0
DICTIONARYVAR
  5
4CB
102
{ACAD_REACTORS
330
4C8
102
}
330
4C8
100
DictionaryVariables
280
     0
  1
0
  0
DICTIONARYVAR
  5
4CE
102
{ACAD_REACTORS
330
4C8
102
}
330
4C8
100
DictionaryVariables
280
     0
  1
0
  0
DICTIONARYVAR
  5
4CD
102
{ACAD_REACTORS
330
4C8
102
}
330
4C8
100
DictionaryVariables
280
     0
  1
127
  0
DICTIONARYVAR
  5
4DE
102
{ACAD_REACTORS
330
4C8
102
}
330
4C8
100
DictionaryVariables
280
     0
  1
2
  0
XRECORD
  5
485
102
{ACAD_REACTORS
330
483
102
}
330
483
100
AcDbXrecord
280
     1
330
C1
330
CA
330
D3
330
DC
330
E5
330
EC
330
FB
330
104
330
10D
330
114
330
123
330
12A
330
165
330
166
330
170
330
179
330
17E
330
181
330
189
330
18A
330
191
330
194
330
197
330
19A
330
19D
330
1A0
330
1A3
330
1A6
330
1A9
330
1AC
330
1AF
  0
XRECORD
  5
443
102
{ACAD_REACTORS
330
442
102
}
330
442
100
AcDbXrecord
280
     1
 91
        1
  0
ACAD_PROXY_OBJECT
  5
440
102
{ACAD_REACTORS
330
43F
102
}
330
43F
100
AcDbProxyObject
 90
      499
 91
      529
 95
   983063
 70
     0
 93
       88
310
4050844454641554C5400E00
 94
        0
1001
ACAD
1000
AcRTDxfName
1000
ACDBQSCATEGORY
  0
XRECORD
  5
481
102
{ACAD_REACTORS
330
47F
102
}
330
47F
100
AcDbXrecord
280
     1
  9
X4a51
  0
XRECORD
  5
480
102
{ACAD_REACTORS
330
47F
102
}
330
47F
100
AcDbXrecord
280
     1
  2
TOP
  3
P-0000
280
     1
310
6465736372697A696F6E6500544F5000444154410033302F31322F313000554D004E520052455600300044495345474E41544F5245004D2E43617075616E6F005343414C4100313A310000
 10
0.0
 20
0.0
 30
0.0
  0
XRECORD
  5
44A
102
{ACAD_REACTORS
330
449
102
}
330
449
100
AcDbXrecord
280
     1
 90
      202
 91
      144
  0
DICTIONARY
  5
510
330
439
100
AcDbDictionary
280
     1
281
     1
  3
ACAD_XREC_ROUNDTRIP
360
511
  0
DICTIONARY
  5
50E
330
438
100
AcDbDictionary
280
     1
281
     1
  3
ACAD_XREC_ROUNDTRIP
360
50F
  0
DICTIONARY
  5
3F0
330
3EF
100
AcDbDictionary
280
     1
281
     1
  3
ACAD_XREC_ROUNDTRIP
360
4E5
  3
BUMPTILE
360
3F2
  3
DIFFUSETILE
360
3F1
  3
OPACITYTILE
360
3F5
  3
REFLECTIONTILE
360
3F4
  3
REFRACTIONTILE
360
3F6
  3
SPECULARTILE
360
3F3
  0
DICTIONARY
  5
3E8
330
3E7
100
AcDbDictionary
280
     1
281
     1
  3
ACAD_XREC_ROUNDTRIP
360
4E4
  3
BUMPTILE
360
3EA
  3
DIFFUSETILE
360
3E9
  3
OPACITYTILE
360
3ED
  3
REFLECTIONTILE
360
3EC
  3
REFRACTIONTILE
360
3EE
  3
SPECULARTILE
360
3EB
  0
DICTIONARY
  5
3F8
330
3F7
100
AcDbDictionary
280
     1
281
     1
  3
ACAD_XREC_ROUNDTRIP
360
4E6
  3
BUMPTILE
360
3FA
  3
DIFFUSETILE
360
3F9
  3
OPACITYTILE
360
3FD
  3
REFLECTIONTILE
360
3FC
  3
REFRACTIONTILE
360
3FE
  3
SPECULARTILE
360
3FB
  0
DICTIONARY
  5
512
330
45E
100
AcDbDictionary
280
     1
281
     1
  3
ACAD_XREC_ROUNDTRIP
360
513
  0
DICTIONARY
  5
514
330
45F
100
AcDbDictionary
280
     1
281
     1
  3
ACAD_XREC_ROUNDTRIP
360
515
  0
DICTIONARY
  5
516
330
460
100
AcDbDictionary
280
     1
281
     1
  3
ACAD_XREC_ROUNDTRIP
360
517
  0
DICTIONARY
  5
518
330
461
100
AcDbDictionary
280
     1
281
     1
  3
ACAD_XREC_ROUNDTRIP
360
519
  0
DICTIONARY
  5
51A
330
462
100
AcDbDictionary
280
     1
281
     1
  3
ACAD_XREC_ROUNDTRIP
360
51B
  0
DICTIONARY
  5
464
330
463
100
AcDbDictionary
280
     1
281
     1
  3
ACAD_ROUNDTRIP_2008_TABLESTYLE_CELLSTYLEMAP
360
4E0
  3
ACAD_XREC_ROUNDTRIP
360
51C
  0
DICTIONARY
  5
466
330
465
100
AcDbDictionary
280
     1
281
     1
  3
ACAD_ROUNDTRIP_2008_TABLESTYLE_CELLSTYLEMAP
360
4E1
  3
ACAD_XREC_ROUNDTRIP
360
51D
  0
DICTIONARY
  5
486
330
437
100
AcDbDictionary
280
     1
281
     1
  3
ACAD_ROUNDTRIP_2008_TABLESTYLE_CELLSTYLEMAP
360
4DF
  3
ACAD_XREC_ROUNDTRIP
360
50D
  0
DICTIONARY
  5
4F1
330
405
100
AcDbDictionary
280
     1
281
     1
  3
ACAD_XREC_ROUNDTRIP
360
4F2
  0
DICTIONARY
  5
4F5
330
407
100
AcDbDictionary
280
     1
281
     1
  3
ACAD_XREC_ROUNDTRIP
360
4F6
  0
DICTIONARY
  5
4F3
330
406
100
AcDbDictionary
280
     1
281
     1
  3
ACAD_XREC_ROUNDTRIP
360
4F4
  0
DICTIONARY
  5
4EF
330
404
100
AcDbDictionary
280
     1
281
     1
  3
ACAD_XREC_ROUNDTRIP
360
4F0
  0
DICTIONARY
  5
4FD
330
40B
100
AcDbDictionary
280
     1
281
     1
  3
ACAD_XREC_ROUNDTRIP
360
4FE
  0
DICTIONARY
  5
505
330
40F
100
AcDbDictionary
280
     1
281
     1
  3
ACAD_XREC_ROUNDTRIP
360
506
  0
DICTIONARY
  5
4F7
330
408
100
AcDbDictionary
280
     1
281
     1
  3
ACAD_XREC_ROUNDTRIP
360
4F8
  0
DICTIONARY
  5
4FB
330
40A
100
AcDbDictionary
280
     1
281
     1
  3
ACAD_XREC_ROUNDTRIP
360
4FC
  0
DICTIONARY
  5
50B
330
412
100
AcDbDictionary
280
     1
281
     1
  3
ACAD_XREC_ROUNDTRIP
360
50C
  0
DICTIONARY
  5
503
330
40E
100
AcDbDictionary
280
     1
281
     1
  3
ACAD_XREC_ROUNDTRIP
360
504
  0
DICTIONARY
  5
4E7
330
400
100
AcDbDictionary
280
     1
281
     1
  3
ACAD_XREC_ROUNDTRIP
360
4E8
  0
DICTIONARY
  5
4E9
330
401
100
AcDbDictionary
280
     1
281
     1
  3
ACAD_XREC_ROUNDTRIP
360
4EA
  0
DICTIONARY
  5
4EB
330
402
100
AcDbDictionary
280
     1
281
     1
  3
ACAD_XREC_ROUNDTRIP
360
4EC
  0
DICTIONARY
  5
4ED
330
403
100
AcDbDictionary
280
     1
281
     1
  3
ACAD_XREC_ROUNDTRIP
360
4EE
  0
DICTIONARY
  5
520
330
4D3
100
AcDbDictionary
280
     1
281
     1
  3
ACAD_XREC_ROUNDTRIP
360
521
  0
DICTIONARY
  5
507
330
410
100
AcDbDictionary
280
     1
281
     1
  3
ACAD_XREC_ROUNDTRIP
360
508
  0
DICTIONARY
  5
501
330
40D
100
AcDbDictionary
280
     1
281
     1
  3
ACAD_XREC_ROUNDTRIP
360
502
  0
DICTIONARY
  5
509
330
411
100
AcDbDictionary
280
     1
281
     1
  3
ACAD_XREC_ROUNDTRIP
360
50A
  0
DICTIONARY
  5
4F9
330
409
100
AcDbDictionary
280
     1
281
     1
  3
ACAD_XREC_ROUNDTRIP
360
4FA
  0
DICTIONARY
  5
52A
330
4D8
100
AcDbDictionary
280
     1
281
     1
  3
ACAD_XREC_ROUNDTRIP
360
52B
  0
DICTIONARY
  5
528
330
4D7
100
AcDbDictionary
280
     1
281
     1
  3
ACAD_XREC_ROUNDTRIP
360
529
  0
DICTIONARY
  5
522
330
4D4
100
AcDbDictionary
280
     1
281
     1
  3
ACAD_XREC_ROUNDTRIP
360
523
  0
DICTIONARY
  5
524
330
4D5
100
AcDbDictionary
280
     1
281
     1
  3
ACAD_XREC_ROUNDTRIP
360
525
  0
DICTIONARY
  5
4FF
330
40C
100
AcDbDictionary
280
     1
281
     1
  3
ACAD_XREC_ROUNDTRIP
360
500
  0
DICTIONARY
  5
51E
330
4D2
100
AcDbDictionary
280
     1
281
     1
  3
ACAD_XREC_ROUNDTRIP
360
51F
  0
DICTIONARY
  5
526
330
4D6
100
AcDbDictionary
280
     1
281
     1
  3
ACAD_XREC_ROUNDTRIP
360
527
  0
XRECORD
  5
511
102
{ACAD_REACTORS
330
510
102
}
330
510
100
AcDbXrecord
280
     1
102
SHADEPLOT
 70
     0
102
SHADEPLOTRESLEVEL
 70
     2
102
SHADEPLOTCUSTOMDPI
 70
   300
  0
XRECORD
  5
50F
102
{ACAD_REACTORS
330
50E
102
}
330
50E
100
AcDbXrecord
280
     1
102
SHADEPLOT
 70
     0
102
SHADEPLOTRESLEVEL
 70
     2
102
SHADEPLOTCUSTOMDPI
 70
   300
  0
XRECORD
  5
4E5
102
{ACAD_REACTORS
330
3F0
102
}
330
3F0
100
AcDbXrecord
280
     1
102
MATERIAL
148
0.0
149
0.0
149
0.0
 93
        0
 94
      127
282
     0
 72
     0
 77
     0
171
     0
175
     0
179
     0
273
     0
  0
XRECORD
  5
3F2
102
{ACAD_REACTORS
330
3F0
102
}
330
3F0
100
AcDbXrecord
280
     1
270
     1
271
     1
  0
XRECORD
  5
3F1
102
{ACAD_REACTORS
330
3F0
102
}
330
3F0
100
AcDbXrecord
280
     1
270
     1
271
     1
  0
XRECORD
  5
3F5
102
{ACAD_REACTORS
330
3F0
102
}
330
3F0
100
AcDbXrecord
280
     1
270
     1
271
     1
  0
XRECORD
  5
3F4
102
{ACAD_REACTORS
330
3F0
102
}
330
3F0
100
AcDbXrecord
280
     1
270
     1
271
     1
  0
XRECORD
  5
3F6
102
{ACAD_REACTORS
330
3F0
102
}
330
3F0
100
AcDbXrecord
280
     1
270
     1
271
     1
  0
XRECORD
  5
3F3
102
{ACAD_REACTORS
330
3F0
102
}
330
3F0
100
AcDbXrecord
280
     1
270
     1
271
     1
  0
XRECORD
  5
4E4
102
{ACAD_REACTORS
330
3E8
102
}
330
3E8
100
AcDbXrecord
280
     1
102
MATERIAL
148
0.0
149
0.0
149
0.0
 93
        0
 94
      127
282
     0
 72
     0
 77
     0
171
     0
175
     0
179
     0
273
     0
  0
XRECORD
  5
3EA
102
{ACAD_REACTORS
330
3E8
102
}
330
3E8
100
AcDbXrecord
280
     1
270
     1
271
     1
  0
XRECORD
  5
3E9
102
{ACAD_REACTORS
330
3E8
102
}
330
3E8
100
AcDbXrecord
280
     1
270
     1
271
     1
  0
XRECORD
  5
3ED
102
{ACAD_REACTORS
330
3E8
102
}
330
3E8
100
AcDbXrecord
280
     1
270
     1
271
     1
  0
XRECORD
  5
3EC
102
{ACAD_REACTORS
330
3E8
102
}
330
3E8
100
AcDbXrecord
280
     1
270
     1
271
     1
  0
XRECORD
  5
3EE
102
{ACAD_REACTORS
330
3E8
102
}
330
3E8
100
AcDbXrecord
280
     1
270
     1
271
     1
  0
XRECORD
  5
3EB
102
{ACAD_REACTORS
330
3E8
102
}
330
3E8
100
AcDbXrecord
280
     1
270
     1
271
     1
  0
XRECORD
  5
4E6
102
{ACAD_REACTORS
330
3F8
102
}
330
3F8
100
AcDbXrecord
280
     1
102
MATERIAL
148
0.0
149
0.0
149
0.0
 93
        0
 94
      127
282
     0
 72
     0
 77
     0
171
     0
175
     0
179
     0
273
     0
  0
XRECORD
  5
3FA
102
{ACAD_REACTORS
330
3F8
102
}
330
3F8
100
AcDbXrecord
280
     1
270
     1
271
     1
  0
XRECORD
  5
3F9
102
{ACAD_REACTORS
330
3F8
102
}
330
3F8
100
AcDbXrecord
280
     1
270
     1
271
     1
  0
XRECORD
  5
3FD
102
{ACAD_REACTORS
330
3F8
102
}
330
3F8
100
AcDbXrecord
280
     1
270
     1
271
     1
  0
XRECORD
  5
3FC
102
{ACAD_REACTORS
330
3F8
102
}
330
3F8
100
AcDbXrecord
280
     1
270
     1
271
     1
  0
XRECORD
  5
3FE
102
{ACAD_REACTORS
330
3F8
102
}
330
3F8
100
AcDbXrecord
280
     1
270
     1
271
     1
  0
XRECORD
  5
3FB
102
{ACAD_REACTORS
330
3F8
102
}
330
3F8
100
AcDbXrecord
280
     1
270
     1
271
     1
  0
XRECORD
  5
513
102
{ACAD_REACTORS
330
512
102
}
330
512
100
AcDbXrecord
280
     1
102
SHADEPLOT
 70
     0
102
SHADEPLOTRESLEVEL
 70
     2
102
SHADEPLOTCUSTOMDPI
 70
   300
  0
XRECORD
  5
515
102
{ACAD_REACTORS
330
514
102
}
330
514
100
AcDbXrecord
280
     1
102
SHADEPLOT
 70
     0
102
SHADEPLOTRESLEVEL
 70
     2
102
SHADEPLOTCUSTOMDPI
 70
   300
  0
XRECORD
  5
517
102
{ACAD_REACTORS
330
516
102
}
330
516
100
AcDbXrecord
280
     1
102
SHADEPLOT
 70
     0
102
SHADEPLOTRESLEVEL
 70
     2
102
SHADEPLOTCUSTOMDPI
 70
   300
  0
XRECORD
  5
519
102
{ACAD_REACTORS
330
518
102
}
330
518
100
AcDbXrecord
280
     1
102
SHADEPLOT
 70
     0
102
SHADEPLOTRESLEVEL
 70
     2
102
SHADEPLOTCUSTOMDPI
 70
   300
  0
XRECORD
  5
51B
102
{ACAD_REACTORS
330
51A
102
}
330
51A
100
AcDbXrecord
280
     1
102
SHADEPLOT
 70
     0
102
SHADEPLOTRESLEVEL
 70
     2
102
SHADEPLOTCUSTOMDPI
 70
   300
  0
CELLSTYLEMAP
  5
4E0
102
{ACAD_REACTORS
330
464
102
}
330
464
100
AcDbCellStyleMap
 90
        3
300
CELLSTYLE
  1
TABLEFORMAT_BEGIN
 90
        5
170
     1
 91
        0
 92
    32768
 62
   257
 93
        1
300
CONTENTFORMAT
  1
CONTENTFORMAT_BEGIN
 90
        0
 91
        0
 92
      512
 93
        0
300

 40
0.0
140
1.0
 94
        5
 62
     1
340
450
144
6.0
309
CONTENTFORMAT_END
171
     1
301
MARGIN
  1
CELLMARGIN_BEGIN
 40
1.5
 40
1.5
 40
1.5
 40
1.5
 40
0.18
 40
0.18
309
CELLMARGIN_END
 94
        6
 95
        1
302
GRIDFORMAT
  1
GRIDFORMAT_BEGIN
 90
        0
 91
        1
 62
     0
 92
       -2
340
0
 93
        0
 40
0.045
309
GRIDFORMAT_END
 95
        2
302
GRIDFORMAT
  1
GRIDFORMAT_BEGIN
 90
        0
 91
        1
 62
     0
 92
       -2
340
0
 93
        0
 40
0.045
309
GRIDFORMAT_END
 95
        4
302
GRIDFORMAT
  1
GRIDFORMAT_BEGIN
 90
        0
 91
        1
 62
     0
 92
       -2
340
0
 93
        0
 40
0.045
309
GRIDFORMAT_END
 95
        8
302
GRIDFORMAT
  1
GRIDFORMAT_BEGIN
 90
        0
 91
        1
 62
     0
 92
       -2
340
0
 93
        0
 40
0.045
309
GRIDFORMAT_END
 95
       16
302
GRIDFORMAT
  1
GRIDFORMAT_BEGIN
 90
        0
 91
        1
 62
     0
 92
       -2
340
0
 93
        0
 40
0.045
309
GRIDFORMAT_END
 95
       32
302
GRIDFORMAT
  1
GRIDFORMAT_BEGIN
 90
        0
 91
        1
 62
     0
 92
       -2
340
0
 93
        0
 40
0.045
309
GRIDFORMAT_END
309
TABLEFORMAT_END
  1
CELLSTYLE_BEGIN
 90
        1
 91
        1
300
_TITLE
309
CELLSTYLE_END
300
CELLSTYLE
  1
TABLEFORMAT_BEGIN
 90
        5
170
     1
 91
        0
 92
        0
 62
   257
 93
        1
300
CONTENTFORMAT
  1
CONTENTFORMAT_BEGIN
 90
        0
 91
        0
 92
      512
 93
        0
300

 40
0.0
140
1.0
 94
        5
 62
     3
340
450
144
3.5
309
CONTENTFORMAT_END
171
     1
301
MARGIN
  1
CELLMARGIN_BEGIN
 40
1.5
 40
1.5
 40
1.5
 40
1.5
 40
0.18
 40
0.18
309
CELLMARGIN_END
 94
        6
 95
        1
302
GRIDFORMAT
  1
GRIDFORMAT_BEGIN
 90
        0
 91
        1
 62
     0
 92
       -2
340
0
 93
        0
 40
0.045
309
GRIDFORMAT_END
 95
        2
302
GRIDFORMAT
  1
GRIDFORMAT_BEGIN
 90
        0
 91
        1
 62
     0
 92
       -2
340
0
 93
        0
 40
0.045
309
GRIDFORMAT_END
 95
        4
302
GRIDFORMAT
  1
GRIDFORMAT_BEGIN
 90
        0
 91
        1
 62
     0
 92
       -2
340
0
 93
        0
 40
0.045
309
GRIDFORMAT_END
 95
        8
302
GRIDFORMAT
  1
GRIDFORMAT_BEGIN
 90
        0
 91
        1
 62
     0
 92
       -2
340
0
 93
        0
 40
0.045
309
GRIDFORMAT_END
 95
       16
302
GRIDFORMAT
  1
GRIDFORMAT_BEGIN
 90
        0
 91
        1
 62
     0
 92
       -2
340
0
 93
        0
 40
0.045
309
GRIDFORMAT_END
 95
       32
302
GRIDFORMAT
  1
GRIDFORMAT_BEGIN
 90
        0
 91
        1
 62
     0
 92
       -2
340
0
 93
        0
 40
0.045
309
GRIDFORMAT_END
309
TABLEFORMAT_END
  1
CELLSTYLE_BEGIN
 90
        2
 91
        1
300
_HEADER
309
CELLSTYLE_END
300
CELLSTYLE
  1
TABLEFORMAT_BEGIN
 90
        5
170
     1
 91
        0
 92
        0
 62
   257
 93
        1
300
CONTENTFORMAT
  1
CONTENTFORMAT_BEGIN
 90
        0
 91
        0
 92
      512
 93
        0
300

 40
0.0
140
1.0
 94
        5
 62
     7
340
450
144
3.0
309
CONTENTFORMAT_END
171
     1
301
MARGIN
  1
CELLMARGIN_BEGIN
 40
1.5
 40
1.5
 40
1.5
 40
1.5
 40
0.18
 40
0.18
309
CELLMARGIN_END
 94
        6
 95
        1
302
GRIDFORMAT
  1
GRIDFORMAT_BEGIN
 90
        0
 91
        1
 62
     0
 92
       -2
340
0
 93
        0
 40
0.045
309
GRIDFORMAT_END
 95
        2
302
GRIDFORMAT
  1
GRIDFORMAT_BEGIN
 90
        0
 91
        1
 62
     0
 92
       -2
340
0
 93
        0
 40
0.045
309
GRIDFORMAT_END
 95
        4
302
GRIDFORMAT
  1
GRIDFORMAT_BEGIN
 90
        0
 91
        1
 62
     0
 92
       -2
340
0
 93
        0
 40
0.045
309
GRIDFORMAT_END
 95
        8
302
GRIDFORMAT
  1
GRIDFORMAT_BEGIN
 90
        0
 91
        1
 62
     0
 92
       -2
340
0
 93
        0
 40
0.045
309
GRIDFORMAT_END
 95
       16
302
GRIDFORMAT
  1
GRIDFORMAT_BEGIN
 90
        0
 91
        1
 62
     0
 92
       -2
340
0
 93
        0
 40
0.045
309
GRIDFORMAT_END
 95
       32
302
GRIDFORMAT
  1
GRIDFORMAT_BEGIN
 90
        0
 91
        1
 62
     0
 92
       -2
340
0
 93
        0
 40
0.045
309
GRIDFORMAT_END
309
TABLEFORMAT_END
  1
CELLSTYLE_BEGIN
 90
        3
 91
        2
300
_DATA
309
CELLSTYLE_END
  0
XRECORD
  5
51C
102
{ACAD_REACTORS
330
464
102
}
330
464
100
AcDbXrecord
280
     1
102
ACAD_ROUNDTRIP_PRE2007_TABLESTYLE
 90
      512
 91
        0
  1

 92
      512
 93
        0
  2

 94
      512
 95
        0
  3

  0
CELLSTYLEMAP
  5
4E1
102
{ACAD_REACTORS
330
466
102
}
330
466
100
AcDbCellStyleMap
 90
        3
300
CELLSTYLE
  1
TABLEFORMAT_BEGIN
 90
        5
170
     1
 91
        0
 92
    32768
 62
   257
 93
        1
300
CONTENTFORMAT
  1
CONTENTFORMAT_BEGIN
 90
        0
 91
        0
 92
      512
 93
        0
300

 40
0.0
140
1.0
 94
        5
 62
     1
340
450
144
6.0
309
CONTENTFORMAT_END
171
     1
301
MARGIN
  1
CELLMARGIN_BEGIN
 40
1.5
 40
1.5
 40
1.5
 40
1.5
 40
0.18
 40
0.18
309
CELLMARGIN_END
 94
        6
 95
        1
302
GRIDFORMAT
  1
GRIDFORMAT_BEGIN
 90
        0
 91
        1
 62
     0
 92
       -2
340
0
 93
        0
 40
0.045
309
GRIDFORMAT_END
 95
        2
302
GRIDFORMAT
  1
GRIDFORMAT_BEGIN
 90
        0
 91
        1
 62
     0
 92
       -2
340
0
 93
        0
 40
0.045
309
GRIDFORMAT_END
 95
        4
302
GRIDFORMAT
  1
GRIDFORMAT_BEGIN
 90
        0
 91
        1
 62
     0
 92
       -2
340
0
 93
        0
 40
0.045
309
GRIDFORMAT_END
 95
        8
302
GRIDFORMAT
  1
GRIDFORMAT_BEGIN
 90
        0
 91
        1
 62
     0
 92
       -2
340
0
 93
        0
 40
0.045
309
GRIDFORMAT_END
 95
       16
302
GRIDFORMAT
  1
GRIDFORMAT_BEGIN
 90
        0
 91
        1
 62
     0
 92
       -2
340
0
 93
        0
 40
0.045
309
GRIDFORMAT_END
 95
       32
302
GRIDFORMAT
  1
GRIDFORMAT_BEGIN
 90
        0
 91
        1
 62
     0
 92
       -2
340
0
 93
        0
 40
0.045
309
GRIDFORMAT_END
309
TABLEFORMAT_END
  1
CELLSTYLE_BEGIN
 90
        1
 91
        1
300
_TITLE
309
CELLSTYLE_END
300
CELLSTYLE
  1
TABLEFORMAT_BEGIN
 90
        5
170
     1
 91
        0
 92
        0
 62
   257
 93
        1
300
CONTENTFORMAT
  1
CONTENTFORMAT_BEGIN
 90
        0
 91
        0
 92
      512
 93
        0
300

 40
0.0
140
1.0
 94
        5
 62
     3
340
450
144
5.0
309
CONTENTFORMAT_END
171
     1
301
MARGIN
  1
CELLMARGIN_BEGIN
 40
1.5
 40
1.5
 40
1.5
 40
1.5
 40
0.18
 40
0.18
309
CELLMARGIN_END
 94
        6
 95
        1
302
GRIDFORMAT
  1
GRIDFORMAT_BEGIN
 90
        0
 91
        1
 62
     0
 92
       -2
340
0
 93
        0
 40
0.045
309
GRIDFORMAT_END
 95
        2
302
GRIDFORMAT
  1
GRIDFORMAT_BEGIN
 90
        0
 91
        1
 62
     0
 92
       -2
340
0
 93
        0
 40
0.045
309
GRIDFORMAT_END
 95
        4
302
GRIDFORMAT
  1
GRIDFORMAT_BEGIN
 90
        0
 91
        1
 62
     0
 92
       -2
340
0
 93
        0
 40
0.045
309
GRIDFORMAT_END
 95
        8
302
GRIDFORMAT
  1
GRIDFORMAT_BEGIN
 90
        0
 91
        1
 62
     0
 92
       -2
340
0
 93
        0
 40
0.045
309
GRIDFORMAT_END
 95
       16
302
GRIDFORMAT
  1
GRIDFORMAT_BEGIN
 90
        0
 91
        1
 62
     0
 92
       -2
340
0
 93
        0
 40
0.045
309
GRIDFORMAT_END
 95
       32
302
GRIDFORMAT
  1
GRIDFORMAT_BEGIN
 90
        0
 91
        1
 62
     0
 92
       -2
340
0
 93
        0
 40
0.045
309
GRIDFORMAT_END
309
TABLEFORMAT_END
  1
CELLSTYLE_BEGIN
 90
        2
 91
        1
300
_HEADER
309
CELLSTYLE_END
300
CELLSTYLE
  1
TABLEFORMAT_BEGIN
 90
        5
170
     1
 91
        0
 92
        0
 62
   257
 93
        1
300
CONTENTFORMAT
  1
CONTENTFORMAT_BEGIN
 90
        0
 91
        0
 92
      512
 93
        0
300

 40
0.0
140
1.0
 94
        5
 62
     7
340
450
144
4.5
309
CONTENTFORMAT_END
171
     1
301
MARGIN
  1
CELLMARGIN_BEGIN
 40
1.5
 40
1.5
 40
1.5
 40
1.5
 40
0.18
 40
0.18
309
CELLMARGIN_END
 94
        6
 95
        1
302
GRIDFORMAT
  1
GRIDFORMAT_BEGIN
 90
        0
 91
        1
 62
     0
 92
       -2
340
0
 93
        0
 40
0.045
309
GRIDFORMAT_END
 95
        2
302
GRIDFORMAT
  1
GRIDFORMAT_BEGIN
 90
        0
 91
        1
 62
     0
 92
       -2
340
0
 93
        0
 40
0.045
309
GRIDFORMAT_END
 95
        4
302
GRIDFORMAT
  1
GRIDFORMAT_BEGIN
 90
        0
 91
        1
 62
     0
 92
       -2
340
0
 93
        0
 40
0.045
309
GRIDFORMAT_END
 95
        8
302
GRIDFORMAT
  1
GRIDFORMAT_BEGIN
 90
        0
 91
        1
 62
     0
 92
       -2
340
0
 93
        0
 40
0.045
309
GRIDFORMAT_END
 95
       16
302
GRIDFORMAT
  1
GRIDFORMAT_BEGIN
 90
        0
 91
        1
 62
     0
 92
       -2
340
0
 93
        0
 40
0.045
309
GRIDFORMAT_END
 95
       32
302
GRIDFORMAT
  1
GRIDFORMAT_BEGIN
 90
        0
 91
        1
 62
     0
 92
       -2
340
0
 93
        0
 40
0.045
309
GRIDFORMAT_END
309
TABLEFORMAT_END
  1
CELLSTYLE_BEGIN
 90
        3
 91
        2
300
_DATA
309
CELLSTYLE_END
  0
XRECORD
  5
51D
102
{ACAD_REACTORS
330
466
102
}
330
466
100
AcDbXrecord
280
     1
102
ACAD_ROUNDTRIP_PRE2007_TABLESTYLE
 90
      512
 91
        0
  1

 92
      512
 93
        0
  2

 94
      512
 95
        0
  3

  0
CELLSTYLEMAP
  5
4DF
102
{ACAD_REACTORS
330
486
102
}
330
486
100
AcDbCellStyleMap
 90
        3
300
CELLSTYLE
  1
TABLEFORMAT_BEGIN
 90
        5
170
     1
 91
        0
 92
    32768
 62
   257
 93
        1
300
CONTENTFORMAT
  1
CONTENTFORMAT_BEGIN
 90
        0
 91
        0
 92
      512
 93
        0
300

 40
0.0
140
1.0
 94
        5
 62
     0
340
17
144
0.25
309
CONTENTFORMAT_END
171
     0
 94
        0
309
TABLEFORMAT_END
  1
CELLSTYLE_BEGIN
 90
        1
 91
        1
300
_TITLE
309
CELLSTYLE_END
300
CELLSTYLE
  1
TABLEFORMAT_BEGIN
 90
        5
170
     1
 91
        0
 92
        0
 62
   257
 93
        1
300
CONTENTFORMAT
  1
CONTENTFORMAT_BEGIN
 90
        0
 91
        0
 92
      512
 93
        0
300

 40
0.0
140
1.0
 94
        5
 62
     0
340
17
144
0.18
309
CONTENTFORMAT_END
171
     0
 94
        0
309
TABLEFORMAT_END
  1
CELLSTYLE_BEGIN
 90
        2
 91
        1
300
_HEADER
309
CELLSTYLE_END
300
CELLSTYLE
  1
TABLEFORMAT_BEGIN
 90
        5
170
     1
 91
        0
 92
        0
 62
   257
 93
        1
300
CONTENTFORMAT
  1
CONTENTFORMAT_BEGIN
 90
        0
 91
        0
 92
      512
 93
        0
300

 40
0.0
140
1.0
 94
        2
 62
     0
340
17
144
0.18
309
CONTENTFORMAT_END
171
     0
 94
        0
309
TABLEFORMAT_END
  1
CELLSTYLE_BEGIN
 90
        3
 91
        2
300
_DATA
309
CELLSTYLE_END
  0
XRECORD
  5
50D
102
{ACAD_REACTORS
330
486
102
}
330
486
100
AcDbXrecord
280
     1
102
ACAD_ROUNDTRIP_PRE2007_TABLESTYLE
 90
      512
 91
        0
  1

 92
      512
 93
        0
  2

 94
      512
 95
        0
  3

  0
XRECORD
  5
4F2
102
{ACAD_REACTORS
330
4F1
102
}
330
4F1
100
AcDbXrecord
280
     1
102
RTVSPropertyOp0
 70
     1
102
RTVSPropertyOp1
 70
     1
102
RTVSPropertyOp2
 70
     1
102
RTVSPropertyOp3
 70
     1
102
RTVSPropertyOp4
 70
     1
102
RTVSPropertyOp5
 70
     1
102
RTVSPropertyOp6
 70
     1
102
RTVSPropertyOp7
 70
     1
102
RTVSPropertyOp8
 70
     1
102
RTVSPropertyOp9
 70
     1
102
RTVSPropertyOp10
 70
     1
102
RTVSPropertyOp11
 70
     1
102
RTVSPropertyOp12
 70
     1
102
RTVSPropertyOp13
 70
     1
102
RTVSPropertyOp14
 70
     1
102
RTVSPropertyOp15
 70
     1
102
RTVSPropertyOp16
 70
     1
102
RTVSPropertyOp17
 70
     1
102
RTVSPropertyOp18
 70
     1
102
RTVSPropertyOp19
 70
     1
102
RTVSPropertyOp20
 70
     1
102
RTVSPropertyOp21
 70
     1
102
RTVSPropertyOp22
 70
     1
102
RTVSPropertyOp23
 70
     1
102
RTVSPropertyOp24
 70
     1
102
RTVSPropertyOp25
 70
     1
102
RTVSPropertyOp26
 70
     1
102
RTVSPropertyOp27
 70
     1
102
RTVSPropertyOp28
 70
     1
102
RTVSPropertyOp29
 70
     1
102
RTVSPropertyOp30
 70
     1
102
RTVSPropertyOp31
 70
     1
102
RTVSPropertyOp32
 70
     1
  0
XRECORD
  5
4F6
102
{ACAD_REACTORS
330
4F5
102
}
330
4F5
100
AcDbXrecord
280
     1
102
RTVSPropertyOp0
 70
     1
102
RTVSPropertyOp1
 70
     1
102
RTVSPropertyOp2
 70
     1
102
RTVSPropertyOp3
 70
     1
102
RTVSPropertyOp4
 70
     1
102
RTVSPropertyOp5
 70
     1
102
RTVSPropertyOp6
 70
     1
102
RTVSPropertyOp7
 70
     1
102
RTVSPropertyOp8
 70
     1
102
RTVSPropertyOp9
 70
     1
102
RTVSPropertyOp10
 70
     1
102
RTVSPropertyOp11
 70
     1
102
RTVSPropertyOp12
 70
     1
102
RTVSPropertyOp13
 70
     1
102
RTVSPropertyOp14
 70
     1
102
RTVSPropertyOp15
 70
     1
102
RTVSPropertyOp16
 70
     1
102
RTVSPropertyOp17
 70
     1
102
RTVSPropertyOp18
 70
     1
102
RTVSPropertyOp19
 70
     1
102
RTVSPropertyOp20
 70
     1
102
RTVSPropertyOp21
 70
     1
102
RTVSPropertyOp22
 70
     1
102
RTVSPropertyOp23
 70
     1
102
RTVSPropertyOp24
 70
     1
102
RTVSPropertyOp25
 70
     1
102
RTVSPropertyOp26
 70
     1
102
RTVSPropertyOp27
 70
     1
102
RTVSPropertyOp28
 70
     1
102
RTVSPropertyOp29
 70
     1
102
RTVSPropertyOp30
 70
     1
102
RTVSPropertyOp31
 70
     1
102
RTVSPropertyOp32
 70
     1
  0
XRECORD
  5
4F4
102
{ACAD_REACTORS
330
4F3
102
}
330
4F3
100
AcDbXrecord
280
     1
102
RTVSPropertyOp0
 70
     1
102
RTVSPropertyOp1
 70
     1
102
RTVSPropertyOp2
 70
     1
102
RTVSPropertyOp3
 70
     1
102
RTVSPropertyOp4
 70
     1
102
RTVSPropertyOp5
 70
     1
102
RTVSPropertyOp6
 70
     1
102
RTVSPropertyOp7
 70
     1
102
RTVSPropertyOp8
 70
     1
102
RTVSPropertyOp9
 70
     1
102
RTVSPropertyOp10
 70
     1
102
RTVSPropertyOp11
 70
     1
102
RTVSPropertyOp12
 70
     1
102
RTVSPropertyOp13
 70
     1
102
RTVSPropertyOp14
 70
     1
102
RTVSPropertyOp15
 70
     1
102
RTVSPropertyOp16
 70
     1
102
RTVSPropertyOp17
 70
     1
102
RTVSPropertyOp18
 70
     1
102
RTVSPropertyOp19
 70
     1
102
RTVSPropertyOp20
 70
     1
102
RTVSPropertyOp21
 70
     1
102
RTVSPropertyOp22
 70
     1
102
RTVSPropertyOp23
 70
     1
102
RTVSPropertyOp24
 70
     1
102
RTVSPropertyOp25
 70
     1
102
RTVSPropertyOp26
 70
     1
102
RTVSPropertyOp27
 70
     1
102
RTVSPropertyOp28
 70
     1
102
RTVSPropertyOp29
 70
     1
102
RTVSPropertyOp30
 70
     1
102
RTVSPropertyOp31
 70
     1
102
RTVSPropertyOp32
 70
     1
  0
XRECORD
  5
4F0
102
{ACAD_REACTORS
330
4EF
102
}
330
4EF
100
AcDbXrecord
280
     1
102
RTVSPropertyOp0
 70
     1
102
RTVSPropertyOp1
 70
     1
102
RTVSPropertyOp2
 70
     1
102
RTVSPropertyOp3
 70
     1
102
RTVSPropertyOp4
 70
     1
102
RTVSPropertyOp5
 70
     1
102
RTVSPropertyOp6
 70
     1
102
RTVSPropertyOp7
 70
     1
102
RTVSPropertyOp8
 70
     1
102
RTVSPropertyOp9
 70
     1
102
RTVSPropertyOp10
 70
     1
102
RTVSPropertyOp11
 70
     1
102
RTVSPropertyOp12
 70
     1
102
RTVSPropertyOp13
 70
     1
102
RTVSPropertyOp14
 70
     1
102
RTVSPropertyOp15
 70
     1
102
RTVSPropertyOp16
 70
     1
102
RTVSPropertyOp17
 70
     1
102
RTVSPropertyOp18
 70
     1
102
RTVSPropertyOp19
 70
     1
102
RTVSPropertyOp20
 70
     1
102
RTVSPropertyOp21
 70
     1
102
RTVSPropertyOp22
 70
     1
102
RTVSPropertyOp23
 70
     1
102
RTVSPropertyOp24
 70
     1
102
RTVSPropertyOp25
 70
     1
102
RTVSPropertyOp26
 70
     1
102
RTVSPropertyOp27
 70
     1
102
RTVSPropertyOp28
 70
     1
102
RTVSPropertyOp29
 70
     1
102
RTVSPropertyOp30
 70
     1
102
RTVSPropertyOp31
 70
     1
102
RTVSPropertyOp32
 70
     1
  0
XRECORD
  5
4FE
102
{ACAD_REACTORS
330
4FD
102
}
330
4FD
100
AcDbXrecord
280
     1
102
RTVSPropertyOp0
 70
     1
102
RTVSPropertyOp1
 70
     1
102
RTVSPropertyOp2
 70
     1
102
RTVSPropertyOp3
 70
     1
102
RTVSPropertyOp4
 70
     1
102
RTVSPropertyOp5
 70
     1
102
RTVSPropertyOp6
 70
     1
102
RTVSPropertyOp7
 70
     1
102
RTVSPropertyOp8
 70
     1
102
RTVSPropertyOp9
 70
     1
102
RTVSPropertyOp10
 70
     1
102
RTVSPropertyOp11
 70
     1
102
RTVSPropertyOp12
 70
     1
102
RTVSPropertyOp13
 70
     1
102
RTVSPropertyOp14
 70
     1
102
RTVSPropertyOp15
 70
     1
102
RTVSPropertyOp16
 70
     1
102
RTVSPropertyOp17
 70
     1
102
RTVSPropertyOp18
 70
     1
102
RTVSPropertyOp19
 70
     1
102
RTVSPropertyOp20
 70
     1
102
RTVSPropertyOp21
 70
     1
102
RTVSPropertyOp22
 70
     1
102
RTVSPropertyOp23
 70
     1
102
RTVSPropertyOp24
 70
     1
102
RTVSPropertyOp25
 70
     1
102
RTVSPropertyOp26
 70
     1
102
RTVSPropertyOp27
 70
     1
102
RTVSPropertyOp28
 70
     1
102
RTVSPropertyOp29
 70
     1
102
RTVSPropertyOp30
 70
     1
102
RTVSPropertyOp31
 70
     1
102
RTVSPropertyOp32
 70
     1
  0
XRECORD
  5
506
102
{ACAD_REACTORS
330
505
102
}
330
505
100
AcDbXrecord
280
     1
102
RTVSPropertyOp0
 70
     1
102
RTVSPropertyOp1
 70
     1
102
RTVSPropertyOp2
 70
     1
102
RTVSPropertyOp3
 70
     1
102
RTVSPropertyOp4
 70
     1
102
RTVSPropertyOp5
 70
     1
102
RTVSPropertyOp6
 70
     1
102
RTVSPropertyOp7
 70
     1
102
RTVSPropertyOp8
 70
     1
102
RTVSPropertyOp9
 70
     1
102
RTVSPropertyOp10
 70
     1
102
RTVSPropertyOp11
 70
     1
102
RTVSPropertyOp12
 70
     1
102
RTVSPropertyOp13
 70
     1
102
RTVSPropertyOp14
 70
     1
102
RTVSPropertyOp15
 70
     1
102
RTVSPropertyOp16
 70
     1
102
RTVSPropertyOp17
 70
     1
102
RTVSPropertyOp18
 70
     1
102
RTVSPropertyOp19
 70
     1
102
RTVSPropertyOp20
 70
     1
102
RTVSPropertyOp21
 70
     1
102
RTVSPropertyOp22
 70
     1
102
RTVSPropertyOp23
 70
     1
102
RTVSPropertyOp24
 70
     1
102
RTVSPropertyOp25
 70
     1
102
RTVSPropertyOp26
 70
     1
102
RTVSPropertyOp27
 70
     1
102
RTVSPropertyOp28
 70
     1
102
RTVSPropertyOp29
 70
     1
102
RTVSPropertyOp30
 70
     1
102
RTVSPropertyOp31
 70
     1
102
RTVSPropertyOp32
 70
     1
  0
XRECORD
  5
4F8
102
{ACAD_REACTORS
330
4F7
102
}
330
4F7
100
AcDbXrecord
280
     1
102
RTVSPropertyOp0
 70
     1
102
RTVSPropertyOp1
 70
     1
102
RTVSPropertyOp2
 70
     1
102
RTVSPropertyOp3
 70
     1
102
RTVSPropertyOp4
 70
     1
102
RTVSPropertyOp5
 70
     1
102
RTVSPropertyOp6
 70
     1
102
RTVSPropertyOp7
 70
     1
102
RTVSPropertyOp8
 70
     1
102
RTVSPropertyOp9
 70
     1
102
RTVSPropertyOp10
 70
     1
102
RTVSPropertyOp11
 70
     1
102
RTVSPropertyOp12
 70
     1
102
RTVSPropertyOp13
 70
     1
102
RTVSPropertyOp14
 70
     1
102
RTVSPropertyOp15
 70
     1
102
RTVSPropertyOp16
 70
     1
102
RTVSPropertyOp17
 70
     1
102
RTVSPropertyOp18
 70
     1
102
RTVSPropertyOp19
 70
     1
102
RTVSPropertyOp20
 70
     1
102
RTVSPropertyOp21
 70
     1
102
RTVSPropertyOp22
 70
     1
102
RTVSPropertyOp23
 70
     1
102
RTVSPropertyOp24
 70
     1
102
RTVSPropertyOp25
 70
     1
102
RTVSPropertyOp26
 70
     1
102
RTVSPropertyOp27
 70
     1
102
RTVSPropertyOp28
 70
     1
102
RTVSPropertyOp29
 70
     1
102
RTVSPropertyOp30
 70
     1
102
RTVSPropertyOp31
 70
     1
102
RTVSPropertyOp32
 70
     1
  0
XRECORD
  5
4FC
102
{ACAD_REACTORS
330
4FB
102
}
330
4FB
100
AcDbXrecord
280
     1
102
RTVSPropertyOp0
 70
     1
102
RTVSPropertyOp1
 70
     1
102
RTVSPropertyOp2
 70
     1
102
RTVSPropertyOp3
 70
     1
102
RTVSPropertyOp4
 70
     1
102
RTVSPropertyOp5
 70
     1
102
RTVSPropertyOp6
 70
     1
102
RTVSPropertyOp7
 70
     1
102
RTVSPropertyOp8
 70
     1
102
RTVSPropertyOp9
 70
     1
102
RTVSPropertyOp10
 70
     1
102
RTVSPropertyOp11
 70
     1
102
RTVSPropertyOp12
 70
     1
102
RTVSPropertyOp13
 70
     1
102
RTVSPropertyOp14
 70
     1
102
RTVSPropertyOp15
 70
     1
102
RTVSPropertyOp16
 70
     1
102
RTVSPropertyOp17
 70
     1
102
RTVSPropertyOp18
 70
     1
102
RTVSPropertyOp19
 70
     1
102
RTVSPropertyOp20
 70
     1
102
RTVSPropertyOp21
 70
     1
102
RTVSPropertyOp22
 70
     1
102
RTVSPropertyOp23
 70
     1
102
RTVSPropertyOp24
 70
     1
102
RTVSPropertyOp25
 70
     1
102
RTVSPropertyOp26
 70
     1
102
RTVSPropertyOp27
 70
     1
102
RTVSPropertyOp28
 70
     1
102
RTVSPropertyOp29
 70
     1
102
RTVSPropertyOp30
 70
     1
102
RTVSPropertyOp31
 70
     1
102
RTVSPropertyOp32
 70
     1
  0
XRECORD
  5
50C
102
{ACAD_REACTORS
330
50B
102
}
330
50B
100
AcDbXrecord
280
     1
102
RTVSPropertyOp0
 70
     0
102
RTVSPropertyOp1
 70
     0
102
RTVSPropertyOp2
 70
     0
102
RTVSPropertyOp3
 70
     0
102
RTVSPropertyOp4
 70
     0
102
RTVSPropertyOp5
 70
     0
102
RTVSPropertyOp6
 70
     0
102
RTVSPropertyOp7
 70
     0
102
RTVSPropertyOp8
 70
     0
102
RTVSPropertyOp9
 70
     0
102
RTVSPropertyOp10
 70
     0
102
RTVSPropertyOp11
 70
     0
102
RTVSPropertyOp12
 70
     0
102
RTVSPropertyOp13
 70
     0
102
RTVSPropertyOp14
 70
     2
102
RTVSPropertyOp15
 70
     0
102
RTVSPropertyOp16
 70
     0
102
RTVSPropertyOp17
 70
     0
102
RTVSPropertyOp18
 70
     0
102
RTVSPropertyOp19
 70
     0
102
RTVSPropertyOp20
 70
     0
102
RTVSPropertyOp21
 70
     0
102
RTVSPropertyOp22
 70
     0
102
RTVSPropertyOp23
 70
     0
102
RTVSPropertyOp24
 70
     0
102
RTVSPropertyOp25
 70
     0
102
RTVSPropertyOp26
 70
     0
102
RTVSPropertyOp27
 70
     0
102
RTVSPropertyOp28
 70
     1
102
RTVSPropertyOp29
 70
     1
102
RTVSPropertyOp30
 70
     1
102
RTVSPropertyOp31
 70
     1
102
RTVSPropertyOp32
 70
     1
  0
XRECORD
  5
504
102
{ACAD_REACTORS
330
503
102
}
330
503
100
AcDbXrecord
280
     1
102
RTVSPropertyOp0
 70
     1
102
RTVSPropertyOp1
 70
     1
102
RTVSPropertyOp2
 70
     1
102
RTVSPropertyOp3
 70
     1
102
RTVSPropertyOp4
 70
     1
102
RTVSPropertyOp5
 70
     1
102
RTVSPropertyOp6
 70
     1
102
RTVSPropertyOp7
 70
     1
102
RTVSPropertyOp8
 70
     1
102
RTVSPropertyOp9
 70
     1
102
RTVSPropertyOp10
 70
     1
102
RTVSPropertyOp11
 70
     1
102
RTVSPropertyOp12
 70
     1
102
RTVSPropertyOp13
 70
     1
102
RTVSPropertyOp14
 70
     1
102
RTVSPropertyOp15
 70
     1
102
RTVSPropertyOp16
 70
     1
102
RTVSPropertyOp17
 70
     1
102
RTVSPropertyOp18
 70
     1
102
RTVSPropertyOp19
 70
     1
102
RTVSPropertyOp20
 70
     1
102
RTVSPropertyOp21
 70
     1
102
RTVSPropertyOp22
 70
     1
102
RTVSPropertyOp23
 70
     1
102
RTVSPropertyOp24
 70
     1
102
RTVSPropertyOp25
 70
     1
102
RTVSPropertyOp26
 70
     1
102
RTVSPropertyOp27
 70
     1
102
RTVSPropertyOp28
 70
     1
102
RTVSPropertyOp29
 70
     1
102
RTVSPropertyOp30
 70
     1
102
RTVSPropertyOp31
 70
     1
102
RTVSPropertyOp32
 70
     1
  0
XRECORD
  5
4E8
102
{ACAD_REACTORS
330
4E7
102
}
330
4E7
100
AcDbXrecord
280
     1
102
RTVSPropertyOp0
 70
     1
102
RTVSPropertyOp1
 70
     1
102
RTVSPropertyOp2
 70
     1
102
RTVSPropertyOp3
 70
     1
102
RTVSPropertyOp4
 70
     1
102
RTVSPropertyOp5
 70
     1
102
RTVSPropertyOp6
 70
     1
102
RTVSPropertyOp7
 70
     1
102
RTVSPropertyOp8
 70
     1
102
RTVSPropertyOp9
 70
     1
102
RTVSPropertyOp10
 70
     1
102
RTVSPropertyOp11
 70
     1
102
RTVSPropertyOp12
 70
     1
102
RTVSPropertyOp13
 70
     1
102
RTVSPropertyOp14
 70
     1
102
RTVSPropertyOp15
 70
     1
102
RTVSPropertyOp16
 70
     1
102
RTVSPropertyOp17
 70
     1
102
RTVSPropertyOp18
 70
     1
102
RTVSPropertyOp19
 70
     1
102
RTVSPropertyOp20
 70
     1
102
RTVSPropertyOp21
 70
     1
102
RTVSPropertyOp22
 70
     1
102
RTVSPropertyOp23
 70
     1
102
RTVSPropertyOp24
 70
     1
102
RTVSPropertyOp25
 70
     1
102
RTVSPropertyOp26
 70
     1
102
RTVSPropertyOp27
 70
     1
102
RTVSPropertyOp28
 70
     1
102
RTVSPropertyOp29
 70
     1
102
RTVSPropertyOp30
 70
     1
102
RTVSPropertyOp31
 70
     1
102
RTVSPropertyOp32
 70
     1
  0
XRECORD
  5
4EA
102
{ACAD_REACTORS
330
4E9
102
}
330
4E9
100
AcDbXrecord
280
     1
102
RTVSPropertyOp0
 70
     1
102
RTVSPropertyOp1
 70
     1
102
RTVSPropertyOp2
 70
     1
102
RTVSPropertyOp3
 70
     1
102
RTVSPropertyOp4
 70
     1
102
RTVSPropertyOp5
 70
     1
102
RTVSPropertyOp6
 70
     1
102
RTVSPropertyOp7
 70
     1
102
RTVSPropertyOp8
 70
     1
102
RTVSPropertyOp9
 70
     1
102
RTVSPropertyOp10
 70
     1
102
RTVSPropertyOp11
 70
     1
102
RTVSPropertyOp12
 70
     1
102
RTVSPropertyOp13
 70
     1
102
RTVSPropertyOp14
 70
     1
102
RTVSPropertyOp15
 70
     1
102
RTVSPropertyOp16
 70
     1
102
RTVSPropertyOp17
 70
     1
102
RTVSPropertyOp18
 70
     1
102
RTVSPropertyOp19
 70
     1
102
RTVSPropertyOp20
 70
     1
102
RTVSPropertyOp21
 70
     1
102
RTVSPropertyOp22
 70
     1
102
RTVSPropertyOp23
 70
     1
102
RTVSPropertyOp24
 70
     1
102
RTVSPropertyOp25
 70
     1
102
RTVSPropertyOp26
 70
     1
102
RTVSPropertyOp27
 70
     1
102
RTVSPropertyOp28
 70
     1
102
RTVSPropertyOp29
 70
     1
102
RTVSPropertyOp30
 70
     1
102
RTVSPropertyOp31
 70
     1
102
RTVSPropertyOp32
 70
     1
  0
XRECORD
  5
4EC
102
{ACAD_REACTORS
330
4EB
102
}
330
4EB
100
AcDbXrecord
280
     1
102
RTVSPropertyOp0
 70
     1
102
RTVSPropertyOp1
 70
     1
102
RTVSPropertyOp2
 70
     1
102
RTVSPropertyOp3
 70
     1
102
RTVSPropertyOp4
 70
     1
102
RTVSPropertyOp5
 70
     1
102
RTVSPropertyOp6
 70
     1
102
RTVSPropertyOp7
 70
     1
102
RTVSPropertyOp8
 70
     1
102
RTVSPropertyOp9
 70
     1
102
RTVSPropertyOp10
 70
     1
102
RTVSPropertyOp11
 70
     1
102
RTVSPropertyOp12
 70
     1
102
RTVSPropertyOp13
 70
     1
102
RTVSPropertyOp14
 70
     1
102
RTVSPropertyOp15
 70
     1
102
RTVSPropertyOp16
 70
     1
102
RTVSPropertyOp17
 70
     1
102
RTVSPropertyOp18
 70
     1
102
RTVSPropertyOp19
 70
     1
102
RTVSPropertyOp20
 70
     1
102
RTVSPropertyOp21
 70
     1
102
RTVSPropertyOp22
 70
     1
102
RTVSPropertyOp23
 70
     1
102
RTVSPropertyOp24
 70
     1
102
RTVSPropertyOp25
 70
     1
102
RTVSPropertyOp26
 70
     1
102
RTVSPropertyOp27
 70
     1
102
RTVSPropertyOp28
 70
     1
102
RTVSPropertyOp29
 70
     1
102
RTVSPropertyOp30
 70
     1
102
RTVSPropertyOp31
 70
     1
102
RTVSPropertyOp32
 70
     1
  0
XRECORD
  5
4EE
102
{ACAD_REACTORS
330
4ED
102
}
330
4ED
100
AcDbXrecord
280
     1
102
RTVSPropertyOp0
 70
     1
102
RTVSPropertyOp1
 70
     1
102
RTVSPropertyOp2
 70
     1
102
RTVSPropertyOp3
 70
     1
102
RTVSPropertyOp4
 70
     1
102
RTVSPropertyOp5
 70
     1
102
RTVSPropertyOp6
 70
     1
102
RTVSPropertyOp7
 70
     1
102
RTVSPropertyOp8
 70
     1
102
RTVSPropertyOp9
 70
     1
102
RTVSPropertyOp10
 70
     1
102
RTVSPropertyOp11
 70
     1
102
RTVSPropertyOp12
 70
     1
102
RTVSPropertyOp13
 70
     1
102
RTVSPropertyOp14
 70
     1
102
RTVSPropertyOp15
 70
     1
102
RTVSPropertyOp16
 70
     1
102
RTVSPropertyOp17
 70
     1
102
RTVSPropertyOp18
 70
     1
102
RTVSPropertyOp19
 70
     1
102
RTVSPropertyOp20
 70
     1
102
RTVSPropertyOp21
 70
     1
102
RTVSPropertyOp22
 70
     1
102
RTVSPropertyOp23
 70
     1
102
RTVSPropertyOp24
 70
     1
102
RTVSPropertyOp25
 70
     1
102
RTVSPropertyOp26
 70
     1
102
RTVSPropertyOp27
 70
     1
102
RTVSPropertyOp28
 70
     1
102
RTVSPropertyOp29
 70
     1
102
RTVSPropertyOp30
 70
     1
102
RTVSPropertyOp31
 70
     1
102
RTVSPropertyOp32
 70
     1
  0
XRECORD
  5
521
102
{ACAD_REACTORS
330
520
102
}
330
520
100
AcDbXrecord
280
     1
102
RTVSPropertyOp0
 70
     1
102
RTVSPropertyOp1
 70
     1
102
RTVSPropertyOp2
 70
     1
102
RTVSPropertyOp3
 70
     1
102
RTVSPropertyOp4
 70
     1
102
RTVSPropertyOp5
 70
     1
102
RTVSPropertyOp6
 70
     1
102
RTVSPropertyOp7
 70
     1
102
RTVSPropertyOp8
 70
     1
102
RTVSPropertyOp9
 70
     1
102
RTVSPropertyOp10
 70
     1
102
RTVSPropertyOp11
 70
     1
102
RTVSPropertyOp12
 70
     1
102
RTVSPropertyOp13
 70
     1
102
RTVSPropertyOp14
 70
     1
102
RTVSPropertyOp15
 70
     1
102
RTVSPropertyOp16
 70
     1
102
RTVSPropertyOp17
 70
     1
102
RTVSPropertyOp18
 70
     1
102
RTVSPropertyOp19
 70
     1
102
RTVSPropertyOp20
 70
     1
102
RTVSPropertyOp21
 70
     1
102
RTVSPropertyOp22
 70
     1
102
RTVSPropertyOp23
 70
     1
102
RTVSPropertyOp24
 70
     1
102
RTVSPropertyOp25
 70
     1
102
RTVSPropertyOp26
 70
     1
102
RTVSPropertyOp27
 70
     1
102
RTVSPropertyOp28
 70
     1
102
RTVSPropertyOp29
 70
     1
102
RTVSPropertyOp30
 70
     1
102
RTVSPropertyOp31
 70
     1
102
RTVSPropertyOp32
 70
     1
  0
XRECORD
  5
508
102
{ACAD_REACTORS
330
507
102
}
330
507
100
AcDbXrecord
280
     1
102
RTVSPropertyOp0
 70
     0
102
RTVSPropertyOp1
 70
     0
102
RTVSPropertyOp2
 70
     0
102
RTVSPropertyOp3
 70
     0
102
RTVSPropertyOp4
 70
     0
102
RTVSPropertyOp5
 70
     0
102
RTVSPropertyOp6
 70
     0
102
RTVSPropertyOp7
 70
     0
102
RTVSPropertyOp8
 70
     0
102
RTVSPropertyOp9
 70
     0
102
RTVSPropertyOp10
 70
     0
102
RTVSPropertyOp11
 70
     0
102
RTVSPropertyOp12
 70
     0
102
RTVSPropertyOp13
 70
     0
102
RTVSPropertyOp14
 70
     2
102
RTVSPropertyOp15
 70
     0
102
RTVSPropertyOp16
 70
     0
102
RTVSPropertyOp17
 70
     0
102
RTVSPropertyOp18
 70
     0
102
RTVSPropertyOp19
 70
     0
102
RTVSPropertyOp20
 70
     0
102
RTVSPropertyOp21
 70
     0
102
RTVSPropertyOp22
 70
     0
102
RTVSPropertyOp23
 70
     0
102
RTVSPropertyOp24
 70
     0
102
RTVSPropertyOp25
 70
     0
102
RTVSPropertyOp26
 70
     0
102
RTVSPropertyOp27
 70
     0
102
RTVSPropertyOp28
 70
     1
102
RTVSPropertyOp29
 70
     1
102
RTVSPropertyOp30
 70
     1
102
RTVSPropertyOp31
 70
     1
102
RTVSPropertyOp32
 70
     1
  0
XRECORD
  5
502
102
{ACAD_REACTORS
330
501
102
}
330
501
100
AcDbXrecord
280
     1
102
RTVSPropertyOp0
 70
     1
102
RTVSPropertyOp1
 70
     1
102
RTVSPropertyOp2
 70
     1
102
RTVSPropertyOp3
 70
     1
102
RTVSPropertyOp4
 70
     1
102
RTVSPropertyOp5
 70
     1
102
RTVSPropertyOp6
 70
     1
102
RTVSPropertyOp7
 70
     1
102
RTVSPropertyOp8
 70
     1
102
RTVSPropertyOp9
 70
     1
102
RTVSPropertyOp10
 70
     1
102
RTVSPropertyOp11
 70
     1
102
RTVSPropertyOp12
 70
     1
102
RTVSPropertyOp13
 70
     1
102
RTVSPropertyOp14
 70
     1
102
RTVSPropertyOp15
 70
     1
102
RTVSPropertyOp16
 70
     1
102
RTVSPropertyOp17
 70
     1
102
RTVSPropertyOp18
 70
     1
102
RTVSPropertyOp19
 70
     1
102
RTVSPropertyOp20
 70
     1
102
RTVSPropertyOp21
 70
     1
102
RTVSPropertyOp22
 70
     1
102
RTVSPropertyOp23
 70
     1
102
RTVSPropertyOp24
 70
     1
102
RTVSPropertyOp25
 70
     1
102
RTVSPropertyOp26
 70
     1
102
RTVSPropertyOp27
 70
     1
102
RTVSPropertyOp28
 70
     1
102
RTVSPropertyOp29
 70
     1
102
RTVSPropertyOp30
 70
     1
102
RTVSPropertyOp31
 70
     1
102
RTVSPropertyOp32
 70
     1
  0
XRECORD
  5
50A
102
{ACAD_REACTORS
330
509
102
}
330
509
100
AcDbXrecord
280
     1
102
RTVSPropertyOp0
 70
     0
102
RTVSPropertyOp1
 70
     0
102
RTVSPropertyOp2
 70
     0
102
RTVSPropertyOp3
 70
     0
102
RTVSPropertyOp4
 70
     0
102
RTVSPropertyOp5
 70
     0
102
RTVSPropertyOp6
 70
     0
102
RTVSPropertyOp7
 70
     0
102
RTVSPropertyOp8
 70
     0
102
RTVSPropertyOp9
 70
     0
102
RTVSPropertyOp10
 70
     0
102
RTVSPropertyOp11
 70
     0
102
RTVSPropertyOp12
 70
     0
102
RTVSPropertyOp13
 70
     0
102
RTVSPropertyOp14
 70
     2
102
RTVSPropertyOp15
 70
     0
102
RTVSPropertyOp16
 70
     0
102
RTVSPropertyOp17
 70
     0
102
RTVSPropertyOp18
 70
     0
102
RTVSPropertyOp19
 70
     0
102
RTVSPropertyOp20
 70
     0
102
RTVSPropertyOp21
 70
     0
102
RTVSPropertyOp22
 70
     0
102
RTVSPropertyOp23
 70
     0
102
RTVSPropertyOp24
 70
     0
102
RTVSPropertyOp25
 70
     0
102
RTVSPropertyOp26
 70
     0
102
RTVSPropertyOp27
 70
     0
102
RTVSPropertyOp28
 70
     1
102
RTVSPropertyOp29
 70
     1
102
RTVSPropertyOp30
 70
     1
102
RTVSPropertyOp31
 70
     1
102
RTVSPropertyOp32
 70
     1
  0
XRECORD
  5
4FA
102
{ACAD_REACTORS
330
4F9
102
}
330
4F9
100
AcDbXrecord
280
     1
102
RTVSPropertyOp0
 70
     1
102
RTVSPropertyOp1
 70
     1
102
RTVSPropertyOp2
 70
     1
102
RTVSPropertyOp3
 70
     1
102
RTVSPropertyOp4
 70
     1
102
RTVSPropertyOp5
 70
     1
102
RTVSPropertyOp6
 70
     1
102
RTVSPropertyOp7
 70
     1
102
RTVSPropertyOp8
 70
     1
102
RTVSPropertyOp9
 70
     1
102
RTVSPropertyOp10
 70
     1
102
RTVSPropertyOp11
 70
     1
102
RTVSPropertyOp12
 70
     1
102
RTVSPropertyOp13
 70
     1
102
RTVSPropertyOp14
 70
     1
102
RTVSPropertyOp15
 70
     1
102
RTVSPropertyOp16
 70
     1
102
RTVSPropertyOp17
 70
     1
102
RTVSPropertyOp18
 70
     1
102
RTVSPropertyOp19
 70
     1
102
RTVSPropertyOp20
 70
     1
102
RTVSPropertyOp21
 70
     1
102
RTVSPropertyOp22
 70
     1
102
RTVSPropertyOp23
 70
     1
102
RTVSPropertyOp24
 70
     1
102
RTVSPropertyOp25
 70
     1
102
RTVSPropertyOp26
 70
     1
102
RTVSPropertyOp27
 70
     1
102
RTVSPropertyOp28
 70
     1
102
RTVSPropertyOp29
 70
     1
102
RTVSPropertyOp30
 70
     1
102
RTVSPropertyOp31
 70
     1
102
RTVSPropertyOp32
 70
     1
  0
XRECORD
  5
52B
102
{ACAD_REACTORS
330
52A
102
}
330
52A
100
AcDbXrecord
280
     1
102
RTVSPropertyOp0
 70
     1
102
RTVSPropertyOp1
 70
     1
102
RTVSPropertyOp2
 70
     1
102
RTVSPropertyOp3
 70
     1
102
RTVSPropertyOp4
 70
     1
102
RTVSPropertyOp5
 70
     1
102
RTVSPropertyOp6
 70
     1
102
RTVSPropertyOp7
 70
     1
102
RTVSPropertyOp8
 70
     1
102
RTVSPropertyOp9
 70
     1
102
RTVSPropertyOp10
 70
     1
102
RTVSPropertyOp11
 70
     1
102
RTVSPropertyOp12
 70
     1
102
RTVSPropertyOp13
 70
     1
102
RTVSPropertyOp14
 70
     1
102
RTVSPropertyOp15
 70
     1
102
RTVSPropertyOp16
 70
     1
102
RTVSPropertyOp17
 70
     1
102
RTVSPropertyOp18
 70
     1
102
RTVSPropertyOp19
 70
     1
102
RTVSPropertyOp20
 70
     1
102
RTVSPropertyOp21
 70
     1
102
RTVSPropertyOp22
 70
     1
102
RTVSPropertyOp23
 70
     1
102
RTVSPropertyOp24
 70
     1
102
RTVSPropertyOp25
 70
     1
102
RTVSPropertyOp26
 70
     1
102
RTVSPropertyOp27
 70
     1
102
RTVSPropertyOp28
 70
     1
102
RTVSPropertyOp29
 70
     1
102
RTVSPropertyOp30
 70
     1
102
RTVSPropertyOp31
 70
     1
102
RTVSPropertyOp32
 70
     1
  0
XRECORD
  5
529
102
{ACAD_REACTORS
330
528
102
}
330
528
100
AcDbXrecord
280
     1
102
RTVSPropertyOp0
 70
     1
102
RTVSPropertyOp1
 70
     1
102
RTVSPropertyOp2
 70
     1
102
RTVSPropertyOp3
 70
     1
102
RTVSPropertyOp4
 70
     1
102
RTVSPropertyOp5
 70
     1
102
RTVSPropertyOp6
 70
     1
102
RTVSPropertyOp7
 70
     1
102
RTVSPropertyOp8
 70
     1
102
RTVSPropertyOp9
 70
     1
102
RTVSPropertyOp10
 70
     1
102
RTVSPropertyOp11
 70
     1
102
RTVSPropertyOp12
 70
     1
102
RTVSPropertyOp13
 70
     1
102
RTVSPropertyOp14
 70
     1
102
RTVSPropertyOp15
 70
     1
102
RTVSPropertyOp16
 70
     1
102
RTVSPropertyOp17
 70
     1
102
RTVSPropertyOp18
 70
     1
102
RTVSPropertyOp19
 70
     1
102
RTVSPropertyOp20
 70
     1
102
RTVSPropertyOp21
 70
     1
102
RTVSPropertyOp22
 70
     1
102
RTVSPropertyOp23
 70
     1
102
RTVSPropertyOp24
 70
     1
102
RTVSPropertyOp25
 70
     1
102
RTVSPropertyOp26
 70
     1
102
RTVSPropertyOp27
 70
     1
102
RTVSPropertyOp28
 70
     1
102
RTVSPropertyOp29
 70
     1
102
RTVSPropertyOp30
 70
     1
102
RTVSPropertyOp31
 70
     1
102
RTVSPropertyOp32
 70
     1
  0
XRECORD
  5
523
102
{ACAD_REACTORS
330
522
102
}
330
522
100
AcDbXrecord
280
     1
102
RTVSPropertyOp0
 70
     1
102
RTVSPropertyOp1
 70
     1
102
RTVSPropertyOp2
 70
     1
102
RTVSPropertyOp3
 70
     1
102
RTVSPropertyOp4
 70
     1
102
RTVSPropertyOp5
 70
     1
102
RTVSPropertyOp6
 70
     1
102
RTVSPropertyOp7
 70
     1
102
RTVSPropertyOp8
 70
     1
102
RTVSPropertyOp9
 70
     1
102
RTVSPropertyOp10
 70
     1
102
RTVSPropertyOp11
 70
     1
102
RTVSPropertyOp12
 70
     1
102
RTVSPropertyOp13
 70
     1
102
RTVSPropertyOp14
 70
     1
102
RTVSPropertyOp15
 70
     1
102
RTVSPropertyOp16
 70
     1
102
RTVSPropertyOp17
 70
     1
102
RTVSPropertyOp18
 70
     1
102
RTVSPropertyOp19
 70
     1
102
RTVSPropertyOp20
 70
     1
102
RTVSPropertyOp21
 70
     1
102
RTVSPropertyOp22
 70
     1
102
RTVSPropertyOp23
 70
     1
102
RTVSPropertyOp24
 70
     1
102
RTVSPropertyOp25
 70
     1
102
RTVSPropertyOp26
 70
     1
102
RTVSPropertyOp27
 70
     1
102
RTVSPropertyOp28
 70
     1
102
RTVSPropertyOp29
 70
     1
102
RTVSPropertyOp30
 70
     1
102
RTVSPropertyOp31
 70
     1
102
RTVSPropertyOp32
 70
     1
  0
XRECORD
  5
525
102
{ACAD_REACTORS
330
524
102
}
330
524
100
AcDbXrecord
280
     1
102
RTVSPropertyOp0
 70
     1
102
RTVSPropertyOp1
 70
     1
102
RTVSPropertyOp2
 70
     1
102
RTVSPropertyOp3
 70
     1
102
RTVSPropertyOp4
 70
     1
102
RTVSPropertyOp5
 70
     1
102
RTVSPropertyOp6
 70
     1
102
RTVSPropertyOp7
 70
     1
102
RTVSPropertyOp8
 70
     1
102
RTVSPropertyOp9
 70
     1
102
RTVSPropertyOp10
 70
     1
102
RTVSPropertyOp11
 70
     1
102
RTVSPropertyOp12
 70
     1
102
RTVSPropertyOp13
 70
     1
102
RTVSPropertyOp14
 70
     1
102
RTVSPropertyOp15
 70
     1
102
RTVSPropertyOp16
 70
     1
102
RTVSPropertyOp17
 70
     1
102
RTVSPropertyOp18
 70
     1
102
RTVSPropertyOp19
 70
     1
102
RTVSPropertyOp20
 70
     1
102
RTVSPropertyOp21
 70
     1
102
RTVSPropertyOp22
 70
     1
102
RTVSPropertyOp23
 70
     1
102
RTVSPropertyOp24
 70
     1
102
RTVSPropertyOp25
 70
     1
102
RTVSPropertyOp26
 70
     1
102
RTVSPropertyOp27
 70
     1
102
RTVSPropertyOp28
 70
     1
102
RTVSPropertyOp29
 70
     1
102
RTVSPropertyOp30
 70
     1
102
RTVSPropertyOp31
 70
     1
102
RTVSPropertyOp32
 70
     1
  0
XRECORD
  5
500
102
{ACAD_REACTORS
330
4FF
102
}
330
4FF
100
AcDbXrecord
280
     1
102
RTVSPropertyOp0
 70
     1
102
RTVSPropertyOp1
 70
     1
102
RTVSPropertyOp2
 70
     1
102
RTVSPropertyOp3
 70
     1
102
RTVSPropertyOp4
 70
     1
102
RTVSPropertyOp5
 70
     1
102
RTVSPropertyOp6
 70
     1
102
RTVSPropertyOp7
 70
     1
102
RTVSPropertyOp8
 70
     1
102
RTVSPropertyOp9
 70
     1
102
RTVSPropertyOp10
 70
     1
102
RTVSPropertyOp11
 70
     1
102
RTVSPropertyOp12
 70
     1
102
RTVSPropertyOp13
 70
     1
102
RTVSPropertyOp14
 70
     1
102
RTVSPropertyOp15
 70
     1
102
RTVSPropertyOp16
 70
     1
102
RTVSPropertyOp17
 70
     1
102
RTVSPropertyOp18
 70
     1
102
RTVSPropertyOp19
 70
     1
102
RTVSPropertyOp20
 70
     1
102
RTVSPropertyOp21
 70
     1
102
RTVSPropertyOp22
 70
     1
102
RTVSPropertyOp23
 70
     1
102
RTVSPropertyOp24
 70
     1
102
RTVSPropertyOp25
 70
     1
102
RTVSPropertyOp26
 70
     1
102
RTVSPropertyOp27
 70
     1
102
RTVSPropertyOp28
 70
     1
102
RTVSPropertyOp29
 70
     1
102
RTVSPropertyOp30
 70
     1
102
RTVSPropertyOp31
 70
     1
102
RTVSPropertyOp32
 70
     1
  0
XRECORD
  5
51F
102
{ACAD_REACTORS
330
51E
102
}
330
51E
100
AcDbXrecord
280
     1
102
RTVSPropertyOp0
 70
     1
102
RTVSPropertyOp1
 70
     1
102
RTVSPropertyOp2
 70
     1
102
RTVSPropertyOp3
 70
     1
102
RTVSPropertyOp4
 70
     1
102
RTVSPropertyOp5
 70
     1
102
RTVSPropertyOp6
 70
     1
102
RTVSPropertyOp7
 70
     1
102
RTVSPropertyOp8
 70
     1
102
RTVSPropertyOp9
 70
     1
102
RTVSPropertyOp10
 70
     1
102
RTVSPropertyOp11
 70
     1
102
RTVSPropertyOp12
 70
     1
102
RTVSPropertyOp13
 70
     1
102
RTVSPropertyOp14
 70
     1
102
RTVSPropertyOp15
 70
     1
102
RTVSPropertyOp16
 70
     1
102
RTVSPropertyOp17
 70
     1
102
RTVSPropertyOp18
 70
     1
102
RTVSPropertyOp19
 70
     1
102
RTVSPropertyOp20
 70
     1
102
RTVSPropertyOp21
 70
     1
102
RTVSPropertyOp22
 70
     1
102
RTVSPropertyOp23
 70
     1
102
RTVSPropertyOp24
 70
     1
102
RTVSPropertyOp25
 70
     1
102
RTVSPropertyOp26
 70
     1
102
RTVSPropertyOp27
 70
     1
102
RTVSPropertyOp28
 70
     1
102
RTVSPropertyOp29
 70
     1
102
RTVSPropertyOp30
 70
     1
102
RTVSPropertyOp31
 70
     1
102
RTVSPropertyOp32
 70
     1
  0
XRECORD
  5
527
102
{ACAD_REACTORS
330
526
102
}
330
526
100
AcDbXrecord
280
     1
102
RTVSPropertyOp0
 70
     1
102
RTVSPropertyOp1
 70
     1
102
RTVSPropertyOp2
 70
     1
102
RTVSPropertyOp3
 70
     1
102
RTVSPropertyOp4
 70
     1
102
RTVSPropertyOp5
 70
     1
102
RTVSPropertyOp6
 70
     1
102
RTVSPropertyOp7
 70
     1
102
RTVSPropertyOp8
 70
     1
102
RTVSPropertyOp9
 70
     1
102
RTVSPropertyOp10
 70
     1
102
RTVSPropertyOp11
 70
     1
102
RTVSPropertyOp12
 70
     1
102
RTVSPropertyOp13
 70
     1
102
RTVSPropertyOp14
 70
     1
102
RTVSPropertyOp15
 70
     1
102
RTVSPropertyOp16
 70
     1
102
RTVSPropertyOp17
 70
     1
102
RTVSPropertyOp18
 70
     1
102
RTVSPropertyOp19
 70
     1
102
RTVSPropertyOp20
 70
     1
102
RTVSPropertyOp21
 70
     1
102
RTVSPropertyOp22
 70
     1
102
RTVSPropertyOp23
 70
     1
102
RTVSPropertyOp24
 70
     1
102
RTVSPropertyOp25
 70
     1
102
RTVSPropertyOp26
 70
     1
102
RTVSPropertyOp27
 70
     1
102
RTVSPropertyOp28
 70
     1
102
RTVSPropertyOp29
 70
     1
102
RTVSPropertyOp30
 70
     1
102
RTVSPropertyOp31
 70
     1
102
RTVSPropertyOp32
 70
     1
  0
ENDSEC
  0
EOF
