ISO-10303-21;
HEADER;
/****************************************************************
 * Generated by software with PDE/Lib inside                    *
 * PDElib Version v4.4, created Mon 02/23/2004                  *
 * International Technegroup Inc. (www.iti-oh.com)              *
 ****************************************************************/
FILE_DESCRIPTION(('STEP AP203'),'2;1');
FILE_NAME('27.219.00.stp','2011-03-07T09:30:44',(''),(''),'2009.3.110','THINKDESIGN','');
FILE_SCHEMA(('CONFIG_CONTROL_DESIGN'));
ENDSEC;
DATA;
#2=CARTESIAN_POINT('',(78.0,15.0,0.0));
#3=DIRECTION('',(0.0,-1.0,0.0));
#4=DIRECTION('',(-1.0,0.0,0.0));
#5=AXIS2_PLACEMENT_3D('',#2,#3,#4);
#6=PLANE('',#5);
#7=CARTESIAN_POINT('',(78.0,15.0,0.0));
#8=VERTEX_POINT('',#7);
#9=CARTESIAN_POINT('',(78.0,15.0,-3.0));
#10=VERTEX_POINT('',#9);
#11=CARTESIAN_POINT('',(78.0,15.0,0.0));
#12=DIRECTION('',(0.0,0.0,-1.0));
#13=VECTOR('',#12,3.0);
#14=LINE('',#11,#13);
#15=EDGE_CURVE('',#8,#10,#14,.T.);
#16=ORIENTED_EDGE('',*,*,#15,.T.);
#17=CARTESIAN_POINT('',(2.0,15.0,-3.0));
#18=VERTEX_POINT('',#17);
#19=CARTESIAN_POINT('',(78.0,15.0,-3.0));
#20=DIRECTION('',(-1.0,0.0,0.0));
#21=VECTOR('',#20,76.0);
#22=LINE('',#19,#21);
#23=EDGE_CURVE('',#10,#18,#22,.T.);
#24=ORIENTED_EDGE('',*,*,#23,.T.);
#25=CARTESIAN_POINT('',(2.0,15.0,0.0));
#26=VERTEX_POINT('',#25);
#27=CARTESIAN_POINT('',(2.0,15.0,0.0));
#28=DIRECTION('',(0.0,0.0,-1.0));
#29=VECTOR('',#28,3.0);
#30=LINE('',#27,#29);
#31=EDGE_CURVE('',#26,#18,#30,.T.);
#32=ORIENTED_EDGE('',*,*,#31,.F.);
#33=CARTESIAN_POINT('',(78.0,15.0,0.0));
#34=DIRECTION('',(-1.0,0.0,0.0));
#35=VECTOR('',#34,76.0);
#36=LINE('',#33,#35);
#37=EDGE_CURVE('',#8,#26,#36,.T.);
#38=ORIENTED_EDGE('',*,*,#37,.F.);
#39=EDGE_LOOP('',(#16,#24,#32,#38));
#40=FACE_OUTER_BOUND('',#39,.T.);
#41=ADVANCED_FACE('',(#40),#6,.F.);
#42=CARTESIAN_POINT('',(2.0,13.0,0.0));
#43=DIRECTION('',(0.0,0.0,1.0));
#44=DIRECTION('',(1.0,0.0,0.0));
#45=AXIS2_PLACEMENT_3D('',#42,#43,#44);
#46=CYLINDRICAL_SURFACE('',#45,2.0);
#47=ORIENTED_EDGE('',*,*,#31,.T.);
#48=CARTESIAN_POINT('',(0.0,13.0,-3.0));
#49=VERTEX_POINT('',#48);
#50=CARTESIAN_POINT('',(2.0,13.0,-3.0));
#51=DIRECTION('',(0.0,0.0,1.0));
#52=DIRECTION('',(1.0,0.0,0.0));
#53=AXIS2_PLACEMENT_3D('',#50,#51,#52);
#54=CIRCLE('',#53,2.0);
#55=EDGE_CURVE('',#18,#49,#54,.T.);
#56=ORIENTED_EDGE('',*,*,#55,.T.);
#57=CARTESIAN_POINT('',(0.0,13.0,0.0));
#58=VERTEX_POINT('',#57);
#59=CARTESIAN_POINT('',(0.0,13.0,0.0));
#60=DIRECTION('',(0.0,0.0,-1.0));
#61=VECTOR('',#60,3.0);
#62=LINE('',#59,#61);
#63=EDGE_CURVE('',#58,#49,#62,.T.);
#64=ORIENTED_EDGE('',*,*,#63,.F.);
#65=CARTESIAN_POINT('',(2.0,13.0,0.0));
#66=DIRECTION('',(0.0,0.0,1.0));
#67=DIRECTION('',(1.0,0.0,0.0));
#68=AXIS2_PLACEMENT_3D('',#65,#66,#67);
#69=CIRCLE('',#68,2.0);
#70=EDGE_CURVE('',#26,#58,#69,.T.);
#71=ORIENTED_EDGE('',*,*,#70,.F.);
#72=EDGE_LOOP('',(#47,#56,#64,#71));
#73=FACE_OUTER_BOUND('',#72,.T.);
#74=ADVANCED_FACE('',(#73),#46,.T.);
#75=CARTESIAN_POINT('',(0.0,13.0,0.0));
#76=DIRECTION('',(1.0,0.0,0.0));
#77=DIRECTION('',(0.0,-1.0,0.0));
#78=AXIS2_PLACEMENT_3D('',#75,#76,#77);
#79=PLANE('',#78);
#80=ORIENTED_EDGE('',*,*,#63,.T.);
#81=CARTESIAN_POINT('',(0.0,-13.0,-3.0));
#82=VERTEX_POINT('',#81);
#83=CARTESIAN_POINT('',(0.0,13.0,-3.0));
#84=DIRECTION('',(0.0,-1.0,0.0));
#85=VECTOR('',#84,26.0);
#86=LINE('',#83,#85);
#87=EDGE_CURVE('',#49,#82,#86,.T.);
#88=ORIENTED_EDGE('',*,*,#87,.T.);
#89=CARTESIAN_POINT('',(0.0,-13.0,0.0));
#90=VERTEX_POINT('',#89);
#91=CARTESIAN_POINT('',(0.0,-13.0,0.0));
#92=DIRECTION('',(0.0,0.0,-1.0));
#93=VECTOR('',#92,3.0);
#94=LINE('',#91,#93);
#95=EDGE_CURVE('',#90,#82,#94,.T.);
#96=ORIENTED_EDGE('',*,*,#95,.F.);
#97=CARTESIAN_POINT('',(0.0,13.0,0.0));
#98=DIRECTION('',(0.0,-1.0,0.0));
#99=VECTOR('',#98,26.0);
#100=LINE('',#97,#99);
#101=EDGE_CURVE('',#58,#90,#100,.T.);
#102=ORIENTED_EDGE('',*,*,#101,.F.);
#103=EDGE_LOOP('',(#80,#88,#96,#102));
#104=FACE_OUTER_BOUND('',#103,.T.);
#105=ADVANCED_FACE('',(#104),#79,.F.);
#106=CARTESIAN_POINT('',(2.0,-13.0,0.0));
#107=DIRECTION('',(0.0,0.0,1.0));
#108=DIRECTION('',(1.0,0.0,0.0));
#109=AXIS2_PLACEMENT_3D('',#106,#107,#108);
#110=CYLINDRICAL_SURFACE('',#109,2.0);
#111=ORIENTED_EDGE('',*,*,#95,.T.);
#112=CARTESIAN_POINT('',(2.0,-15.0,-3.0));
#113=VERTEX_POINT('',#112);
#114=CARTESIAN_POINT('',(2.0,-13.0,-3.0));
#115=DIRECTION('',(0.0,0.0,1.0));
#116=DIRECTION('',(1.0,0.0,0.0));
#117=AXIS2_PLACEMENT_3D('',#114,#115,#116);
#118=CIRCLE('',#117,2.0);
#119=EDGE_CURVE('',#82,#113,#118,.T.);
#120=ORIENTED_EDGE('',*,*,#119,.T.);
#121=CARTESIAN_POINT('',(2.0,-15.0,0.0));
#122=VERTEX_POINT('',#121);
#123=CARTESIAN_POINT('',(2.0,-15.0,0.0));
#124=DIRECTION('',(0.0,0.0,-1.0));
#125=VECTOR('',#124,3.0);
#126=LINE('',#123,#125);
#127=EDGE_CURVE('',#122,#113,#126,.T.);
#128=ORIENTED_EDGE('',*,*,#127,.F.);
#129=CARTESIAN_POINT('',(2.0,-13.0,0.0));
#130=DIRECTION('',(0.0,0.0,1.0));
#131=DIRECTION('',(1.0,0.0,0.0));
#132=AXIS2_PLACEMENT_3D('',#129,#130,#131);
#133=CIRCLE('',#132,2.0);
#134=EDGE_CURVE('',#90,#122,#133,.T.);
#135=ORIENTED_EDGE('',*,*,#134,.F.);
#136=EDGE_LOOP('',(#111,#120,#128,#135));
#137=FACE_OUTER_BOUND('',#136,.T.);
#138=ADVANCED_FACE('',(#137),#110,.T.);
#139=CARTESIAN_POINT('',(2.0,-15.0,0.0));
#140=DIRECTION('',(0.0,1.0,0.0));
#141=DIRECTION('',(1.0,0.0,0.0));
#142=AXIS2_PLACEMENT_3D('',#139,#140,#141);
#143=PLANE('',#142);
#144=ORIENTED_EDGE('',*,*,#127,.T.);
#145=CARTESIAN_POINT('',(78.0,-15.0,-3.0));
#146=VERTEX_POINT('',#145);
#147=CARTESIAN_POINT('',(2.0,-15.0,-3.0));
#148=DIRECTION('',(1.0,0.0,0.0));
#149=VECTOR('',#148,76.0);
#150=LINE('',#147,#149);
#151=EDGE_CURVE('',#113,#146,#150,.T.);
#152=ORIENTED_EDGE('',*,*,#151,.T.);
#153=CARTESIAN_POINT('',(78.0,-15.0,0.0));
#154=VERTEX_POINT('',#153);
#155=CARTESIAN_POINT('',(78.0,-15.0,0.0));
#156=DIRECTION('',(0.0,0.0,-1.0));
#157=VECTOR('',#156,3.0);
#158=LINE('',#155,#157);
#159=EDGE_CURVE('',#154,#146,#158,.T.);
#160=ORIENTED_EDGE('',*,*,#159,.F.);
#161=CARTESIAN_POINT('',(2.0,-15.0,0.0));
#162=DIRECTION('',(1.0,0.0,0.0));
#163=VECTOR('',#162,76.0);
#164=LINE('',#161,#163);
#165=EDGE_CURVE('',#122,#154,#164,.T.);
#166=ORIENTED_EDGE('',*,*,#165,.F.);
#167=EDGE_LOOP('',(#144,#152,#160,#166));
#168=FACE_OUTER_BOUND('',#167,.T.);
#169=ADVANCED_FACE('',(#168),#143,.F.);
#170=CARTESIAN_POINT('',(78.0,-13.0,0.0));
#171=DIRECTION('',(0.0,0.0,1.0));
#172=DIRECTION('',(5.053215E-016,-1.0,0.0));
#173=AXIS2_PLACEMENT_3D('',#170,#171,#172);
#174=CYLINDRICAL_SURFACE('',#173,2.0);
#175=ORIENTED_EDGE('',*,*,#159,.T.);
#176=CARTESIAN_POINT('',(80.0,-13.0,-3.0));
#177=VERTEX_POINT('',#176);
#178=CARTESIAN_POINT('',(78.0,-13.0,-3.0));
#179=DIRECTION('',(0.0,0.0,1.0));
#180=DIRECTION('',(1.0,0.0,0.0));
#181=AXIS2_PLACEMENT_3D('',#178,#179,#180);
#182=CIRCLE('',#181,2.0);
#183=EDGE_CURVE('',#146,#177,#182,.T.);
#184=ORIENTED_EDGE('',*,*,#183,.T.);
#185=CARTESIAN_POINT('',(80.0,-13.0,0.0));
#186=VERTEX_POINT('',#185);
#187=CARTESIAN_POINT('',(80.0,-13.0,0.0));
#188=DIRECTION('',(0.0,0.0,-1.0));
#189=VECTOR('',#188,3.0);
#190=LINE('',#187,#189);
#191=EDGE_CURVE('',#186,#177,#190,.T.);
#192=ORIENTED_EDGE('',*,*,#191,.F.);
#193=CARTESIAN_POINT('',(78.0,-13.0,0.0));
#194=DIRECTION('',(0.0,0.0,1.0));
#195=DIRECTION('',(1.0,0.0,0.0));
#196=AXIS2_PLACEMENT_3D('',#193,#194,#195);
#197=CIRCLE('',#196,2.0);
#198=EDGE_CURVE('',#154,#186,#197,.T.);
#199=ORIENTED_EDGE('',*,*,#198,.F.);
#200=EDGE_LOOP('',(#175,#184,#192,#199));
#201=FACE_OUTER_BOUND('',#200,.T.);
#202=ADVANCED_FACE('',(#201),#174,.T.);
#203=CARTESIAN_POINT('',(80.0,-13.0,0.0));
#204=DIRECTION('',(-1.0,0.0,0.0));
#205=DIRECTION('',(0.0,1.0,0.0));
#206=AXIS2_PLACEMENT_3D('',#203,#204,#205);
#207=PLANE('',#206);
#208=ORIENTED_EDGE('',*,*,#191,.T.);
#209=CARTESIAN_POINT('',(80.0,13.0,-3.0));
#210=VERTEX_POINT('',#209);
#211=CARTESIAN_POINT('',(80.0,-13.0,-3.0));
#212=DIRECTION('',(0.0,1.0,0.0));
#213=VECTOR('',#212,26.0);
#214=LINE('',#211,#213);
#215=EDGE_CURVE('',#177,#210,#214,.T.);
#216=ORIENTED_EDGE('',*,*,#215,.T.);
#217=CARTESIAN_POINT('',(80.0,13.0,0.0));
#218=VERTEX_POINT('',#217);
#219=CARTESIAN_POINT('',(80.0,13.0,0.0));
#220=DIRECTION('',(0.0,0.0,-1.0));
#221=VECTOR('',#220,3.0);
#222=LINE('',#219,#221);
#223=EDGE_CURVE('',#218,#210,#222,.T.);
#224=ORIENTED_EDGE('',*,*,#223,.F.);
#225=CARTESIAN_POINT('',(80.0,-13.0,0.0));
#226=DIRECTION('',(0.0,1.0,0.0));
#227=VECTOR('',#226,26.0);
#228=LINE('',#225,#227);
#229=EDGE_CURVE('',#186,#218,#228,.T.);
#230=ORIENTED_EDGE('',*,*,#229,.F.);
#231=EDGE_LOOP('',(#208,#216,#224,#230));
#232=FACE_OUTER_BOUND('',#231,.T.);
#233=ADVANCED_FACE('',(#232),#207,.F.);
#234=CARTESIAN_POINT('',(78.0,13.0,0.0));
#235=DIRECTION('',(0.0,0.0,1.0));
#236=DIRECTION('',(1.0,0.0,0.0));
#237=AXIS2_PLACEMENT_3D('',#234,#235,#236);
#238=CYLINDRICAL_SURFACE('',#237,2.0);
#239=ORIENTED_EDGE('',*,*,#223,.T.);
#240=CARTESIAN_POINT('',(78.0,13.0,-3.0));
#241=DIRECTION('',(0.0,0.0,1.0));
#242=DIRECTION('',(1.0,0.0,0.0));
#243=AXIS2_PLACEMENT_3D('',#240,#241,#242);
#244=CIRCLE('',#243,2.0);
#245=EDGE_CURVE('',#210,#10,#244,.T.);
#246=ORIENTED_EDGE('',*,*,#245,.T.);
#247=ORIENTED_EDGE('',*,*,#15,.F.);
#248=CARTESIAN_POINT('',(78.0,13.0,0.0));
#249=DIRECTION('',(0.0,0.0,1.0));
#250=DIRECTION('',(1.0,0.0,0.0));
#251=AXIS2_PLACEMENT_3D('',#248,#249,#250);
#252=CIRCLE('',#251,2.0);
#253=EDGE_CURVE('',#218,#8,#252,.T.);
#254=ORIENTED_EDGE('',*,*,#253,.F.);
#255=EDGE_LOOP('',(#239,#246,#247,#254));
#256=FACE_OUTER_BOUND('',#255,.T.);
#257=ADVANCED_FACE('',(#256),#238,.T.);
#258=CARTESIAN_POINT('',(-8.000120000616732,-18.000120000543461,0.0));
#259=DIRECTION('',(0.0,0.0,1.0));
#260=DIRECTION('',(1.0,0.0,0.0));
#261=AXIS2_PLACEMENT_3D('',#258,#259,#260);
#262=PLANE('',#261);
#263=ORIENTED_EDGE('',*,*,#37,.T.);
#264=ORIENTED_EDGE('',*,*,#70,.T.);
#265=ORIENTED_EDGE('',*,*,#101,.T.);
#266=ORIENTED_EDGE('',*,*,#134,.T.);
#267=ORIENTED_EDGE('',*,*,#165,.T.);
#268=ORIENTED_EDGE('',*,*,#198,.T.);
#269=ORIENTED_EDGE('',*,*,#229,.T.);
#270=ORIENTED_EDGE('',*,*,#253,.T.);
#271=EDGE_LOOP('',(#263,#264,#265,#266,#267,#268,#269,#270));
#272=FACE_OUTER_BOUND('',#271,.T.);
#273=CARTESIAN_POINT('',(15.500000000000000,-8.500000000000000,0.0));
#274=VERTEX_POINT('',#273);
#275=CARTESIAN_POINT('',(21.500000000000000,-8.500000000000000,0.0));
#276=VERTEX_POINT('',#275);
#277=CARTESIAN_POINT('',(18.500000000000000,-8.500000000000000,0.0));
#278=DIRECTION('',(0.0,0.0,1.0));
#279=DIRECTION('',(1.0,0.0,0.0));
#280=AXIS2_PLACEMENT_3D('',#277,#278,#279);
#281=CIRCLE('',#280,3.0);
#282=EDGE_CURVE('',#274,#276,#281,.T.);
#283=ORIENTED_EDGE('',*,*,#282,.F.);
#284=CARTESIAN_POINT('',(18.500000000000000,-8.500000000000000,0.0));
#285=DIRECTION('',(0.0,0.0,1.0));
#286=DIRECTION('',(1.0,0.0,0.0));
#287=AXIS2_PLACEMENT_3D('',#284,#285,#286);
#288=CIRCLE('',#287,3.0);
#289=EDGE_CURVE('',#276,#274,#288,.T.);
#290=ORIENTED_EDGE('',*,*,#289,.F.);
#291=EDGE_LOOP('',(#283,#290));
#292=FACE_BOUND('',#291,.T.);
#293=CARTESIAN_POINT('',(15.500000000000000,8.500000000000000,0.0));
#294=VERTEX_POINT('',#293);
#295=CARTESIAN_POINT('',(21.500000000000000,8.500000000000000,0.0));
#296=VERTEX_POINT('',#295);
#297=CARTESIAN_POINT('',(18.500000000000000,8.500000000000000,0.0));
#298=DIRECTION('',(0.0,0.0,1.0));
#299=DIRECTION('',(1.0,0.0,0.0));
#300=AXIS2_PLACEMENT_3D('',#297,#298,#299);
#301=CIRCLE('',#300,3.0);
#302=EDGE_CURVE('',#294,#296,#301,.T.);
#303=ORIENTED_EDGE('',*,*,#302,.F.);
#304=CARTESIAN_POINT('',(18.500000000000000,8.500000000000000,0.0));
#305=DIRECTION('',(0.0,0.0,1.0));
#306=DIRECTION('',(1.0,0.0,0.0));
#307=AXIS2_PLACEMENT_3D('',#304,#305,#306);
#308=CIRCLE('',#307,3.0);
#309=EDGE_CURVE('',#296,#294,#308,.T.);
#310=ORIENTED_EDGE('',*,*,#309,.F.);
#311=EDGE_LOOP('',(#303,#310));
#312=FACE_BOUND('',#311,.T.);
#313=CARTESIAN_POINT('',(47.0,-3.500000000000000,0.0));
#314=VERTEX_POINT('',#313);
#315=CARTESIAN_POINT('',(53.0,-3.500000000000000,0.0));
#316=VERTEX_POINT('',#315);
#317=CARTESIAN_POINT('',(50.0,-3.500000000000000,0.0));
#318=DIRECTION('',(0.0,0.0,1.0));
#319=DIRECTION('',(1.0,0.0,0.0));
#320=AXIS2_PLACEMENT_3D('',#317,#318,#319);
#321=CIRCLE('',#320,3.0);
#322=EDGE_CURVE('',#314,#316,#321,.T.);
#323=ORIENTED_EDGE('',*,*,#322,.F.);
#324=CARTESIAN_POINT('',(50.0,-3.500000000000000,0.0));
#325=DIRECTION('',(0.0,0.0,1.0));
#326=DIRECTION('',(1.0,0.0,0.0));
#327=AXIS2_PLACEMENT_3D('',#324,#325,#326);
#328=CIRCLE('',#327,3.0);
#329=EDGE_CURVE('',#316,#314,#328,.T.);
#330=ORIENTED_EDGE('',*,*,#329,.F.);
#331=EDGE_LOOP('',(#323,#330));
#332=FACE_BOUND('',#331,.T.);
#333=CARTESIAN_POINT('',(67.0,-3.500000000000000,0.0));
#334=VERTEX_POINT('',#333);
#335=CARTESIAN_POINT('',(73.0,-3.500000000000000,0.0));
#336=VERTEX_POINT('',#335);
#337=CARTESIAN_POINT('',(70.0,-3.500000000000000,0.0));
#338=DIRECTION('',(0.0,0.0,1.0));
#339=DIRECTION('',(1.0,0.0,0.0));
#340=AXIS2_PLACEMENT_3D('',#337,#338,#339);
#341=CIRCLE('',#340,3.0);
#342=EDGE_CURVE('',#334,#336,#341,.T.);
#343=ORIENTED_EDGE('',*,*,#342,.F.);
#344=CARTESIAN_POINT('',(70.0,-3.500000000000000,0.0));
#345=DIRECTION('',(0.0,0.0,1.0));
#346=DIRECTION('',(1.0,0.0,0.0));
#347=AXIS2_PLACEMENT_3D('',#344,#345,#346);
#348=CIRCLE('',#347,3.0);
#349=EDGE_CURVE('',#336,#334,#348,.T.);
#350=ORIENTED_EDGE('',*,*,#349,.F.);
#351=EDGE_LOOP('',(#343,#350));
#352=FACE_BOUND('',#351,.T.);
#353=ADVANCED_FACE('',(#272,#292,#312,#332,#352),#262,.T.);
#354=CARTESIAN_POINT('',(-8.000120000616732,-18.000120000543461,-3.0));
#355=DIRECTION('',(0.0,0.0,1.0));
#356=DIRECTION('',(1.0,0.0,0.0));
#357=AXIS2_PLACEMENT_3D('',#354,#355,#356);
#358=PLANE('',#357);
#359=ORIENTED_EDGE('',*,*,#245,.F.);
#360=ORIENTED_EDGE('',*,*,#215,.F.);
#361=ORIENTED_EDGE('',*,*,#183,.F.);
#362=ORIENTED_EDGE('',*,*,#151,.F.);
#363=ORIENTED_EDGE('',*,*,#119,.F.);
#364=ORIENTED_EDGE('',*,*,#87,.F.);
#365=ORIENTED_EDGE('',*,*,#55,.F.);
#366=ORIENTED_EDGE('',*,*,#23,.F.);
#367=EDGE_LOOP('',(#359,#360,#361,#362,#363,#364,#365,#366));
#368=FACE_OUTER_BOUND('',#367,.T.);
#369=CARTESIAN_POINT('',(15.500000000000000,-8.500000000000000,-3.0));
#370=VERTEX_POINT('',#369);
#371=CARTESIAN_POINT('',(21.500000000000000,-8.500000000000000,-3.0));
#372=VERTEX_POINT('',#371);
#373=CARTESIAN_POINT('',(18.500000000000000,-8.500000000000000,-3.0));
#374=DIRECTION('',(0.0,0.0,-1.0));
#375=DIRECTION('',(1.0,0.0,0.0));
#376=AXIS2_PLACEMENT_3D('',#373,#374,#375);
#377=CIRCLE('',#376,3.0);
#378=EDGE_CURVE('',#370,#372,#377,.T.);
#379=ORIENTED_EDGE('',*,*,#378,.F.);
#380=CARTESIAN_POINT('',(18.500000000000000,-8.500000000000000,-3.0));
#381=DIRECTION('',(0.0,0.0,-1.0));
#382=DIRECTION('',(1.0,0.0,0.0));
#383=AXIS2_PLACEMENT_3D('',#380,#381,#382);
#384=CIRCLE('',#383,3.0);
#385=EDGE_CURVE('',#372,#370,#384,.T.);
#386=ORIENTED_EDGE('',*,*,#385,.F.);
#387=EDGE_LOOP('',(#379,#386));
#388=FACE_BOUND('',#387,.T.);
#389=CARTESIAN_POINT('',(15.500000000000000,8.500000000000000,-3.0));
#390=VERTEX_POINT('',#389);
#391=CARTESIAN_POINT('',(21.500000000000000,8.500000000000000,-3.0));
#392=VERTEX_POINT('',#391);
#393=CARTESIAN_POINT('',(18.500000000000000,8.500000000000000,-3.0));
#394=DIRECTION('',(0.0,0.0,-1.0));
#395=DIRECTION('',(1.0,0.0,0.0));
#396=AXIS2_PLACEMENT_3D('',#393,#394,#395);
#397=CIRCLE('',#396,3.0);
#398=EDGE_CURVE('',#390,#392,#397,.T.);
#399=ORIENTED_EDGE('',*,*,#398,.F.);
#400=CARTESIAN_POINT('',(18.500000000000000,8.500000000000000,-3.0));
#401=DIRECTION('',(0.0,0.0,-1.0));
#402=DIRECTION('',(1.0,0.0,0.0));
#403=AXIS2_PLACEMENT_3D('',#400,#401,#402);
#404=CIRCLE('',#403,3.0);
#405=EDGE_CURVE('',#392,#390,#404,.T.);
#406=ORIENTED_EDGE('',*,*,#405,.F.);
#407=EDGE_LOOP('',(#399,#406));
#408=FACE_BOUND('',#407,.T.);
#409=CARTESIAN_POINT('',(47.0,-3.500000000000000,-3.0));
#410=VERTEX_POINT('',#409);
#411=CARTESIAN_POINT('',(53.0,-3.500000000000000,-3.0));
#412=VERTEX_POINT('',#411);
#413=CARTESIAN_POINT('',(50.0,-3.500000000000000,-3.0));
#414=DIRECTION('',(0.0,0.0,-1.0));
#415=DIRECTION('',(1.0,0.0,0.0));
#416=AXIS2_PLACEMENT_3D('',#413,#414,#415);
#417=CIRCLE('',#416,3.0);
#418=EDGE_CURVE('',#410,#412,#417,.T.);
#419=ORIENTED_EDGE('',*,*,#418,.F.);
#420=CARTESIAN_POINT('',(50.0,-3.500000000000000,-3.0));
#421=DIRECTION('',(0.0,0.0,-1.0));
#422=DIRECTION('',(1.0,0.0,0.0));
#423=AXIS2_PLACEMENT_3D('',#420,#421,#422);
#424=CIRCLE('',#423,3.0);
#425=EDGE_CURVE('',#412,#410,#424,.T.);
#426=ORIENTED_EDGE('',*,*,#425,.F.);
#427=EDGE_LOOP('',(#419,#426));
#428=FACE_BOUND('',#427,.T.);
#429=CARTESIAN_POINT('',(67.0,-3.500000000000000,-3.0));
#430=VERTEX_POINT('',#429);
#431=CARTESIAN_POINT('',(73.0,-3.500000000000000,-3.0));
#432=VERTEX_POINT('',#431);
#433=CARTESIAN_POINT('',(70.0,-3.500000000000000,-3.0));
#434=DIRECTION('',(0.0,0.0,-1.0));
#435=DIRECTION('',(1.0,0.0,0.0));
#436=AXIS2_PLACEMENT_3D('',#433,#434,#435);
#437=CIRCLE('',#436,3.0);
#438=EDGE_CURVE('',#430,#432,#437,.T.);
#439=ORIENTED_EDGE('',*,*,#438,.F.);
#440=CARTESIAN_POINT('',(70.0,-3.500000000000000,-3.0));
#441=DIRECTION('',(0.0,0.0,-1.0));
#442=DIRECTION('',(1.0,0.0,0.0));
#443=AXIS2_PLACEMENT_3D('',#440,#441,#442);
#444=CIRCLE('',#443,3.0);
#445=EDGE_CURVE('',#432,#430,#444,.T.);
#446=ORIENTED_EDGE('',*,*,#445,.F.);
#447=EDGE_LOOP('',(#439,#446));
#448=FACE_BOUND('',#447,.T.);
#449=ADVANCED_FACE('',(#368,#388,#408,#428,#448),#358,.F.);
#450=CARTESIAN_POINT('',(18.500000000000000,-8.500000000000000,0.0));
#451=DIRECTION('',(0.0,0.0,1.0));
#452=DIRECTION('',(1.0,0.0,0.0));
#453=AXIS2_PLACEMENT_3D('',#450,#451,#452);
#454=CYLINDRICAL_SURFACE('',#453,3.0);
#455=CARTESIAN_POINT('',(21.500000000000000,-8.500000000000000,0.0));
#456=DIRECTION('',(0.0,0.0,-1.0));
#457=VECTOR('',#456,3.0);
#458=LINE('',#455,#457);
#459=EDGE_CURVE('',#276,#372,#458,.T.);
#460=ORIENTED_EDGE('',*,*,#459,.T.);
#461=ORIENTED_EDGE('',*,*,#385,.T.);
#462=ORIENTED_EDGE('',*,*,#378,.T.);
#463=ORIENTED_EDGE('',*,*,#459,.F.);
#464=ORIENTED_EDGE('',*,*,#289,.T.);
#465=ORIENTED_EDGE('',*,*,#282,.T.);
#466=EDGE_LOOP('',(#460,#461,#462,#463,#464,#465));
#467=FACE_OUTER_BOUND('',#466,.T.);
#468=ADVANCED_FACE('',(#467),#454,.F.);
#469=CARTESIAN_POINT('',(18.500000000000000,8.500000000000000,0.0));
#470=DIRECTION('',(0.0,0.0,1.0));
#471=DIRECTION('',(1.0,0.0,0.0));
#472=AXIS2_PLACEMENT_3D('',#469,#470,#471);
#473=CYLINDRICAL_SURFACE('',#472,3.0);
#474=CARTESIAN_POINT('',(21.500000000000000,8.500000000000000,0.0));
#475=DIRECTION('',(0.0,0.0,-1.0));
#476=VECTOR('',#475,3.0);
#477=LINE('',#474,#476);
#478=EDGE_CURVE('',#296,#392,#477,.T.);
#479=ORIENTED_EDGE('',*,*,#478,.T.);
#480=ORIENTED_EDGE('',*,*,#405,.T.);
#481=ORIENTED_EDGE('',*,*,#398,.T.);
#482=ORIENTED_EDGE('',*,*,#478,.F.);
#483=ORIENTED_EDGE('',*,*,#309,.T.);
#484=ORIENTED_EDGE('',*,*,#302,.T.);
#485=EDGE_LOOP('',(#479,#480,#481,#482,#483,#484));
#486=FACE_OUTER_BOUND('',#485,.T.);
#487=ADVANCED_FACE('',(#486),#473,.F.);
#488=CARTESIAN_POINT('',(50.0,-3.500000000000000,0.0));
#489=DIRECTION('',(0.0,0.0,1.0));
#490=DIRECTION('',(1.0,0.0,0.0));
#491=AXIS2_PLACEMENT_3D('',#488,#489,#490);
#492=CYLINDRICAL_SURFACE('',#491,3.0);
#493=CARTESIAN_POINT('',(53.0,-3.500000000000000,0.0));
#494=DIRECTION('',(0.0,0.0,-1.0));
#495=VECTOR('',#494,3.0);
#496=LINE('',#493,#495);
#497=EDGE_CURVE('',#316,#412,#496,.T.);
#498=ORIENTED_EDGE('',*,*,#497,.T.);
#499=ORIENTED_EDGE('',*,*,#425,.T.);
#500=ORIENTED_EDGE('',*,*,#418,.T.);
#501=ORIENTED_EDGE('',*,*,#497,.F.);
#502=ORIENTED_EDGE('',*,*,#329,.T.);
#503=ORIENTED_EDGE('',*,*,#322,.T.);
#504=EDGE_LOOP('',(#498,#499,#500,#501,#502,#503));
#505=FACE_OUTER_BOUND('',#504,.T.);
#506=ADVANCED_FACE('',(#505),#492,.F.);
#507=CARTESIAN_POINT('',(70.0,-3.500000000000000,0.0));
#508=DIRECTION('',(0.0,0.0,1.0));
#509=DIRECTION('',(1.0,0.0,0.0));
#510=AXIS2_PLACEMENT_3D('',#507,#508,#509);
#511=CYLINDRICAL_SURFACE('',#510,3.0);
#512=CARTESIAN_POINT('',(73.0,-3.500000000000000,0.0));
#513=DIRECTION('',(0.0,0.0,-1.0));
#514=VECTOR('',#513,3.0);
#515=LINE('',#512,#514);
#516=EDGE_CURVE('',#336,#432,#515,.T.);
#517=ORIENTED_EDGE('',*,*,#516,.T.);
#518=ORIENTED_EDGE('',*,*,#445,.T.);
#519=ORIENTED_EDGE('',*,*,#438,.T.);
#520=ORIENTED_EDGE('',*,*,#516,.F.);
#521=ORIENTED_EDGE('',*,*,#349,.T.);
#522=ORIENTED_EDGE('',*,*,#342,.T.);
#523=EDGE_LOOP('',(#517,#518,#519,#520,#521,#522));
#524=FACE_OUTER_BOUND('',#523,.T.);
#525=ADVANCED_FACE('',(#524),#511,.F.);
#526=CLOSED_SHELL('',(#41,#74,#105,#138,#169,#202,#233,#257,#353,#449,#468,#487,#506,#525));
#527=MANIFOLD_SOLID_BREP('',#526);
#533=(NAMED_UNIT(*)PLANE_ANGLE_UNIT()SI_UNIT($,.RADIAN.));
#534=DIMENSIONAL_EXPONENTS(0.0,0.0,0.0,0.0,0.0,0.0,0.0);
#535=PLANE_ANGLE_MEASURE_WITH_UNIT(PLANE_ANGLE_MEASURE(0.017453292500000),#533);
#539=(CONVERSION_BASED_UNIT('DEGREE',#535)NAMED_UNIT(#534)PLANE_ANGLE_UNIT());
#543=(NAMED_UNIT(*)SI_UNIT($,.STERADIAN.)SOLID_ANGLE_UNIT());
#547=(LENGTH_UNIT()NAMED_UNIT(*)SI_UNIT(.MILLI.,.METRE.));
#549=UNCERTAINTY_MEASURE_WITH_UNIT(LENGTH_MEASURE(0.001000000000000),#547,'DISTANCE_ACCURACY_VALUE','');
#551=(GEOMETRIC_REPRESENTATION_CONTEXT(3)GLOBAL_UNCERTAINTY_ASSIGNED_CONTEXT((#549))GLOBAL_UNIT_ASSIGNED_CONTEXT((#539,#543,#547))REPRESENTATION_CONTEXT('thinkdesign','2009.3.110'));
#552=ADVANCED_BREP_SHAPE_REPRESENTATION('',(#527),#551);
#553=APPLICATION_CONTEXT('configuration controlled 3D designs of mechanical parts and assemblies');
#554=APPLICATION_PROTOCOL_DEFINITION('International Standard','config_control_design',1995,#553);
#555=MECHANICAL_CONTEXT('None',#553,'mechanical');
#556=PRODUCT('None','None','None',(#555));
#557=PRODUCT_RELATED_PRODUCT_CATEGORY('detail',$,(#556));
#558=PRODUCT_CATEGORY('part',$);
#559=PRODUCT_CATEGORY_RELATIONSHIP('None','None',#558,#557);
#560=PERSON('PERSON1','None','None',$,$,$);
#561=ORGANIZATION('','None','None');
#562=PERSON_AND_ORGANIZATION(#560,#561);
#563=PERSON_AND_ORGANIZATION_ROLE('design_owner');
#564=CC_DESIGN_PERSON_AND_ORGANIZATION_ASSIGNMENT(#562,#563,(#556));
#565=PRODUCT_DEFINITION_FORMATION_WITH_SPECIFIED_SOURCE('None','None',#556,.NOT_KNOWN.);
#566=PERSON('PERSON2','None','None',$,$,$);
#567=ORGANIZATION('','None','None');
#568=PERSON_AND_ORGANIZATION(#566,#567);
#569=PERSON_AND_ORGANIZATION_ROLE('creator');
#570=CC_DESIGN_PERSON_AND_ORGANIZATION_ASSIGNMENT(#568,#569,(#565));
#571=PERSON('PERSON3','None','None',$,$,$);
#572=ORGANIZATION('','None','None');
#573=PERSON_AND_ORGANIZATION(#571,#572);
#574=PERSON_AND_ORGANIZATION_ROLE('part_supplier');
#575=CC_DESIGN_PERSON_AND_ORGANIZATION_ASSIGNMENT(#573,#574,(#565));
#576=APPROVAL_STATUS('approved');
#577=APPROVAL(#576,'None');
#578=PERSON('PERSON4','None','None',$,$,$);
#579=ORGANIZATION('','None','None');
#580=PERSON_AND_ORGANIZATION(#578,#579);
#581=APPROVAL_ROLE('None');
#582=APPROVAL_PERSON_ORGANIZATION(#580,#577,#581);
#583=CALENDAR_DATE(2011,7,3);
#584=COORDINATED_UNIVERSAL_TIME_OFFSET(0,0,.AHEAD.);
#585=LOCAL_TIME(9,30,44.0,#584);
#586=DATE_AND_TIME(#583,#585);
#587=APPROVAL_DATE_TIME(#586,#577);
#588=CC_DESIGN_APPROVAL(#577,(#565));
#589=SECURITY_CLASSIFICATION_LEVEL('unclassified');
#590=SECURITY_CLASSIFICATION('None','None',#589);
#591=CC_DESIGN_SECURITY_CLASSIFICATION(#590,(#565));
#592=APPROVAL_STATUS('approved');
#593=APPROVAL(#592,'None');
#594=PERSON('PERSON5','None','None',$,$,$);
#595=ORGANIZATION('','None','None');
#596=PERSON_AND_ORGANIZATION(#594,#595);
#597=APPROVAL_ROLE('None');
#598=APPROVAL_PERSON_ORGANIZATION(#596,#593,#597);
#599=CALENDAR_DATE(2011,7,3);
#600=COORDINATED_UNIVERSAL_TIME_OFFSET(0,0,.AHEAD.);
#601=LOCAL_TIME(9,30,44.0,#600);
#602=DATE_AND_TIME(#599,#601);
#603=APPROVAL_DATE_TIME(#602,#593);
#604=CC_DESIGN_APPROVAL(#593,(#590));
#605=PERSON('PERSON6','None','None',$,$,$);
#606=ORGANIZATION('','None','None');
#607=PERSON_AND_ORGANIZATION(#605,#606);
#608=PERSON_AND_ORGANIZATION_ROLE('classification_officer');
#609=CC_DESIGN_PERSON_AND_ORGANIZATION_ASSIGNMENT(#607,#608,(#590));
#610=DATE_TIME_ROLE('classification_date');
#611=CALENDAR_DATE(2011,7,3);
#612=COORDINATED_UNIVERSAL_TIME_OFFSET(0,0,.AHEAD.);
#613=LOCAL_TIME(9,30,44.0,#612);
#614=DATE_AND_TIME(#611,#613);
#615=CC_DESIGN_DATE_AND_TIME_ASSIGNMENT(#614,#610,(#590));
#616=DESIGN_CONTEXT('part definition',#553,'design');
#617=DOCUMENT_TYPE('cad_filename');
#618=DOCUMENT('None','None','None',#617);
#619=PRODUCT_DEFINITION_WITH_ASSOCIATED_DOCUMENTS('None','None',#565,#616,(#618));
#620=PERSON('PERSON7','None','None',$,$,$);
#621=ORGANIZATION('','None','None');
#622=PERSON_AND_ORGANIZATION(#620,#621);
#623=PERSON_AND_ORGANIZATION_ROLE('creator');
#624=CC_DESIGN_PERSON_AND_ORGANIZATION_ASSIGNMENT(#622,#623,(#619));
#625=DATE_TIME_ROLE('creation_date');
#626=CALENDAR_DATE(2011,7,3);
#627=COORDINATED_UNIVERSAL_TIME_OFFSET(0,0,.AHEAD.);
#628=LOCAL_TIME(9,30,44.0,#627);
#629=DATE_AND_TIME(#626,#628);
#630=CC_DESIGN_DATE_AND_TIME_ASSIGNMENT(#629,#625,(#619));
#631=APPROVAL_STATUS('approved');
#632=APPROVAL(#631,'None');
#633=PERSON('PERSON8','None','None',$,$,$);
#634=ORGANIZATION('','None','None');
#635=PERSON_AND_ORGANIZATION(#633,#634);
#636=APPROVAL_ROLE('None');
#637=APPROVAL_PERSON_ORGANIZATION(#635,#632,#636);
#638=CALENDAR_DATE(2011,7,3);
#639=COORDINATED_UNIVERSAL_TIME_OFFSET(0,0,.AHEAD.);
#640=LOCAL_TIME(9,30,44.0,#639);
#641=DATE_AND_TIME(#638,#640);
#642=APPROVAL_DATE_TIME(#641,#632);
#643=CC_DESIGN_APPROVAL(#632,(#619));
#644=PRODUCT_DEFINITION_SHAPE('None','None',#619);
#645=SHAPE_DEFINITION_REPRESENTATION(#644,#552);
#646=DIMENSIONAL_EXPONENTS(0.0,0.0,0.0,0.0,0.0,0.0,0.0);
#647=DIMENSIONAL_EXPONENTS(1.0,0.0,0.0,0.0,0.0,0.0,0.0);
ENDSEC;
END-ISO-10303-21;
