ISO-10303-21;
HEADER;
/* Generated by software containing ST-Developer
 * from STEP Tools, Inc. (www.steptools.com) 
 */

FILE_DESCRIPTION(
/* description */ ('PIATTO FIX 70X30X3 CON ASOLA L=35'),
/* implementation_level */ '2;1');

FILE_NAME(
/* name */ 
'C:\\Users\\tecnico7\\Desktop\\NUOVI DISEGNI 3D\\DPSXX0000992.stp',
/* time_stamp */ '2022-11-21T09:59:12+01:00',
/* author */ ('tecnico7'),
/* organization */ (''),
/* preprocessor_version */ 'ST-DEVELOPER v18.1',
/* originating_system */ 'Autodesk Inventor 2022',
/* authorisation */ '');

FILE_SCHEMA (('AUTOMOTIVE_DESIGN { 1 0 10303 214 3 1 1 }'));
ENDSEC;

DATA;
#10=MECHANICAL_DESIGN_GEOMETRIC_PRESENTATION_REPRESENTATION('',(#13),#575);
#11=SHAPE_REPRESENTATION_RELATIONSHIP('SRR','None',#582,#12);
#12=ADVANCED_BREP_SHAPE_REPRESENTATION('',(#14),#574);
#13=STYLED_ITEM('',(#591),#14);
#14=MANIFOLD_SOLID_BREP('Importato1',#326);
#15=FACE_BOUND('',#59,.T.);
#16=FACE_BOUND('',#61,.T.);
#17=PLANE('',#355);
#18=PLANE('',#359);
#19=PLANE('',#363);
#20=PLANE('',#367);
#21=PLANE('',#371);
#22=PLANE('',#375);
#23=PLANE('',#379);
#24=PLANE('',#380);
#25=PLANE('',#381);
#26=FACE_OUTER_BOUND('',#43,.T.);
#27=FACE_OUTER_BOUND('',#44,.T.);
#28=FACE_OUTER_BOUND('',#45,.T.);
#29=FACE_OUTER_BOUND('',#46,.T.);
#30=FACE_OUTER_BOUND('',#47,.T.);
#31=FACE_OUTER_BOUND('',#48,.T.);
#32=FACE_OUTER_BOUND('',#49,.T.);
#33=FACE_OUTER_BOUND('',#50,.T.);
#34=FACE_OUTER_BOUND('',#51,.T.);
#35=FACE_OUTER_BOUND('',#52,.T.);
#36=FACE_OUTER_BOUND('',#53,.T.);
#37=FACE_OUTER_BOUND('',#54,.T.);
#38=FACE_OUTER_BOUND('',#55,.T.);
#39=FACE_OUTER_BOUND('',#56,.T.);
#40=FACE_OUTER_BOUND('',#57,.T.);
#41=FACE_OUTER_BOUND('',#58,.T.);
#42=FACE_OUTER_BOUND('',#60,.T.);
#43=EDGE_LOOP('',(#211,#212,#213,#214));
#44=EDGE_LOOP('',(#215,#216,#217,#218));
#45=EDGE_LOOP('',(#219,#220,#221,#222));
#46=EDGE_LOOP('',(#223,#224,#225,#226));
#47=EDGE_LOOP('',(#227,#228,#229,#230));
#48=EDGE_LOOP('',(#231,#232,#233,#234));
#49=EDGE_LOOP('',(#235,#236,#237,#238));
#50=EDGE_LOOP('',(#239,#240,#241,#242));
#51=EDGE_LOOP('',(#243,#244,#245,#246));
#52=EDGE_LOOP('',(#247,#248,#249,#250));
#53=EDGE_LOOP('',(#251,#252,#253,#254));
#54=EDGE_LOOP('',(#255,#256,#257,#258));
#55=EDGE_LOOP('',(#259,#260,#261,#262));
#56=EDGE_LOOP('',(#263,#264,#265,#266));
#57=EDGE_LOOP('',(#267,#268,#269,#270));
#58=EDGE_LOOP('',(#271,#272,#273,#274,#275,#276,#277,#278,#279,#280,#281,
#282,#283,#284));
#59=EDGE_LOOP('',(#285));
#60=EDGE_LOOP('',(#286,#287,#288,#289,#290,#291,#292,#293,#294,#295,#296,
#297,#298,#299));
#61=EDGE_LOOP('',(#300));
#62=LINE('',#484,#91);
#63=LINE('',#491,#92);
#64=LINE('',#494,#93);
#65=LINE('',#497,#94);
#66=LINE('',#499,#95);
#67=LINE('',#500,#96);
#68=LINE('',#506,#97);
#69=LINE('',#509,#98);
#70=LINE('',#511,#99);
#71=LINE('',#512,#100);
#72=LINE('',#518,#101);
#73=LINE('',#521,#102);
#74=LINE('',#523,#103);
#75=LINE('',#524,#104);
#76=LINE('',#530,#105);
#77=LINE('',#533,#106);
#78=LINE('',#535,#107);
#79=LINE('',#536,#108);
#80=LINE('',#542,#109);
#81=LINE('',#545,#110);
#82=LINE('',#547,#111);
#83=LINE('',#548,#112);
#84=LINE('',#554,#113);
#85=LINE('',#557,#114);
#86=LINE('',#559,#115);
#87=LINE('',#560,#116);
#88=LINE('',#566,#117);
#89=LINE('',#568,#118);
#90=LINE('',#569,#119);
#91=VECTOR('',#388,3.);
#92=VECTOR('',#395,3.);
#93=VECTOR('',#398,3.);
#94=VECTOR('',#401,10.5);
#95=VECTOR('',#402,10.5);
#96=VECTOR('',#403,3.);
#97=VECTOR('',#410,3.);
#98=VECTOR('',#413,31.);
#99=VECTOR('',#414,31.);
#100=VECTOR('',#415,3.);
#101=VECTOR('',#422,3.);
#102=VECTOR('',#425,31.);
#103=VECTOR('',#426,31.);
#104=VECTOR('',#427,3.);
#105=VECTOR('',#434,3.);
#106=VECTOR('',#437,10.5);
#107=VECTOR('',#438,10.5);
#108=VECTOR('',#439,3.);
#109=VECTOR('',#446,3.);
#110=VECTOR('',#449,69.);
#111=VECTOR('',#450,69.);
#112=VECTOR('',#451,3.);
#113=VECTOR('',#458,3.);
#114=VECTOR('',#461,29.);
#115=VECTOR('',#462,29.);
#116=VECTOR('',#463,3.);
#117=VECTOR('',#470,3.);
#118=VECTOR('',#473,69.);
#119=VECTOR('',#474,69.);
#120=CIRCLE('',#350,3.);
#121=CIRCLE('',#351,3.);
#122=CIRCLE('',#353,0.500000000000001);
#123=CIRCLE('',#354,0.500000000000001);
#124=CIRCLE('',#357,0.500000000000001);
#125=CIRCLE('',#358,0.500000000000001);
#126=CIRCLE('',#361,3.5);
#127=CIRCLE('',#362,3.5);
#128=CIRCLE('',#365,0.500000000000001);
#129=CIRCLE('',#366,0.500000000000001);
#130=CIRCLE('',#369,0.500000000000001);
#131=CIRCLE('',#370,0.500000000000001);
#132=CIRCLE('',#373,0.500000000000001);
#133=CIRCLE('',#374,0.500000000000001);
#134=CIRCLE('',#377,0.500000000000001);
#135=CIRCLE('',#378,0.500000000000001);
#136=VERTEX_POINT('',#481);
#137=VERTEX_POINT('',#483);
#138=VERTEX_POINT('',#487);
#139=VERTEX_POINT('',#488);
#140=VERTEX_POINT('',#490);
#141=VERTEX_POINT('',#492);
#142=VERTEX_POINT('',#496);
#143=VERTEX_POINT('',#498);
#144=VERTEX_POINT('',#502);
#145=VERTEX_POINT('',#504);
#146=VERTEX_POINT('',#508);
#147=VERTEX_POINT('',#510);
#148=VERTEX_POINT('',#514);
#149=VERTEX_POINT('',#516);
#150=VERTEX_POINT('',#520);
#151=VERTEX_POINT('',#522);
#152=VERTEX_POINT('',#526);
#153=VERTEX_POINT('',#528);
#154=VERTEX_POINT('',#532);
#155=VERTEX_POINT('',#534);
#156=VERTEX_POINT('',#538);
#157=VERTEX_POINT('',#540);
#158=VERTEX_POINT('',#544);
#159=VERTEX_POINT('',#546);
#160=VERTEX_POINT('',#550);
#161=VERTEX_POINT('',#552);
#162=VERTEX_POINT('',#556);
#163=VERTEX_POINT('',#558);
#164=VERTEX_POINT('',#562);
#165=VERTEX_POINT('',#564);
#166=EDGE_CURVE('',#136,#136,#120,.T.);
#167=EDGE_CURVE('',#136,#137,#62,.T.);
#168=EDGE_CURVE('',#137,#137,#121,.T.);
#169=EDGE_CURVE('',#138,#139,#122,.T.);
#170=EDGE_CURVE('',#140,#138,#63,.T.);
#171=EDGE_CURVE('',#140,#141,#123,.T.);
#172=EDGE_CURVE('',#141,#139,#64,.T.);
#173=EDGE_CURVE('',#139,#142,#65,.T.);
#174=EDGE_CURVE('',#141,#143,#66,.T.);
#175=EDGE_CURVE('',#143,#142,#67,.T.);
#176=EDGE_CURVE('',#142,#144,#124,.T.);
#177=EDGE_CURVE('',#143,#145,#125,.T.);
#178=EDGE_CURVE('',#145,#144,#68,.T.);
#179=EDGE_CURVE('',#144,#146,#69,.T.);
#180=EDGE_CURVE('',#145,#147,#70,.T.);
#181=EDGE_CURVE('',#147,#146,#71,.T.);
#182=EDGE_CURVE('',#146,#148,#126,.T.);
#183=EDGE_CURVE('',#147,#149,#127,.T.);
#184=EDGE_CURVE('',#149,#148,#72,.T.);
#185=EDGE_CURVE('',#148,#150,#73,.T.);
#186=EDGE_CURVE('',#149,#151,#74,.T.);
#187=EDGE_CURVE('',#151,#150,#75,.T.);
#188=EDGE_CURVE('',#150,#152,#128,.T.);
#189=EDGE_CURVE('',#151,#153,#129,.T.);
#190=EDGE_CURVE('',#153,#152,#76,.T.);
#191=EDGE_CURVE('',#152,#154,#77,.T.);
#192=EDGE_CURVE('',#153,#155,#78,.T.);
#193=EDGE_CURVE('',#155,#154,#79,.T.);
#194=EDGE_CURVE('',#154,#156,#130,.T.);
#195=EDGE_CURVE('',#155,#157,#131,.T.);
#196=EDGE_CURVE('',#157,#156,#80,.T.);
#197=EDGE_CURVE('',#156,#158,#81,.T.);
#198=EDGE_CURVE('',#157,#159,#82,.T.);
#199=EDGE_CURVE('',#159,#158,#83,.T.);
#200=EDGE_CURVE('',#158,#160,#132,.T.);
#201=EDGE_CURVE('',#159,#161,#133,.T.);
#202=EDGE_CURVE('',#161,#160,#84,.T.);
#203=EDGE_CURVE('',#160,#162,#85,.T.);
#204=EDGE_CURVE('',#161,#163,#86,.T.);
#205=EDGE_CURVE('',#163,#162,#87,.T.);
#206=EDGE_CURVE('',#162,#164,#134,.T.);
#207=EDGE_CURVE('',#163,#165,#135,.T.);
#208=EDGE_CURVE('',#165,#164,#88,.T.);
#209=EDGE_CURVE('',#164,#138,#89,.T.);
#210=EDGE_CURVE('',#165,#140,#90,.T.);
#211=ORIENTED_EDGE('',*,*,#166,.F.);
#212=ORIENTED_EDGE('',*,*,#167,.T.);
#213=ORIENTED_EDGE('',*,*,#168,.T.);
#214=ORIENTED_EDGE('',*,*,#167,.F.);
#215=ORIENTED_EDGE('',*,*,#169,.F.);
#216=ORIENTED_EDGE('',*,*,#170,.F.);
#217=ORIENTED_EDGE('',*,*,#171,.T.);
#218=ORIENTED_EDGE('',*,*,#172,.T.);
#219=ORIENTED_EDGE('',*,*,#173,.F.);
#220=ORIENTED_EDGE('',*,*,#172,.F.);
#221=ORIENTED_EDGE('',*,*,#174,.T.);
#222=ORIENTED_EDGE('',*,*,#175,.T.);
#223=ORIENTED_EDGE('',*,*,#176,.F.);
#224=ORIENTED_EDGE('',*,*,#175,.F.);
#225=ORIENTED_EDGE('',*,*,#177,.T.);
#226=ORIENTED_EDGE('',*,*,#178,.T.);
#227=ORIENTED_EDGE('',*,*,#179,.F.);
#228=ORIENTED_EDGE('',*,*,#178,.F.);
#229=ORIENTED_EDGE('',*,*,#180,.T.);
#230=ORIENTED_EDGE('',*,*,#181,.T.);
#231=ORIENTED_EDGE('',*,*,#182,.F.);
#232=ORIENTED_EDGE('',*,*,#181,.F.);
#233=ORIENTED_EDGE('',*,*,#183,.T.);
#234=ORIENTED_EDGE('',*,*,#184,.T.);
#235=ORIENTED_EDGE('',*,*,#185,.F.);
#236=ORIENTED_EDGE('',*,*,#184,.F.);
#237=ORIENTED_EDGE('',*,*,#186,.T.);
#238=ORIENTED_EDGE('',*,*,#187,.T.);
#239=ORIENTED_EDGE('',*,*,#188,.F.);
#240=ORIENTED_EDGE('',*,*,#187,.F.);
#241=ORIENTED_EDGE('',*,*,#189,.T.);
#242=ORIENTED_EDGE('',*,*,#190,.T.);
#243=ORIENTED_EDGE('',*,*,#191,.F.);
#244=ORIENTED_EDGE('',*,*,#190,.F.);
#245=ORIENTED_EDGE('',*,*,#192,.T.);
#246=ORIENTED_EDGE('',*,*,#193,.T.);
#247=ORIENTED_EDGE('',*,*,#194,.F.);
#248=ORIENTED_EDGE('',*,*,#193,.F.);
#249=ORIENTED_EDGE('',*,*,#195,.T.);
#250=ORIENTED_EDGE('',*,*,#196,.T.);
#251=ORIENTED_EDGE('',*,*,#197,.F.);
#252=ORIENTED_EDGE('',*,*,#196,.F.);
#253=ORIENTED_EDGE('',*,*,#198,.T.);
#254=ORIENTED_EDGE('',*,*,#199,.T.);
#255=ORIENTED_EDGE('',*,*,#200,.F.);
#256=ORIENTED_EDGE('',*,*,#199,.F.);
#257=ORIENTED_EDGE('',*,*,#201,.T.);
#258=ORIENTED_EDGE('',*,*,#202,.T.);
#259=ORIENTED_EDGE('',*,*,#203,.F.);
#260=ORIENTED_EDGE('',*,*,#202,.F.);
#261=ORIENTED_EDGE('',*,*,#204,.T.);
#262=ORIENTED_EDGE('',*,*,#205,.T.);
#263=ORIENTED_EDGE('',*,*,#206,.F.);
#264=ORIENTED_EDGE('',*,*,#205,.F.);
#265=ORIENTED_EDGE('',*,*,#207,.T.);
#266=ORIENTED_EDGE('',*,*,#208,.T.);
#267=ORIENTED_EDGE('',*,*,#209,.F.);
#268=ORIENTED_EDGE('',*,*,#208,.F.);
#269=ORIENTED_EDGE('',*,*,#210,.T.);
#270=ORIENTED_EDGE('',*,*,#170,.T.);
#271=ORIENTED_EDGE('',*,*,#171,.F.);
#272=ORIENTED_EDGE('',*,*,#210,.F.);
#273=ORIENTED_EDGE('',*,*,#207,.F.);
#274=ORIENTED_EDGE('',*,*,#204,.F.);
#275=ORIENTED_EDGE('',*,*,#201,.F.);
#276=ORIENTED_EDGE('',*,*,#198,.F.);
#277=ORIENTED_EDGE('',*,*,#195,.F.);
#278=ORIENTED_EDGE('',*,*,#192,.F.);
#279=ORIENTED_EDGE('',*,*,#189,.F.);
#280=ORIENTED_EDGE('',*,*,#186,.F.);
#281=ORIENTED_EDGE('',*,*,#183,.F.);
#282=ORIENTED_EDGE('',*,*,#180,.F.);
#283=ORIENTED_EDGE('',*,*,#177,.F.);
#284=ORIENTED_EDGE('',*,*,#174,.F.);
#285=ORIENTED_EDGE('',*,*,#166,.T.);
#286=ORIENTED_EDGE('',*,*,#169,.T.);
#287=ORIENTED_EDGE('',*,*,#173,.T.);
#288=ORIENTED_EDGE('',*,*,#176,.T.);
#289=ORIENTED_EDGE('',*,*,#179,.T.);
#290=ORIENTED_EDGE('',*,*,#182,.T.);
#291=ORIENTED_EDGE('',*,*,#185,.T.);
#292=ORIENTED_EDGE('',*,*,#188,.T.);
#293=ORIENTED_EDGE('',*,*,#191,.T.);
#294=ORIENTED_EDGE('',*,*,#194,.T.);
#295=ORIENTED_EDGE('',*,*,#197,.T.);
#296=ORIENTED_EDGE('',*,*,#200,.T.);
#297=ORIENTED_EDGE('',*,*,#203,.T.);
#298=ORIENTED_EDGE('',*,*,#206,.T.);
#299=ORIENTED_EDGE('',*,*,#209,.T.);
#300=ORIENTED_EDGE('',*,*,#168,.F.);
#301=CYLINDRICAL_SURFACE('',#349,3.);
#302=CYLINDRICAL_SURFACE('',#352,0.500000000000001);
#303=CYLINDRICAL_SURFACE('',#356,0.500000000000001);
#304=CYLINDRICAL_SURFACE('',#360,3.5);
#305=CYLINDRICAL_SURFACE('',#364,0.500000000000001);
#306=CYLINDRICAL_SURFACE('',#368,0.500000000000001);
#307=CYLINDRICAL_SURFACE('',#372,0.500000000000001);
#308=CYLINDRICAL_SURFACE('',#376,0.500000000000001);
#309=ADVANCED_FACE('',(#26),#301,.F.);
#310=ADVANCED_FACE('',(#27),#302,.T.);
#311=ADVANCED_FACE('',(#28),#17,.T.);
#312=ADVANCED_FACE('',(#29),#303,.T.);
#313=ADVANCED_FACE('',(#30),#18,.T.);
#314=ADVANCED_FACE('',(#31),#304,.F.);
#315=ADVANCED_FACE('',(#32),#19,.T.);
#316=ADVANCED_FACE('',(#33),#305,.T.);
#317=ADVANCED_FACE('',(#34),#20,.T.);
#318=ADVANCED_FACE('',(#35),#306,.T.);
#319=ADVANCED_FACE('',(#36),#21,.T.);
#320=ADVANCED_FACE('',(#37),#307,.T.);
#321=ADVANCED_FACE('',(#38),#22,.T.);
#322=ADVANCED_FACE('',(#39),#308,.T.);
#323=ADVANCED_FACE('',(#40),#23,.T.);
#324=ADVANCED_FACE('',(#41,#15),#24,.F.);
#325=ADVANCED_FACE('',(#42,#16),#25,.T.);
#326=CLOSED_SHELL('',(#309,#310,#311,#312,#313,#314,#315,#316,#317,#318,
#319,#320,#321,#322,#323,#324,#325));
#327=DERIVED_UNIT_ELEMENT(#330,1.);
#328=DERIVED_UNIT_ELEMENT(#577,-3.);
#329=DIMENSIONAL_EXPONENTS(1.,0.,0.,0.,0.,0.,0.);
#330=(
CONVERSION_BASED_UNIT('gram',#332)
MASS_UNIT()
NAMED_UNIT(#329)
);
#331=(
MASS_UNIT()
NAMED_UNIT(*)
SI_UNIT(.KILO.,.GRAM.)
);
#332=MASS_MEASURE_WITH_UNIT(MASS_MEASURE(0.001),#331);
#333=DERIVED_UNIT((#327,#328));
#334=MEASURE_REPRESENTATION_ITEM('density measure',
POSITIVE_RATIO_MEASURE(7.85),#333);
#335=PROPERTY_DEFINITION_REPRESENTATION(#340,#337);
#336=PROPERTY_DEFINITION_REPRESENTATION(#341,#338);
#337=REPRESENTATION('material name',(#339),#574);
#338=REPRESENTATION('density',(#334),#574);
#339=DESCRIPTIVE_REPRESENTATION_ITEM('Acciaio','Acciaio');
#340=PROPERTY_DEFINITION('material property','material name',#584);
#341=PROPERTY_DEFINITION('material property','density of part',#584);
#342=DATE_TIME_ROLE('creation_date');
#343=APPLIED_DATE_AND_TIME_ASSIGNMENT(#344,#342,(#584));
#344=DATE_AND_TIME(#345,#346);
#345=CALENDAR_DATE(2012,16,1);
#346=LOCAL_TIME(0,0,0.,#347);
#347=COORDINATED_UNIVERSAL_TIME_OFFSET(0,0,.BEHIND.);
#348=AXIS2_PLACEMENT_3D('placement',#479,#382,#383);
#349=AXIS2_PLACEMENT_3D('',#480,#384,#385);
#350=AXIS2_PLACEMENT_3D('',#482,#386,#387);
#351=AXIS2_PLACEMENT_3D('',#485,#389,#390);
#352=AXIS2_PLACEMENT_3D('',#486,#391,#392);
#353=AXIS2_PLACEMENT_3D('',#489,#393,#394);
#354=AXIS2_PLACEMENT_3D('',#493,#396,#397);
#355=AXIS2_PLACEMENT_3D('',#495,#399,#400);
#356=AXIS2_PLACEMENT_3D('',#501,#404,#405);
#357=AXIS2_PLACEMENT_3D('',#503,#406,#407);
#358=AXIS2_PLACEMENT_3D('',#505,#408,#409);
#359=AXIS2_PLACEMENT_3D('',#507,#411,#412);
#360=AXIS2_PLACEMENT_3D('',#513,#416,#417);
#361=AXIS2_PLACEMENT_3D('',#515,#418,#419);
#362=AXIS2_PLACEMENT_3D('',#517,#420,#421);
#363=AXIS2_PLACEMENT_3D('',#519,#423,#424);
#364=AXIS2_PLACEMENT_3D('',#525,#428,#429);
#365=AXIS2_PLACEMENT_3D('',#527,#430,#431);
#366=AXIS2_PLACEMENT_3D('',#529,#432,#433);
#367=AXIS2_PLACEMENT_3D('',#531,#435,#436);
#368=AXIS2_PLACEMENT_3D('',#537,#440,#441);
#369=AXIS2_PLACEMENT_3D('',#539,#442,#443);
#370=AXIS2_PLACEMENT_3D('',#541,#444,#445);
#371=AXIS2_PLACEMENT_3D('',#543,#447,#448);
#372=AXIS2_PLACEMENT_3D('',#549,#452,#453);
#373=AXIS2_PLACEMENT_3D('',#551,#454,#455);
#374=AXIS2_PLACEMENT_3D('',#553,#456,#457);
#375=AXIS2_PLACEMENT_3D('',#555,#459,#460);
#376=AXIS2_PLACEMENT_3D('',#561,#464,#465);
#377=AXIS2_PLACEMENT_3D('',#563,#466,#467);
#378=AXIS2_PLACEMENT_3D('',#565,#468,#469);
#379=AXIS2_PLACEMENT_3D('',#567,#471,#472);
#380=AXIS2_PLACEMENT_3D('',#570,#475,#476);
#381=AXIS2_PLACEMENT_3D('',#571,#477,#478);
#382=DIRECTION('axis',(0.,0.,1.));
#383=DIRECTION('refdir',(1.,0.,0.));
#384=DIRECTION('center_axis',(0.,0.,1.));
#385=DIRECTION('ref_axis',(0.,1.,0.));
#386=DIRECTION('center_axis',(0.,0.,1.));
#387=DIRECTION('ref_axis',(1.,0.,0.));
#388=DIRECTION('',(0.,0.,1.));
#389=DIRECTION('center_axis',(0.,0.,1.));
#390=DIRECTION('ref_axis',(0.,1.,0.));
#391=DIRECTION('center_axis',(0.,0.,1.));
#392=DIRECTION('ref_axis',(0.707106781186547,-0.707106781186548,0.));
#393=DIRECTION('center_axis',(0.,0.,1.));
#394=DIRECTION('ref_axis',(-1.,0.,0.));
#395=DIRECTION('',(0.,0.,1.));
#396=DIRECTION('center_axis',(0.,0.,1.));
#397=DIRECTION('ref_axis',(-1.,0.,0.));
#398=DIRECTION('',(0.,0.,1.));
#399=DIRECTION('center_axis',(1.,0.,0.));
#400=DIRECTION('ref_axis',(0.,0.,-1.));
#401=DIRECTION('',(0.,1.,0.));
#402=DIRECTION('',(0.,1.,0.));
#403=DIRECTION('',(0.,0.,1.));
#404=DIRECTION('center_axis',(0.,0.,1.));
#405=DIRECTION('ref_axis',(0.707106781186549,0.707106781186546,0.));
#406=DIRECTION('center_axis',(0.,0.,1.));
#407=DIRECTION('ref_axis',(-1.,0.,0.));
#408=DIRECTION('center_axis',(0.,0.,1.));
#409=DIRECTION('ref_axis',(-1.,0.,0.));
#410=DIRECTION('',(0.,0.,1.));
#411=DIRECTION('center_axis',(0.,1.,0.));
#412=DIRECTION('ref_axis',(0.,0.,1.));
#413=DIRECTION('',(-1.,0.,0.));
#414=DIRECTION('',(-1.,0.,0.));
#415=DIRECTION('',(0.,0.,1.));
#416=DIRECTION('center_axis',(0.,0.,1.));
#417=DIRECTION('ref_axis',(-1.,1.22464679914735E-16,0.));
#418=DIRECTION('center_axis',(0.,0.,-1.));
#419=DIRECTION('ref_axis',(1.,0.,0.));
#420=DIRECTION('center_axis',(0.,0.,-1.));
#421=DIRECTION('ref_axis',(1.,0.,0.));
#422=DIRECTION('',(0.,0.,1.));
#423=DIRECTION('center_axis',(0.,-1.,0.));
#424=DIRECTION('ref_axis',(0.,0.,-1.));
#425=DIRECTION('',(1.,0.,0.));
#426=DIRECTION('',(1.,0.,0.));
#427=DIRECTION('',(0.,0.,1.));
#428=DIRECTION('center_axis',(0.,0.,1.));
#429=DIRECTION('ref_axis',(0.707106781186567,-0.707106781186528,0.));
#430=DIRECTION('center_axis',(0.,0.,1.));
#431=DIRECTION('ref_axis',(-1.,0.,0.));
#432=DIRECTION('center_axis',(0.,0.,1.));
#433=DIRECTION('ref_axis',(-1.,0.,0.));
#434=DIRECTION('',(0.,0.,1.));
#435=DIRECTION('center_axis',(1.,0.,0.));
#436=DIRECTION('ref_axis',(0.,0.,-1.));
#437=DIRECTION('',(0.,1.,0.));
#438=DIRECTION('',(0.,1.,0.));
#439=DIRECTION('',(0.,0.,1.));
#440=DIRECTION('center_axis',(0.,0.,1.));
#441=DIRECTION('ref_axis',(0.707106781186548,0.707106781186548,0.));
#442=DIRECTION('center_axis',(0.,0.,1.));
#443=DIRECTION('ref_axis',(1.,0.,0.));
#444=DIRECTION('center_axis',(0.,0.,1.));
#445=DIRECTION('ref_axis',(1.,0.,0.));
#446=DIRECTION('',(0.,0.,1.));
#447=DIRECTION('center_axis',(0.,1.,0.));
#448=DIRECTION('ref_axis',(0.,0.,1.));
#449=DIRECTION('',(-1.,0.,0.));
#450=DIRECTION('',(-1.,0.,0.));
#451=DIRECTION('',(0.,0.,1.));
#452=DIRECTION('center_axis',(0.,0.,1.));
#453=DIRECTION('ref_axis',(1.,0.,0.));
#454=DIRECTION('center_axis',(0.,0.,1.));
#455=DIRECTION('ref_axis',(1.,0.,0.));
#456=DIRECTION('center_axis',(0.,0.,1.));
#457=DIRECTION('ref_axis',(1.,0.,0.));
#458=DIRECTION('',(0.,0.,1.));
#459=DIRECTION('center_axis',(-1.,0.,0.));
#460=DIRECTION('ref_axis',(0.,0.,1.));
#461=DIRECTION('',(0.,-1.,0.));
#462=DIRECTION('',(0.,-1.,0.));
#463=DIRECTION('',(0.,0.,1.));
#464=DIRECTION('center_axis',(0.,0.,1.));
#465=DIRECTION('ref_axis',(1.,0.,0.));
#466=DIRECTION('center_axis',(0.,0.,1.));
#467=DIRECTION('ref_axis',(1.,0.,0.));
#468=DIRECTION('center_axis',(0.,0.,1.));
#469=DIRECTION('ref_axis',(1.,0.,0.));
#470=DIRECTION('',(0.,0.,1.));
#471=DIRECTION('center_axis',(0.,-1.,0.));
#472=DIRECTION('ref_axis',(0.,0.,-1.));
#473=DIRECTION('',(1.,0.,0.));
#474=DIRECTION('',(1.,0.,0.));
#475=DIRECTION('center_axis',(0.,0.,1.));
#476=DIRECTION('ref_axis',(1.,0.,0.));
#477=DIRECTION('center_axis',(0.,0.,1.));
#478=DIRECTION('ref_axis',(1.,0.,0.));
#479=CARTESIAN_POINT('',(0.,0.,0.));
#480=CARTESIAN_POINT('Origin',(0.,7.105427E-15,-3.00000000999999));
#481=CARTESIAN_POINT('',(3.67394039744206E-16,-2.99999999999999,-3.));
#482=CARTESIAN_POINT('Origin',(0.,0.,-3.));
#483=CARTESIAN_POINT('',(3.67394039744206E-16,-2.99999999999999,0.));
#484=CARTESIAN_POINT('',(3.67394039744206E-16,-2.99999999999999,-3.00000000999999));
#485=CARTESIAN_POINT('Origin',(0.,0.,0.));
#486=CARTESIAN_POINT('Origin',(58.,-14.5,-3.00000001));
#487=CARTESIAN_POINT('',(58.,-15.,0.));
#488=CARTESIAN_POINT('',(58.5,-14.5,0.));
#489=CARTESIAN_POINT('Origin',(58.,-14.5,0.));
#490=CARTESIAN_POINT('',(58.,-15.,-3.));
#491=CARTESIAN_POINT('',(58.,-15.,-3.));
#492=CARTESIAN_POINT('',(58.5,-14.5,-3.));
#493=CARTESIAN_POINT('Origin',(58.,-14.5,-3.));
#494=CARTESIAN_POINT('',(58.5,-14.5,-3.));
#495=CARTESIAN_POINT('Origin',(58.5,-15.025,0.15));
#496=CARTESIAN_POINT('',(58.5,-3.99999999999998,0.));
#497=CARTESIAN_POINT('',(58.5,-14.5,0.));
#498=CARTESIAN_POINT('',(58.5,-3.99999999999998,-3.));
#499=CARTESIAN_POINT('',(58.5,-14.5,-3.));
#500=CARTESIAN_POINT('',(58.5,-3.99999999999998,-3.));
#501=CARTESIAN_POINT('Origin',(58.,-3.99999999999998,-3.00000001));
#502=CARTESIAN_POINT('',(58.,-3.49999999999998,0.));
#503=CARTESIAN_POINT('Origin',(58.,-3.99999999999998,0.));
#504=CARTESIAN_POINT('',(58.,-3.49999999999998,-3.));
#505=CARTESIAN_POINT('Origin',(58.,-3.99999999999998,-3.));
#506=CARTESIAN_POINT('',(58.,-3.49999999999998,-3.));
#507=CARTESIAN_POINT('Origin',(59.55,-3.49999999999998,-3.15));
#508=CARTESIAN_POINT('',(27.,-3.49999999999998,0.));
#509=CARTESIAN_POINT('',(58.,-3.49999999999998,0.));
#510=CARTESIAN_POINT('',(27.,-3.49999999999998,-3.));
#511=CARTESIAN_POINT('',(58.,-3.49999999999998,-3.));
#512=CARTESIAN_POINT('',(27.,-3.49999999999998,-3.));
#513=CARTESIAN_POINT('Origin',(27.,0.,-3.00000001));
#514=CARTESIAN_POINT('',(27.,3.50000000000001,0.));
#515=CARTESIAN_POINT('Origin',(27.,0.,0.));
#516=CARTESIAN_POINT('',(27.,3.50000000000001,-3.));
#517=CARTESIAN_POINT('Origin',(27.,0.,-3.));
#518=CARTESIAN_POINT('',(27.,3.50000000000001,-3.));
#519=CARTESIAN_POINT('Origin',(25.45,3.50000000000001,0.15));
#520=CARTESIAN_POINT('',(58.,3.50000000000001,0.));
#521=CARTESIAN_POINT('',(27.,3.50000000000001,0.));
#522=CARTESIAN_POINT('',(58.,3.50000000000001,-3.));
#523=CARTESIAN_POINT('',(27.,3.50000000000001,-3.));
#524=CARTESIAN_POINT('',(58.,3.50000000000001,-3.));
#525=CARTESIAN_POINT('Origin',(58.,4.00000000000001,-3.00000001));
#526=CARTESIAN_POINT('',(58.5,4.00000000000001,0.));
#527=CARTESIAN_POINT('Origin',(58.,4.00000000000001,0.));
#528=CARTESIAN_POINT('',(58.5,4.00000000000001,-3.));
#529=CARTESIAN_POINT('Origin',(58.,4.00000000000001,-3.));
#530=CARTESIAN_POINT('',(58.5,4.00000000000001,-3.));
#531=CARTESIAN_POINT('Origin',(58.5,3.47500000000002,0.15));
#532=CARTESIAN_POINT('',(58.5,14.5,0.));
#533=CARTESIAN_POINT('',(58.5,4.00000000000001,0.));
#534=CARTESIAN_POINT('',(58.5,14.5,-3.));
#535=CARTESIAN_POINT('',(58.5,4.00000000000001,-3.));
#536=CARTESIAN_POINT('',(58.5,14.5,-3.));
#537=CARTESIAN_POINT('Origin',(58.,14.5,-3.00000001));
#538=CARTESIAN_POINT('',(58.,15.,0.));
#539=CARTESIAN_POINT('Origin',(58.,14.5,0.));
#540=CARTESIAN_POINT('',(58.,15.,-3.));
#541=CARTESIAN_POINT('Origin',(58.,14.5,-3.));
#542=CARTESIAN_POINT('',(58.,15.,-3.));
#543=CARTESIAN_POINT('Origin',(-14.45,15.,-3.15));
#544=CARTESIAN_POINT('',(-11.,15.,0.));
#545=CARTESIAN_POINT('',(58.,15.,0.));
#546=CARTESIAN_POINT('',(-11.,15.,-3.));
#547=CARTESIAN_POINT('',(58.,15.,-3.));
#548=CARTESIAN_POINT('',(-11.,15.,-3.));
#549=CARTESIAN_POINT('Origin',(-11.,14.5,-3.00000001));
#550=CARTESIAN_POINT('',(-11.5,14.5,0.));
#551=CARTESIAN_POINT('Origin',(-11.,14.5,0.));
#552=CARTESIAN_POINT('',(-11.5,14.5,-3.));
#553=CARTESIAN_POINT('Origin',(-11.,14.5,-3.));
#554=CARTESIAN_POINT('',(-11.5,14.5,-3.));
#555=CARTESIAN_POINT('Origin',(-11.5,-15.95,-3.15));
#556=CARTESIAN_POINT('',(-11.5,-14.5,0.));
#557=CARTESIAN_POINT('',(-11.5,14.5,0.));
#558=CARTESIAN_POINT('',(-11.5,-14.5,-3.));
#559=CARTESIAN_POINT('',(-11.5,14.5,-3.));
#560=CARTESIAN_POINT('',(-11.5,-14.5,-3.));
#561=CARTESIAN_POINT('Origin',(-11.,-14.5,-3.00000001));
#562=CARTESIAN_POINT('',(-11.,-15.,0.));
#563=CARTESIAN_POINT('Origin',(-11.,-14.5,0.));
#564=CARTESIAN_POINT('',(-11.,-15.,-3.));
#565=CARTESIAN_POINT('Origin',(-11.,-14.5,-3.));
#566=CARTESIAN_POINT('',(-11.,-15.,-3.));
#567=CARTESIAN_POINT('Origin',(-14.45,-15.,0.15));
#568=CARTESIAN_POINT('',(-11.,-15.,0.));
#569=CARTESIAN_POINT('',(-11.,-15.,-3.));
#570=CARTESIAN_POINT('Origin',(-15.,-16.5,-3.));
#571=CARTESIAN_POINT('Origin',(-15.,-16.5,0.));
#572=UNCERTAINTY_MEASURE_WITH_UNIT(LENGTH_MEASURE(0.01),#576,
'DISTANCE_ACCURACY_VALUE',
'Maximum model space distance between geometric entities at asserted c
onnectivities');
#573=UNCERTAINTY_MEASURE_WITH_UNIT(LENGTH_MEASURE(0.01),#576,
'DISTANCE_ACCURACY_VALUE',
'Maximum model space distance between geometric entities at asserted c
onnectivities');
#574=(
GEOMETRIC_REPRESENTATION_CONTEXT(3)
GLOBAL_UNCERTAINTY_ASSIGNED_CONTEXT((#572))
GLOBAL_UNIT_ASSIGNED_CONTEXT((#576,#578,#579))
REPRESENTATION_CONTEXT('','3D')
);
#575=(
GEOMETRIC_REPRESENTATION_CONTEXT(3)
GLOBAL_UNCERTAINTY_ASSIGNED_CONTEXT((#573))
GLOBAL_UNIT_ASSIGNED_CONTEXT((#576,#578,#579))
REPRESENTATION_CONTEXT('','3D')
);
#576=(
LENGTH_UNIT()
NAMED_UNIT(*)
SI_UNIT(.MILLI.,.METRE.)
);
#577=(
LENGTH_UNIT()
NAMED_UNIT(*)
SI_UNIT(.CENTI.,.METRE.)
);
#578=(
NAMED_UNIT(*)
PLANE_ANGLE_UNIT()
SI_UNIT($,.RADIAN.)
);
#579=(
NAMED_UNIT(*)
SI_UNIT($,.STERADIAN.)
SOLID_ANGLE_UNIT()
);
#580=SHAPE_DEFINITION_REPRESENTATION(#581,#582);
#581=PRODUCT_DEFINITION_SHAPE('',$,#584);
#582=SHAPE_REPRESENTATION('',(#348),#574);
#583=PRODUCT_DEFINITION_CONTEXT('part definition',#588,'design');
#584=PRODUCT_DEFINITION('DPSXX0000992','DPSXX0000992',#585,#583);
#585=PRODUCT_DEFINITION_FORMATION('A',$,#590);
#586=PRODUCT_RELATED_PRODUCT_CATEGORY('DPSXX0000992','DPSXX0000992',(#590));
#587=APPLICATION_PROTOCOL_DEFINITION('international standard',
'automotive_design',2009,#588);
#588=APPLICATION_CONTEXT(
'Core Data for Automotive Mechanical Design Process');
#589=PRODUCT_CONTEXT('part definition',#588,'mechanical');
#590=PRODUCT('DPSXX0000992','DPSXX0000992',
'PIATTO FIX 70X30X3 CON ASOLA L=35',(#589));
#591=PRESENTATION_STYLE_ASSIGNMENT((#592));
#592=SURFACE_STYLE_USAGE(.BOTH.,#595);
#593=SURFACE_STYLE_RENDERING_WITH_PROPERTIES($,#599,(#594));
#594=SURFACE_STYLE_TRANSPARENT(0.);
#595=SURFACE_SIDE_STYLE('',(#596,#593));
#596=SURFACE_STYLE_FILL_AREA(#597);
#597=FILL_AREA_STYLE('',(#598));
#598=FILL_AREA_STYLE_COLOUR('',#599);
#599=COLOUR_RGB('',0.87843137254902,0.874509803921569,0.858823529411765);
ENDSEC;
END-ISO-10303-21;
