ISO-10303-21;
HEADER;
/* Generated by software containing ST-Developer
 * from STEP Tools, Inc. (www.steptools.com) 
 */

FILE_DESCRIPTION(
/* description */ ('PIATTO FISSAGGIO PANNELLO SMONTABILE'),
/* implementation_level */ '2;1');

FILE_NAME(
/* name */ 
'Q:\\Catalogo\\2_Accessori Dierre\\Per Download Web e catalogo cartace
o\\CATALOGO ELEMENTI ASSEMBLAGGIO\\PAGINA 17\\DPSXX0000985.stp',
/* time_stamp */ '2018-06-18T17:54:47+02:00',
/* author */ ('fzagni'),
/* organization */ (''),
/* preprocessor_version */ 'ST-DEVELOPER v16.1',
/* originating_system */ 'Autodesk Inventor 2016',
/* authorisation */ '');

FILE_SCHEMA (('AUTOMOTIVE_DESIGN { 1 0 10303 214 3 1 1 }'));
ENDSEC;

DATA;
#10=MECHANICAL_DESIGN_GEOMETRIC_PRESENTATION_REPRESENTATION('',(#14,#15),
#414);
#11=SHAPE_REPRESENTATION_RELATIONSHIP('SRR','None',#423,#12);
#12=ADVANCED_BREP_SHAPE_REPRESENTATION('',(#13),#413);
#13=MANIFOLD_SOLID_BREP('Solido1',#244);
#14=STYLED_ITEM('',(#433),#235);
#15=STYLED_ITEM('',(#432),#13);
#16=CYLINDRICAL_SURFACE('',#254,3.25);
#17=CYLINDRICAL_SURFACE('',#256,3.25);
#18=CYLINDRICAL_SURFACE('',#258,2.5);
#19=CYLINDRICAL_SURFACE('',#265,3.);
#20=CYLINDRICAL_SURFACE('',#267,3.);
#21=CYLINDRICAL_SURFACE('',#269,3.);
#22=CYLINDRICAL_SURFACE('',#271,3.);
#23=FACE_BOUND('',#46,.T.);
#24=FACE_BOUND('',#47,.T.);
#25=FACE_BOUND('',#48,.T.);
#26=FACE_BOUND('',#50,.T.);
#27=FACE_BOUND('',#52,.T.);
#28=FACE_BOUND('',#54,.T.);
#29=FACE_BOUND('',#56,.T.);
#30=FACE_BOUND('',#57,.T.);
#31=FACE_BOUND('',#58,.T.);
#32=FACE_OUTER_BOUND('',#45,.T.);
#33=FACE_OUTER_BOUND('',#49,.T.);
#34=FACE_OUTER_BOUND('',#51,.T.);
#35=FACE_OUTER_BOUND('',#53,.T.);
#36=FACE_OUTER_BOUND('',#55,.T.);
#37=FACE_OUTER_BOUND('',#59,.T.);
#38=FACE_OUTER_BOUND('',#60,.T.);
#39=FACE_OUTER_BOUND('',#61,.T.);
#40=FACE_OUTER_BOUND('',#62,.T.);
#41=FACE_OUTER_BOUND('',#63,.T.);
#42=FACE_OUTER_BOUND('',#64,.T.);
#43=FACE_OUTER_BOUND('',#65,.T.);
#44=FACE_OUTER_BOUND('',#66,.T.);
#45=EDGE_LOOP('',(#165,#166,#167,#168,#169,#170,#171,#172));
#46=EDGE_LOOP('',(#173));
#47=EDGE_LOOP('',(#174));
#48=EDGE_LOOP('',(#175));
#49=EDGE_LOOP('',(#176));
#50=EDGE_LOOP('',(#177));
#51=EDGE_LOOP('',(#178));
#52=EDGE_LOOP('',(#179));
#53=EDGE_LOOP('',(#180));
#54=EDGE_LOOP('',(#181));
#55=EDGE_LOOP('',(#182,#183,#184,#185,#186,#187,#188,#189));
#56=EDGE_LOOP('',(#190));
#57=EDGE_LOOP('',(#191));
#58=EDGE_LOOP('',(#192));
#59=EDGE_LOOP('',(#193,#194,#195,#196));
#60=EDGE_LOOP('',(#197,#198,#199,#200));
#61=EDGE_LOOP('',(#201,#202,#203,#204));
#62=EDGE_LOOP('',(#205,#206,#207,#208));
#63=EDGE_LOOP('',(#209,#210,#211,#212));
#64=EDGE_LOOP('',(#213,#214,#215,#216));
#65=EDGE_LOOP('',(#217,#218,#219,#220));
#66=EDGE_LOOP('',(#221,#222,#223,#224));
#67=CIRCLE('',#247,3.);
#68=CIRCLE('',#248,3.);
#69=CIRCLE('',#249,3.);
#70=CIRCLE('',#250,3.);
#71=CIRCLE('',#251,2.5);
#72=CIRCLE('',#252,3.25);
#73=CIRCLE('',#253,3.25);
#74=CIRCLE('',#255,3.25);
#75=CIRCLE('',#257,3.25);
#76=CIRCLE('',#259,2.5);
#77=CIRCLE('',#261,3.);
#78=CIRCLE('',#262,3.);
#79=CIRCLE('',#263,3.);
#80=CIRCLE('',#264,3.);
#81=LINE('',#349,#97);
#82=LINE('',#353,#98);
#83=LINE('',#357,#99);
#84=LINE('',#361,#100);
#85=LINE('',#381,#101);
#86=LINE('',#385,#102);
#87=LINE('',#389,#103);
#88=LINE('',#393,#104);
#89=LINE('',#396,#105);
#90=LINE('',#397,#106);
#91=LINE('',#399,#107);
#92=LINE('',#401,#108);
#93=LINE('',#403,#109);
#94=LINE('',#405,#110);
#95=LINE('',#407,#111);
#96=LINE('',#409,#112);
#97=VECTOR('',#277,24.);
#98=VECTOR('',#280,89.);
#99=VECTOR('',#283,24.);
#100=VECTOR('',#286,89.);
#101=VECTOR('',#309,24.);
#102=VECTOR('',#312,89.);
#103=VECTOR('',#315,24.);
#104=VECTOR('',#318,89.);
#105=VECTOR('',#323,5.);
#106=VECTOR('',#324,5.);
#107=VECTOR('',#327,5.);
#108=VECTOR('',#330,5.);
#109=VECTOR('',#333,5.);
#110=VECTOR('',#336,5.);
#111=VECTOR('',#339,5.);
#112=VECTOR('',#342,5.);
#113=VERTEX_POINT('',#347);
#114=VERTEX_POINT('',#348);
#115=VERTEX_POINT('',#350);
#116=VERTEX_POINT('',#352);
#117=VERTEX_POINT('',#354);
#118=VERTEX_POINT('',#356);
#119=VERTEX_POINT('',#358);
#120=VERTEX_POINT('',#360);
#121=VERTEX_POINT('',#363);
#122=VERTEX_POINT('',#365);
#123=VERTEX_POINT('',#367);
#124=VERTEX_POINT('',#370);
#125=VERTEX_POINT('',#373);
#126=VERTEX_POINT('',#376);
#127=VERTEX_POINT('',#379);
#128=VERTEX_POINT('',#380);
#129=VERTEX_POINT('',#382);
#130=VERTEX_POINT('',#384);
#131=VERTEX_POINT('',#386);
#132=VERTEX_POINT('',#388);
#133=VERTEX_POINT('',#390);
#134=VERTEX_POINT('',#392);
#135=EDGE_CURVE('',#113,#114,#81,.T.);
#136=EDGE_CURVE('',#114,#115,#67,.T.);
#137=EDGE_CURVE('',#115,#116,#82,.T.);
#138=EDGE_CURVE('',#116,#117,#68,.T.);
#139=EDGE_CURVE('',#117,#118,#83,.T.);
#140=EDGE_CURVE('',#118,#119,#69,.T.);
#141=EDGE_CURVE('',#119,#120,#84,.T.);
#142=EDGE_CURVE('',#120,#113,#70,.T.);
#143=EDGE_CURVE('',#121,#121,#71,.T.);
#144=EDGE_CURVE('',#122,#122,#72,.T.);
#145=EDGE_CURVE('',#123,#123,#73,.T.);
#146=EDGE_CURVE('',#124,#124,#74,.T.);
#147=EDGE_CURVE('',#125,#125,#75,.T.);
#148=EDGE_CURVE('',#126,#126,#76,.T.);
#149=EDGE_CURVE('',#127,#128,#85,.T.);
#150=EDGE_CURVE('',#128,#129,#77,.T.);
#151=EDGE_CURVE('',#129,#130,#86,.T.);
#152=EDGE_CURVE('',#130,#131,#78,.T.);
#153=EDGE_CURVE('',#131,#132,#87,.T.);
#154=EDGE_CURVE('',#132,#133,#79,.T.);
#155=EDGE_CURVE('',#133,#134,#88,.T.);
#156=EDGE_CURVE('',#134,#127,#80,.T.);
#157=EDGE_CURVE('',#114,#127,#89,.T.);
#158=EDGE_CURVE('',#115,#134,#90,.T.);
#159=EDGE_CURVE('',#116,#133,#91,.T.);
#160=EDGE_CURVE('',#117,#132,#92,.T.);
#161=EDGE_CURVE('',#118,#131,#93,.T.);
#162=EDGE_CURVE('',#119,#130,#94,.T.);
#163=EDGE_CURVE('',#120,#129,#95,.T.);
#164=EDGE_CURVE('',#113,#128,#96,.T.);
#165=ORIENTED_EDGE('',*,*,#135,.T.);
#166=ORIENTED_EDGE('',*,*,#136,.T.);
#167=ORIENTED_EDGE('',*,*,#137,.T.);
#168=ORIENTED_EDGE('',*,*,#138,.T.);
#169=ORIENTED_EDGE('',*,*,#139,.T.);
#170=ORIENTED_EDGE('',*,*,#140,.T.);
#171=ORIENTED_EDGE('',*,*,#141,.T.);
#172=ORIENTED_EDGE('',*,*,#142,.T.);
#173=ORIENTED_EDGE('',*,*,#143,.T.);
#174=ORIENTED_EDGE('',*,*,#144,.T.);
#175=ORIENTED_EDGE('',*,*,#145,.T.);
#176=ORIENTED_EDGE('',*,*,#146,.F.);
#177=ORIENTED_EDGE('',*,*,#145,.F.);
#178=ORIENTED_EDGE('',*,*,#147,.F.);
#179=ORIENTED_EDGE('',*,*,#144,.F.);
#180=ORIENTED_EDGE('',*,*,#143,.F.);
#181=ORIENTED_EDGE('',*,*,#148,.F.);
#182=ORIENTED_EDGE('',*,*,#149,.T.);
#183=ORIENTED_EDGE('',*,*,#150,.T.);
#184=ORIENTED_EDGE('',*,*,#151,.T.);
#185=ORIENTED_EDGE('',*,*,#152,.T.);
#186=ORIENTED_EDGE('',*,*,#153,.T.);
#187=ORIENTED_EDGE('',*,*,#154,.T.);
#188=ORIENTED_EDGE('',*,*,#155,.T.);
#189=ORIENTED_EDGE('',*,*,#156,.T.);
#190=ORIENTED_EDGE('',*,*,#148,.T.);
#191=ORIENTED_EDGE('',*,*,#146,.T.);
#192=ORIENTED_EDGE('',*,*,#147,.T.);
#193=ORIENTED_EDGE('',*,*,#136,.F.);
#194=ORIENTED_EDGE('',*,*,#157,.T.);
#195=ORIENTED_EDGE('',*,*,#156,.F.);
#196=ORIENTED_EDGE('',*,*,#158,.F.);
#197=ORIENTED_EDGE('',*,*,#137,.F.);
#198=ORIENTED_EDGE('',*,*,#158,.T.);
#199=ORIENTED_EDGE('',*,*,#155,.F.);
#200=ORIENTED_EDGE('',*,*,#159,.F.);
#201=ORIENTED_EDGE('',*,*,#138,.F.);
#202=ORIENTED_EDGE('',*,*,#159,.T.);
#203=ORIENTED_EDGE('',*,*,#154,.F.);
#204=ORIENTED_EDGE('',*,*,#160,.F.);
#205=ORIENTED_EDGE('',*,*,#139,.F.);
#206=ORIENTED_EDGE('',*,*,#160,.T.);
#207=ORIENTED_EDGE('',*,*,#153,.F.);
#208=ORIENTED_EDGE('',*,*,#161,.F.);
#209=ORIENTED_EDGE('',*,*,#140,.F.);
#210=ORIENTED_EDGE('',*,*,#161,.T.);
#211=ORIENTED_EDGE('',*,*,#152,.F.);
#212=ORIENTED_EDGE('',*,*,#162,.F.);
#213=ORIENTED_EDGE('',*,*,#141,.F.);
#214=ORIENTED_EDGE('',*,*,#162,.T.);
#215=ORIENTED_EDGE('',*,*,#151,.F.);
#216=ORIENTED_EDGE('',*,*,#163,.F.);
#217=ORIENTED_EDGE('',*,*,#142,.F.);
#218=ORIENTED_EDGE('',*,*,#163,.T.);
#219=ORIENTED_EDGE('',*,*,#150,.F.);
#220=ORIENTED_EDGE('',*,*,#164,.F.);
#221=ORIENTED_EDGE('',*,*,#135,.F.);
#222=ORIENTED_EDGE('',*,*,#164,.T.);
#223=ORIENTED_EDGE('',*,*,#149,.F.);
#224=ORIENTED_EDGE('',*,*,#157,.F.);
#225=PLANE('',#246);
#226=PLANE('',#260);
#227=PLANE('',#266);
#228=PLANE('',#268);
#229=PLANE('',#270);
#230=PLANE('',#272);
#231=ADVANCED_FACE('',(#32,#23,#24,#25),#225,.F.);
#232=ADVANCED_FACE('',(#33,#26),#16,.F.);
#233=ADVANCED_FACE('',(#34,#27),#17,.F.);
#234=ADVANCED_FACE('',(#35,#28),#18,.F.);
#235=ADVANCED_FACE('',(#36,#29,#30,#31),#226,.T.);
#236=ADVANCED_FACE('',(#37),#19,.T.);
#237=ADVANCED_FACE('',(#38),#227,.T.);
#238=ADVANCED_FACE('',(#39),#20,.T.);
#239=ADVANCED_FACE('',(#40),#228,.T.);
#240=ADVANCED_FACE('',(#41),#21,.T.);
#241=ADVANCED_FACE('',(#42),#229,.T.);
#242=ADVANCED_FACE('',(#43),#22,.T.);
#243=ADVANCED_FACE('',(#44),#230,.T.);
#244=CLOSED_SHELL('',(#231,#232,#233,#234,#235,#236,#237,#238,#239,#240,
#241,#242,#243));
#245=AXIS2_PLACEMENT_3D('placement',#345,#273,#274);
#246=AXIS2_PLACEMENT_3D('',#346,#275,#276);
#247=AXIS2_PLACEMENT_3D('',#351,#278,#279);
#248=AXIS2_PLACEMENT_3D('',#355,#281,#282);
#249=AXIS2_PLACEMENT_3D('',#359,#284,#285);
#250=AXIS2_PLACEMENT_3D('',#362,#287,#288);
#251=AXIS2_PLACEMENT_3D('',#364,#289,#290);
#252=AXIS2_PLACEMENT_3D('',#366,#291,#292);
#253=AXIS2_PLACEMENT_3D('',#368,#293,#294);
#254=AXIS2_PLACEMENT_3D('',#369,#295,#296);
#255=AXIS2_PLACEMENT_3D('',#371,#297,#298);
#256=AXIS2_PLACEMENT_3D('',#372,#299,#300);
#257=AXIS2_PLACEMENT_3D('',#374,#301,#302);
#258=AXIS2_PLACEMENT_3D('',#375,#303,#304);
#259=AXIS2_PLACEMENT_3D('',#377,#305,#306);
#260=AXIS2_PLACEMENT_3D('',#378,#307,#308);
#261=AXIS2_PLACEMENT_3D('',#383,#310,#311);
#262=AXIS2_PLACEMENT_3D('',#387,#313,#314);
#263=AXIS2_PLACEMENT_3D('',#391,#316,#317);
#264=AXIS2_PLACEMENT_3D('',#394,#319,#320);
#265=AXIS2_PLACEMENT_3D('',#395,#321,#322);
#266=AXIS2_PLACEMENT_3D('',#398,#325,#326);
#267=AXIS2_PLACEMENT_3D('',#400,#328,#329);
#268=AXIS2_PLACEMENT_3D('',#402,#331,#332);
#269=AXIS2_PLACEMENT_3D('',#404,#334,#335);
#270=AXIS2_PLACEMENT_3D('',#406,#337,#338);
#271=AXIS2_PLACEMENT_3D('',#408,#340,#341);
#272=AXIS2_PLACEMENT_3D('',#410,#343,#344);
#273=DIRECTION('axis',(0.,0.,1.));
#274=DIRECTION('refdir',(1.,0.,0.));
#275=DIRECTION('center_axis',(0.,0.,1.));
#276=DIRECTION('ref_axis',(1.,0.,0.));
#277=DIRECTION('',(1.,0.,0.));
#278=DIRECTION('center_axis',(0.,0.,-1.));
#279=DIRECTION('ref_axis',(-1.,2.96059473233375E-15,0.));
#280=DIRECTION('',(-1.49692992084291E-16,-1.,0.));
#281=DIRECTION('center_axis',(0.,0.,-1.));
#282=DIRECTION('ref_axis',(7.40148683083438E-16,1.,0.));
#283=DIRECTION('',(-1.,0.,0.));
#284=DIRECTION('center_axis',(0.,0.,-1.));
#285=DIRECTION('ref_axis',(1.,5.92118946466751E-15,0.));
#286=DIRECTION('',(1.99590656112388E-16,1.,0.));
#287=DIRECTION('center_axis',(0.,0.,-1.));
#288=DIRECTION('ref_axis',(0.,-1.,0.));
#289=DIRECTION('center_axis',(0.,0.,1.));
#290=DIRECTION('ref_axis',(-1.,0.,0.));
#291=DIRECTION('center_axis',(0.,0.,1.));
#292=DIRECTION('ref_axis',(-1.,0.,0.));
#293=DIRECTION('center_axis',(0.,0.,1.));
#294=DIRECTION('ref_axis',(-1.,0.,0.));
#295=DIRECTION('center_axis',(0.,0.,1.));
#296=DIRECTION('ref_axis',(-1.,0.,0.));
#297=DIRECTION('center_axis',(0.,0.,-1.));
#298=DIRECTION('ref_axis',(-1.,0.,0.));
#299=DIRECTION('center_axis',(0.,0.,1.));
#300=DIRECTION('ref_axis',(-1.,0.,0.));
#301=DIRECTION('center_axis',(0.,0.,-1.));
#302=DIRECTION('ref_axis',(-1.,0.,0.));
#303=DIRECTION('center_axis',(0.,0.,1.));
#304=DIRECTION('ref_axis',(0.,1.,0.));
#305=DIRECTION('center_axis',(0.,0.,-1.));
#306=DIRECTION('ref_axis',(-1.,0.,0.));
#307=DIRECTION('center_axis',(0.,0.,1.));
#308=DIRECTION('ref_axis',(1.,0.,0.));
#309=DIRECTION('',(-1.,0.,0.));
#310=DIRECTION('center_axis',(0.,0.,1.));
#311=DIRECTION('ref_axis',(0.,-1.,0.));
#312=DIRECTION('',(-1.99590656112388E-16,-1.,0.));
#313=DIRECTION('center_axis',(0.,0.,1.));
#314=DIRECTION('ref_axis',(1.,5.92118946466751E-15,0.));
#315=DIRECTION('',(1.,0.,0.));
#316=DIRECTION('center_axis',(0.,0.,1.));
#317=DIRECTION('ref_axis',(7.40148683083438E-16,1.,0.));
#318=DIRECTION('',(1.49692992084291E-16,1.,0.));
#319=DIRECTION('center_axis',(0.,0.,1.));
#320=DIRECTION('ref_axis',(-1.,2.96059473233375E-15,0.));
#321=DIRECTION('center_axis',(0.,0.,1.));
#322=DIRECTION('ref_axis',(-1.,2.96059473233375E-15,0.));
#323=DIRECTION('',(0.,0.,1.));
#324=DIRECTION('',(0.,0.,1.));
#325=DIRECTION('center_axis',(1.,-1.49692992084291E-16,0.));
#326=DIRECTION('ref_axis',(1.77635683940025E-16,1.,0.));
#327=DIRECTION('',(0.,0.,1.));
#328=DIRECTION('center_axis',(0.,0.,1.));
#329=DIRECTION('ref_axis',(7.40148683083438E-16,1.,0.));
#330=DIRECTION('',(0.,0.,1.));
#331=DIRECTION('center_axis',(0.,-1.,0.));
#332=DIRECTION('ref_axis',(1.,0.,0.));
#333=DIRECTION('',(0.,0.,1.));
#334=DIRECTION('center_axis',(0.,0.,1.));
#335=DIRECTION('ref_axis',(1.,5.92118946466751E-15,0.));
#336=DIRECTION('',(0.,0.,1.));
#337=DIRECTION('center_axis',(-1.,1.99590656112388E-16,0.));
#338=DIRECTION('ref_axis',(-1.77635683940025E-16,-1.,0.));
#339=DIRECTION('',(0.,0.,1.));
#340=DIRECTION('center_axis',(0.,0.,1.));
#341=DIRECTION('ref_axis',(0.,-1.,0.));
#342=DIRECTION('',(0.,0.,1.));
#343=DIRECTION('center_axis',(0.,1.,0.));
#344=DIRECTION('ref_axis',(-1.,0.,0.));
#345=CARTESIAN_POINT('',(0.,0.,0.));
#346=CARTESIAN_POINT('Origin',(4.8891259253875E-15,29.,0.));
#347=CARTESIAN_POINT('',(-12.,76.5000000000001,0.));
#348=CARTESIAN_POINT('',(12.,76.5000000000001,0.));
#349=CARTESIAN_POINT('',(-12.,76.5000000000001,0.));
#350=CARTESIAN_POINT('',(15.,73.5000000000001,0.));
#351=CARTESIAN_POINT('Origin',(12.,73.5000000000001,0.));
#352=CARTESIAN_POINT('',(15.,-15.5,0.));
#353=CARTESIAN_POINT('',(15.,73.5000000000001,0.));
#354=CARTESIAN_POINT('',(12.,-18.5,0.));
#355=CARTESIAN_POINT('Origin',(12.,-15.5,0.));
#356=CARTESIAN_POINT('',(-12.,-18.5,0.));
#357=CARTESIAN_POINT('',(12.,-18.5,0.));
#358=CARTESIAN_POINT('',(-15.,-15.5,0.));
#359=CARTESIAN_POINT('Origin',(-12.,-15.5,0.));
#360=CARTESIAN_POINT('',(-15.,73.5000000000001,0.));
#361=CARTESIAN_POINT('',(-15.,-15.5,0.));
#362=CARTESIAN_POINT('Origin',(-12.,73.5000000000001,0.));
#363=CARTESIAN_POINT('',(2.5,0.,0.));
#364=CARTESIAN_POINT('Origin',(0.,0.,0.));
#365=CARTESIAN_POINT('',(12.25,56.5,0.));
#366=CARTESIAN_POINT('Origin',(9.00000000000001,56.5,0.));
#367=CARTESIAN_POINT('',(-5.74999999999999,56.5,0.));
#368=CARTESIAN_POINT('Origin',(-8.99999999999999,56.5,0.));
#369=CARTESIAN_POINT('Origin',(-8.99999999999999,56.5,0.));
#370=CARTESIAN_POINT('',(-5.74999999999999,56.5,5.));
#371=CARTESIAN_POINT('Origin',(-8.99999999999999,56.5,5.));
#372=CARTESIAN_POINT('Origin',(9.00000000000001,56.5,0.));
#373=CARTESIAN_POINT('',(12.25,56.5,5.));
#374=CARTESIAN_POINT('Origin',(9.00000000000001,56.5,5.));
#375=CARTESIAN_POINT('Origin',(0.,0.,0.));
#376=CARTESIAN_POINT('',(2.5,0.,5.));
#377=CARTESIAN_POINT('Origin',(0.,0.,5.));
#378=CARTESIAN_POINT('Origin',(4.8891259253875E-15,29.,5.));
#379=CARTESIAN_POINT('',(12.,76.5000000000001,5.));
#380=CARTESIAN_POINT('',(-12.,76.5000000000001,5.));
#381=CARTESIAN_POINT('',(-12.,76.5000000000001,5.));
#382=CARTESIAN_POINT('',(-15.,73.5000000000001,5.));
#383=CARTESIAN_POINT('Origin',(-12.,73.5000000000001,5.));
#384=CARTESIAN_POINT('',(-15.,-15.5,5.));
#385=CARTESIAN_POINT('',(-15.,-15.5,5.));
#386=CARTESIAN_POINT('',(-12.,-18.5,5.));
#387=CARTESIAN_POINT('Origin',(-12.,-15.5,5.));
#388=CARTESIAN_POINT('',(12.,-18.5,5.));
#389=CARTESIAN_POINT('',(12.,-18.5,5.));
#390=CARTESIAN_POINT('',(15.,-15.5,5.));
#391=CARTESIAN_POINT('Origin',(12.,-15.5,5.));
#392=CARTESIAN_POINT('',(15.,73.5000000000001,5.));
#393=CARTESIAN_POINT('',(15.,73.5000000000001,5.));
#394=CARTESIAN_POINT('Origin',(12.,73.5000000000001,5.));
#395=CARTESIAN_POINT('Origin',(12.,73.5000000000001,0.));
#396=CARTESIAN_POINT('',(12.,76.5000000000001,0.));
#397=CARTESIAN_POINT('',(15.,73.5000000000001,0.));
#398=CARTESIAN_POINT('Origin',(15.,-15.5,0.));
#399=CARTESIAN_POINT('',(15.,-15.5,0.));
#400=CARTESIAN_POINT('Origin',(12.,-15.5,0.));
#401=CARTESIAN_POINT('',(12.,-18.5,0.));
#402=CARTESIAN_POINT('Origin',(-12.,-18.5,0.));
#403=CARTESIAN_POINT('',(-12.,-18.5,0.));
#404=CARTESIAN_POINT('Origin',(-12.,-15.5,0.));
#405=CARTESIAN_POINT('',(-15.,-15.5,0.));
#406=CARTESIAN_POINT('Origin',(-15.,73.5000000000001,0.));
#407=CARTESIAN_POINT('',(-15.,73.5000000000001,0.));
#408=CARTESIAN_POINT('Origin',(-12.,73.5000000000001,0.));
#409=CARTESIAN_POINT('',(-12.,76.5000000000001,0.));
#410=CARTESIAN_POINT('Origin',(12.,76.5000000000001,0.));
#411=UNCERTAINTY_MEASURE_WITH_UNIT(LENGTH_MEASURE(0.01),#415,
'DISTANCE_ACCURACY_VALUE',
'Maximum model space distance between geometric entities at asserted c
onnectivities');
#412=UNCERTAINTY_MEASURE_WITH_UNIT(LENGTH_MEASURE(1.E-6),#415,
'DISTANCE_ACCURACY_VALUE',
'Maximum model space distance between geometric entities at asserted c
onnectivities');
#413=(
GEOMETRIC_REPRESENTATION_CONTEXT(3)
GLOBAL_UNCERTAINTY_ASSIGNED_CONTEXT((#411))
GLOBAL_UNIT_ASSIGNED_CONTEXT((#415,#418,#416))
REPRESENTATION_CONTEXT('','3D')
);
#414=(
GEOMETRIC_REPRESENTATION_CONTEXT(3)
GLOBAL_UNCERTAINTY_ASSIGNED_CONTEXT((#412))
GLOBAL_UNIT_ASSIGNED_CONTEXT((#415,#418,#416))
REPRESENTATION_CONTEXT('','3D')
);
#415=(
LENGTH_UNIT()
NAMED_UNIT(*)
SI_UNIT(.MILLI.,.METRE.)
);
#416=(
NAMED_UNIT(*)
SI_UNIT($,.STERADIAN.)
SOLID_ANGLE_UNIT()
);
#417=DIMENSIONAL_EXPONENTS(0.,0.,0.,0.,0.,0.,0.);
#418=(
CONVERSION_BASED_UNIT('degree',#420)
NAMED_UNIT(#417)
PLANE_ANGLE_UNIT()
);
#419=(
NAMED_UNIT(*)
PLANE_ANGLE_UNIT()
SI_UNIT($,.RADIAN.)
);
#420=PLANE_ANGLE_MEASURE_WITH_UNIT(PLANE_ANGLE_MEASURE(0.01745329252),#419);
#421=SHAPE_DEFINITION_REPRESENTATION(#422,#423);
#422=PRODUCT_DEFINITION_SHAPE('',$,#425);
#423=SHAPE_REPRESENTATION('',(#245),#413);
#424=PRODUCT_DEFINITION_CONTEXT('part definition',#429,'design');
#425=PRODUCT_DEFINITION('27.227.00','27.227.00',#426,#424);
#426=PRODUCT_DEFINITION_FORMATION('','A',#431);
#427=PRODUCT_RELATED_PRODUCT_CATEGORY('27.227.00','27.227.00',(#431));
#428=APPLICATION_PROTOCOL_DEFINITION('international standard',
'automotive_design',2009,#429);
#429=APPLICATION_CONTEXT(
'Core Data for Automotive Mechanical Design Process');
#430=PRODUCT_CONTEXT('part definition',#429,'mechanical');
#431=PRODUCT('27.227.00','27.227.00',$,(#430));
#432=PRESENTATION_STYLE_ASSIGNMENT((#434));
#433=PRESENTATION_STYLE_ASSIGNMENT((#435));
#434=SURFACE_STYLE_USAGE(.BOTH.,#436);
#435=SURFACE_STYLE_USAGE(.BOTH.,#437);
#436=SURFACE_SIDE_STYLE('',(#438));
#437=SURFACE_SIDE_STYLE('',(#439));
#438=SURFACE_STYLE_FILL_AREA(#440);
#439=SURFACE_STYLE_FILL_AREA(#441);
#440=FILL_AREA_STYLE('',(#442));
#441=FILL_AREA_STYLE('',(#443));
#442=FILL_AREA_STYLE_COLOUR('',#444);
#443=FILL_AREA_STYLE_COLOUR('',#445);
#444=COLOUR_RGB('',0.956862745098039,0.956862745098039,0.956862745098039);
#445=COLOUR_RGB('',0.898039215686275,0.898039215686275,0.898039215686275);
ENDSEC;
END-ISO-10303-21;
