ISO-10303-21;
HEADER;
/* Generated by software containing ST-Developer
 * from STEP Tools, Inc. (www.steptools.com) 
 */

FILE_DESCRIPTION(
/* description */ ('PIATTO DI FISS. PALO 60X60 A TRAVERSA'),
/* implementation_level */ '2;1');

FILE_NAME(
/* name */ 'C:\\Users\\Tecnico9\\Desktop\\DPSXX0000959.stp',
/* time_stamp */ '2024-02-23T09:02:10+01:00',
/* author */ ('tecnico9'),
/* organization */ (''),
/* preprocessor_version */ 'ST-DEVELOPER v18.1',
/* originating_system */ 'Autodesk Inventor 2022',
/* authorisation */ '');

FILE_SCHEMA (('AUTOMOTIVE_DESIGN { 1 0 10303 214 3 1 1 }'));
ENDSEC;

DATA;
#10=MECHANICAL_DESIGN_GEOMETRIC_PRESENTATION_REPRESENTATION('',(#13),#488);
#11=SHAPE_REPRESENTATION_RELATIONSHIP('SRR','None',#495,#12);
#12=ADVANCED_BREP_SHAPE_REPRESENTATION('',(#14),#487);
#13=STYLED_ITEM('',(#504),#14);
#14=MANIFOLD_SOLID_BREP('Solido2',#275);
#15=FACE_BOUND('',#60,.T.);
#16=FACE_BOUND('',#61,.T.);
#17=FACE_BOUND('',#62,.T.);
#18=FACE_BOUND('',#63,.T.);
#19=FACE_BOUND('',#65,.T.);
#20=FACE_BOUND('',#66,.T.);
#21=FACE_BOUND('',#67,.T.);
#22=FACE_BOUND('',#68,.T.);
#23=PLANE('',#313);
#24=PLANE('',#317);
#25=PLANE('',#321);
#26=PLANE('',#325);
#27=PLANE('',#326);
#28=PLANE('',#327);
#29=CYLINDRICAL_SURFACE('',#310,0.999997999999986);
#30=CYLINDRICAL_SURFACE('',#314,0.999997999999986);
#31=CYLINDRICAL_SURFACE('',#318,0.999997999999986);
#32=CYLINDRICAL_SURFACE('',#322,0.999997999999986);
#33=FACE_OUTER_BOUND('',#47,.T.);
#34=FACE_OUTER_BOUND('',#48,.T.);
#35=FACE_OUTER_BOUND('',#49,.T.);
#36=FACE_OUTER_BOUND('',#50,.T.);
#37=FACE_OUTER_BOUND('',#51,.T.);
#38=FACE_OUTER_BOUND('',#52,.T.);
#39=FACE_OUTER_BOUND('',#53,.T.);
#40=FACE_OUTER_BOUND('',#54,.T.);
#41=FACE_OUTER_BOUND('',#55,.T.);
#42=FACE_OUTER_BOUND('',#56,.T.);
#43=FACE_OUTER_BOUND('',#57,.T.);
#44=FACE_OUTER_BOUND('',#58,.T.);
#45=FACE_OUTER_BOUND('',#59,.T.);
#46=FACE_OUTER_BOUND('',#64,.T.);
#47=EDGE_LOOP('',(#185,#186,#187,#188));
#48=EDGE_LOOP('',(#189,#190,#191,#192));
#49=EDGE_LOOP('',(#193,#194,#195,#196));
#50=EDGE_LOOP('',(#197,#198,#199,#200));
#51=EDGE_LOOP('',(#201,#202,#203,#204));
#52=EDGE_LOOP('',(#205,#206,#207,#208));
#53=EDGE_LOOP('',(#209,#210,#211,#212));
#54=EDGE_LOOP('',(#213,#214,#215,#216));
#55=EDGE_LOOP('',(#217,#218,#219,#220));
#56=EDGE_LOOP('',(#221,#222,#223,#224));
#57=EDGE_LOOP('',(#225,#226,#227,#228));
#58=EDGE_LOOP('',(#229,#230,#231,#232));
#59=EDGE_LOOP('',(#233,#234,#235,#236,#237,#238,#239,#240));
#60=EDGE_LOOP('',(#241));
#61=EDGE_LOOP('',(#242));
#62=EDGE_LOOP('',(#243));
#63=EDGE_LOOP('',(#244));
#64=EDGE_LOOP('',(#245,#246,#247,#248,#249,#250,#251,#252));
#65=EDGE_LOOP('',(#253));
#66=EDGE_LOOP('',(#254));
#67=EDGE_LOOP('',(#255));
#68=EDGE_LOOP('',(#256));
#69=LINE('',#415,#89);
#70=LINE('',#421,#90);
#71=LINE('',#427,#91);
#72=LINE('',#433,#92);
#73=LINE('',#440,#93);
#74=LINE('',#443,#94);
#75=LINE('',#446,#95);
#76=LINE('',#448,#96);
#77=LINE('',#449,#97);
#78=LINE('',#455,#98);
#79=LINE('',#458,#99);
#80=LINE('',#460,#100);
#81=LINE('',#461,#101);
#82=LINE('',#467,#102);
#83=LINE('',#470,#103);
#84=LINE('',#472,#104);
#85=LINE('',#473,#105);
#86=LINE('',#479,#106);
#87=LINE('',#481,#107);
#88=LINE('',#482,#108);
#89=VECTOR('',#334,6.625);
#90=VECTOR('',#341,6.625);
#91=VECTOR('',#348,6.625);
#92=VECTOR('',#355,6.625);
#93=VECTOR('',#362,4.);
#94=VECTOR('',#365,4.);
#95=VECTOR('',#368,57.9998839999996);
#96=VECTOR('',#369,57.9998839999996);
#97=VECTOR('',#370,4.);
#98=VECTOR('',#377,4.);
#99=VECTOR('',#380,97.9998039999997);
#100=VECTOR('',#381,97.9998039999997);
#101=VECTOR('',#382,4.);
#102=VECTOR('',#389,4.);
#103=VECTOR('',#392,57.9998839999996);
#104=VECTOR('',#393,57.9998839999996);
#105=VECTOR('',#394,4.);
#106=VECTOR('',#401,4.);
#107=VECTOR('',#404,97.9998039999997);
#108=VECTOR('',#405,97.9998039999997);
#109=CIRCLE('',#299,5.);
#110=CIRCLE('',#300,9.);
#111=CIRCLE('',#302,5.);
#112=CIRCLE('',#303,9.);
#113=CIRCLE('',#305,5.);
#114=CIRCLE('',#306,9.);
#115=CIRCLE('',#308,5.);
#116=CIRCLE('',#309,9.);
#117=CIRCLE('',#311,0.999997999999986);
#118=CIRCLE('',#312,0.999997999999986);
#119=CIRCLE('',#315,0.999997999999986);
#120=CIRCLE('',#316,0.999997999999986);
#121=CIRCLE('',#319,0.999997999999986);
#122=CIRCLE('',#320,0.999997999999986);
#123=CIRCLE('',#323,0.999997999999986);
#124=CIRCLE('',#324,0.999997999999986);
#125=VERTEX_POINT('',#412);
#126=VERTEX_POINT('',#414);
#127=VERTEX_POINT('',#418);
#128=VERTEX_POINT('',#420);
#129=VERTEX_POINT('',#424);
#130=VERTEX_POINT('',#426);
#131=VERTEX_POINT('',#430);
#132=VERTEX_POINT('',#432);
#133=VERTEX_POINT('',#436);
#134=VERTEX_POINT('',#437);
#135=VERTEX_POINT('',#439);
#136=VERTEX_POINT('',#441);
#137=VERTEX_POINT('',#445);
#138=VERTEX_POINT('',#447);
#139=VERTEX_POINT('',#451);
#140=VERTEX_POINT('',#453);
#141=VERTEX_POINT('',#457);
#142=VERTEX_POINT('',#459);
#143=VERTEX_POINT('',#463);
#144=VERTEX_POINT('',#465);
#145=VERTEX_POINT('',#469);
#146=VERTEX_POINT('',#471);
#147=VERTEX_POINT('',#475);
#148=VERTEX_POINT('',#477);
#149=EDGE_CURVE('',#125,#125,#109,.T.);
#150=EDGE_CURVE('',#125,#126,#69,.T.);
#151=EDGE_CURVE('',#126,#126,#110,.T.);
#152=EDGE_CURVE('',#127,#127,#111,.T.);
#153=EDGE_CURVE('',#127,#128,#70,.T.);
#154=EDGE_CURVE('',#128,#128,#112,.T.);
#155=EDGE_CURVE('',#129,#129,#113,.T.);
#156=EDGE_CURVE('',#129,#130,#71,.T.);
#157=EDGE_CURVE('',#130,#130,#114,.T.);
#158=EDGE_CURVE('',#131,#131,#115,.T.);
#159=EDGE_CURVE('',#131,#132,#72,.T.);
#160=EDGE_CURVE('',#132,#132,#116,.T.);
#161=EDGE_CURVE('',#133,#134,#117,.T.);
#162=EDGE_CURVE('',#134,#135,#73,.T.);
#163=EDGE_CURVE('',#136,#135,#118,.T.);
#164=EDGE_CURVE('',#133,#136,#74,.T.);
#165=EDGE_CURVE('',#137,#133,#75,.T.);
#166=EDGE_CURVE('',#138,#136,#76,.T.);
#167=EDGE_CURVE('',#137,#138,#77,.T.);
#168=EDGE_CURVE('',#139,#137,#119,.T.);
#169=EDGE_CURVE('',#140,#138,#120,.T.);
#170=EDGE_CURVE('',#139,#140,#78,.T.);
#171=EDGE_CURVE('',#141,#139,#79,.T.);
#172=EDGE_CURVE('',#142,#140,#80,.T.);
#173=EDGE_CURVE('',#141,#142,#81,.T.);
#174=EDGE_CURVE('',#143,#141,#121,.T.);
#175=EDGE_CURVE('',#144,#142,#122,.T.);
#176=EDGE_CURVE('',#143,#144,#82,.T.);
#177=EDGE_CURVE('',#145,#143,#83,.T.);
#178=EDGE_CURVE('',#146,#144,#84,.T.);
#179=EDGE_CURVE('',#145,#146,#85,.T.);
#180=EDGE_CURVE('',#147,#145,#123,.T.);
#181=EDGE_CURVE('',#148,#146,#124,.T.);
#182=EDGE_CURVE('',#147,#148,#86,.T.);
#183=EDGE_CURVE('',#134,#147,#87,.T.);
#184=EDGE_CURVE('',#135,#148,#88,.T.);
#185=ORIENTED_EDGE('',*,*,#149,.F.);
#186=ORIENTED_EDGE('',*,*,#150,.T.);
#187=ORIENTED_EDGE('',*,*,#151,.F.);
#188=ORIENTED_EDGE('',*,*,#150,.F.);
#189=ORIENTED_EDGE('',*,*,#152,.F.);
#190=ORIENTED_EDGE('',*,*,#153,.T.);
#191=ORIENTED_EDGE('',*,*,#154,.F.);
#192=ORIENTED_EDGE('',*,*,#153,.F.);
#193=ORIENTED_EDGE('',*,*,#155,.F.);
#194=ORIENTED_EDGE('',*,*,#156,.T.);
#195=ORIENTED_EDGE('',*,*,#157,.F.);
#196=ORIENTED_EDGE('',*,*,#156,.F.);
#197=ORIENTED_EDGE('',*,*,#158,.F.);
#198=ORIENTED_EDGE('',*,*,#159,.T.);
#199=ORIENTED_EDGE('',*,*,#160,.F.);
#200=ORIENTED_EDGE('',*,*,#159,.F.);
#201=ORIENTED_EDGE('',*,*,#161,.T.);
#202=ORIENTED_EDGE('',*,*,#162,.T.);
#203=ORIENTED_EDGE('',*,*,#163,.F.);
#204=ORIENTED_EDGE('',*,*,#164,.F.);
#205=ORIENTED_EDGE('',*,*,#165,.T.);
#206=ORIENTED_EDGE('',*,*,#164,.T.);
#207=ORIENTED_EDGE('',*,*,#166,.F.);
#208=ORIENTED_EDGE('',*,*,#167,.F.);
#209=ORIENTED_EDGE('',*,*,#168,.T.);
#210=ORIENTED_EDGE('',*,*,#167,.T.);
#211=ORIENTED_EDGE('',*,*,#169,.F.);
#212=ORIENTED_EDGE('',*,*,#170,.F.);
#213=ORIENTED_EDGE('',*,*,#171,.T.);
#214=ORIENTED_EDGE('',*,*,#170,.T.);
#215=ORIENTED_EDGE('',*,*,#172,.F.);
#216=ORIENTED_EDGE('',*,*,#173,.F.);
#217=ORIENTED_EDGE('',*,*,#174,.T.);
#218=ORIENTED_EDGE('',*,*,#173,.T.);
#219=ORIENTED_EDGE('',*,*,#175,.F.);
#220=ORIENTED_EDGE('',*,*,#176,.F.);
#221=ORIENTED_EDGE('',*,*,#177,.T.);
#222=ORIENTED_EDGE('',*,*,#176,.T.);
#223=ORIENTED_EDGE('',*,*,#178,.F.);
#224=ORIENTED_EDGE('',*,*,#179,.F.);
#225=ORIENTED_EDGE('',*,*,#180,.T.);
#226=ORIENTED_EDGE('',*,*,#179,.T.);
#227=ORIENTED_EDGE('',*,*,#181,.F.);
#228=ORIENTED_EDGE('',*,*,#182,.F.);
#229=ORIENTED_EDGE('',*,*,#183,.T.);
#230=ORIENTED_EDGE('',*,*,#182,.T.);
#231=ORIENTED_EDGE('',*,*,#184,.F.);
#232=ORIENTED_EDGE('',*,*,#162,.F.);
#233=ORIENTED_EDGE('',*,*,#184,.T.);
#234=ORIENTED_EDGE('',*,*,#181,.T.);
#235=ORIENTED_EDGE('',*,*,#178,.T.);
#236=ORIENTED_EDGE('',*,*,#175,.T.);
#237=ORIENTED_EDGE('',*,*,#172,.T.);
#238=ORIENTED_EDGE('',*,*,#169,.T.);
#239=ORIENTED_EDGE('',*,*,#166,.T.);
#240=ORIENTED_EDGE('',*,*,#163,.T.);
#241=ORIENTED_EDGE('',*,*,#151,.T.);
#242=ORIENTED_EDGE('',*,*,#154,.T.);
#243=ORIENTED_EDGE('',*,*,#157,.T.);
#244=ORIENTED_EDGE('',*,*,#160,.T.);
#245=ORIENTED_EDGE('',*,*,#183,.F.);
#246=ORIENTED_EDGE('',*,*,#161,.F.);
#247=ORIENTED_EDGE('',*,*,#165,.F.);
#248=ORIENTED_EDGE('',*,*,#168,.F.);
#249=ORIENTED_EDGE('',*,*,#171,.F.);
#250=ORIENTED_EDGE('',*,*,#174,.F.);
#251=ORIENTED_EDGE('',*,*,#177,.F.);
#252=ORIENTED_EDGE('',*,*,#180,.F.);
#253=ORIENTED_EDGE('',*,*,#149,.T.);
#254=ORIENTED_EDGE('',*,*,#152,.T.);
#255=ORIENTED_EDGE('',*,*,#155,.T.);
#256=ORIENTED_EDGE('',*,*,#158,.T.);
#257=CONICAL_SURFACE('',#298,6.625,0.785398163397448);
#258=CONICAL_SURFACE('',#301,6.625,0.785398163397448);
#259=CONICAL_SURFACE('',#304,6.625,0.785398163397448);
#260=CONICAL_SURFACE('',#307,6.625,0.785398163397448);
#261=ADVANCED_FACE('',(#33),#257,.F.);
#262=ADVANCED_FACE('',(#34),#258,.F.);
#263=ADVANCED_FACE('',(#35),#259,.F.);
#264=ADVANCED_FACE('',(#36),#260,.F.);
#265=ADVANCED_FACE('',(#37),#29,.T.);
#266=ADVANCED_FACE('',(#38),#23,.T.);
#267=ADVANCED_FACE('',(#39),#30,.T.);
#268=ADVANCED_FACE('',(#40),#24,.T.);
#269=ADVANCED_FACE('',(#41),#31,.T.);
#270=ADVANCED_FACE('',(#42),#25,.T.);
#271=ADVANCED_FACE('',(#43),#32,.T.);
#272=ADVANCED_FACE('',(#44),#26,.T.);
#273=ADVANCED_FACE('',(#45,#15,#16,#17,#18),#27,.T.);
#274=ADVANCED_FACE('',(#46,#19,#20,#21,#22),#28,.F.);
#275=CLOSED_SHELL('',(#261,#262,#263,#264,#265,#266,#267,#268,#269,#270,
#271,#272,#273,#274));
#276=DERIVED_UNIT_ELEMENT(#279,1.);
#277=DERIVED_UNIT_ELEMENT(#490,-3.);
#278=DIMENSIONAL_EXPONENTS(1.,0.,0.,0.,0.,0.,0.);
#279=(
CONVERSION_BASED_UNIT('gram',#281)
MASS_UNIT()
NAMED_UNIT(#278)
);
#280=(
MASS_UNIT()
NAMED_UNIT(*)
SI_UNIT(.KILO.,.GRAM.)
);
#281=MASS_MEASURE_WITH_UNIT(MASS_MEASURE(0.001),#280);
#282=DERIVED_UNIT((#276,#277));
#283=MEASURE_REPRESENTATION_ITEM('density measure',
POSITIVE_RATIO_MEASURE(7.85),#282);
#284=PROPERTY_DEFINITION_REPRESENTATION(#289,#286);
#285=PROPERTY_DEFINITION_REPRESENTATION(#290,#287);
#286=REPRESENTATION('material name',(#288),#487);
#287=REPRESENTATION('density',(#283),#487);
#288=DESCRIPTIVE_REPRESENTATION_ITEM('Acciaio generico (Ferro)',
'Acciaio generico (Ferro)');
#289=PROPERTY_DEFINITION('material property','material name',#497);
#290=PROPERTY_DEFINITION('material property','density of part',#497);
#291=DATE_TIME_ROLE('creation_date');
#292=APPLIED_DATE_AND_TIME_ASSIGNMENT(#293,#291,(#497));
#293=DATE_AND_TIME(#294,#295);
#294=CALENDAR_DATE(2015,16,6);
#295=LOCAL_TIME(0,0,0.,#296);
#296=COORDINATED_UNIVERSAL_TIME_OFFSET(0,0,.BEHIND.);
#297=AXIS2_PLACEMENT_3D('placement',#410,#328,#329);
#298=AXIS2_PLACEMENT_3D('',#411,#330,#331);
#299=AXIS2_PLACEMENT_3D('',#413,#332,#333);
#300=AXIS2_PLACEMENT_3D('',#416,#335,#336);
#301=AXIS2_PLACEMENT_3D('',#417,#337,#338);
#302=AXIS2_PLACEMENT_3D('',#419,#339,#340);
#303=AXIS2_PLACEMENT_3D('',#422,#342,#343);
#304=AXIS2_PLACEMENT_3D('',#423,#344,#345);
#305=AXIS2_PLACEMENT_3D('',#425,#346,#347);
#306=AXIS2_PLACEMENT_3D('',#428,#349,#350);
#307=AXIS2_PLACEMENT_3D('',#429,#351,#352);
#308=AXIS2_PLACEMENT_3D('',#431,#353,#354);
#309=AXIS2_PLACEMENT_3D('',#434,#356,#357);
#310=AXIS2_PLACEMENT_3D('',#435,#358,#359);
#311=AXIS2_PLACEMENT_3D('',#438,#360,#361);
#312=AXIS2_PLACEMENT_3D('',#442,#363,#364);
#313=AXIS2_PLACEMENT_3D('',#444,#366,#367);
#314=AXIS2_PLACEMENT_3D('',#450,#371,#372);
#315=AXIS2_PLACEMENT_3D('',#452,#373,#374);
#316=AXIS2_PLACEMENT_3D('',#454,#375,#376);
#317=AXIS2_PLACEMENT_3D('',#456,#378,#379);
#318=AXIS2_PLACEMENT_3D('',#462,#383,#384);
#319=AXIS2_PLACEMENT_3D('',#464,#385,#386);
#320=AXIS2_PLACEMENT_3D('',#466,#387,#388);
#321=AXIS2_PLACEMENT_3D('',#468,#390,#391);
#322=AXIS2_PLACEMENT_3D('',#474,#395,#396);
#323=AXIS2_PLACEMENT_3D('',#476,#397,#398);
#324=AXIS2_PLACEMENT_3D('',#478,#399,#400);
#325=AXIS2_PLACEMENT_3D('',#480,#402,#403);
#326=AXIS2_PLACEMENT_3D('',#483,#406,#407);
#327=AXIS2_PLACEMENT_3D('',#484,#408,#409);
#328=DIRECTION('axis',(0.,0.,1.));
#329=DIRECTION('refdir',(1.,0.,0.));
#330=DIRECTION('center_axis',(0.,0.,1.));
#331=DIRECTION('ref_axis',(1.,0.,0.));
#332=DIRECTION('center_axis',(0.,0.,1.));
#333=DIRECTION('ref_axis',(1.,0.,0.));
#334=DIRECTION('',(-0.707106781186547,-8.65956056235493E-17,0.707106781186547));
#335=DIRECTION('center_axis',(0.,0.,-1.));
#336=DIRECTION('ref_axis',(1.,0.,0.));
#337=DIRECTION('center_axis',(0.,0.,1.));
#338=DIRECTION('ref_axis',(1.,0.,0.));
#339=DIRECTION('center_axis',(0.,0.,1.));
#340=DIRECTION('ref_axis',(1.,0.,0.));
#341=DIRECTION('',(-0.707106781186547,-8.65956056235493E-17,0.707106781186547));
#342=DIRECTION('center_axis',(0.,0.,-1.));
#343=DIRECTION('ref_axis',(1.,0.,0.));
#344=DIRECTION('center_axis',(0.,0.,1.));
#345=DIRECTION('ref_axis',(1.,0.,0.));
#346=DIRECTION('center_axis',(0.,0.,1.));
#347=DIRECTION('ref_axis',(1.,0.,0.));
#348=DIRECTION('',(-0.707106781186547,-8.65956056235493E-17,0.707106781186547));
#349=DIRECTION('center_axis',(0.,0.,-1.));
#350=DIRECTION('ref_axis',(1.,0.,0.));
#351=DIRECTION('center_axis',(0.,0.,1.));
#352=DIRECTION('ref_axis',(1.,0.,0.));
#353=DIRECTION('center_axis',(0.,0.,1.));
#354=DIRECTION('ref_axis',(1.,0.,0.));
#355=DIRECTION('',(-0.707106781186547,-8.65956056235493E-17,0.707106781186547));
#356=DIRECTION('center_axis',(0.,0.,-1.));
#357=DIRECTION('ref_axis',(1.,0.,0.));
#358=DIRECTION('center_axis',(0.,0.,1.));
#359=DIRECTION('ref_axis',(-2.84217662739388E-13,1.,0.));
#360=DIRECTION('center_axis',(0.,0.,1.));
#361=DIRECTION('ref_axis',(-2.84217662739388E-13,1.,0.));
#362=DIRECTION('',(0.,0.,1.));
#363=DIRECTION('center_axis',(0.,0.,1.));
#364=DIRECTION('ref_axis',(-2.84217662739388E-13,1.,0.));
#365=DIRECTION('',(0.,0.,1.));
#366=DIRECTION('center_axis',(0.,1.,0.));
#367=DIRECTION('ref_axis',(-1.,0.,0.));
#368=DIRECTION('',(-1.,0.,0.));
#369=DIRECTION('',(-1.,0.,0.));
#370=DIRECTION('',(0.,0.,1.));
#371=DIRECTION('center_axis',(0.,0.,1.));
#372=DIRECTION('ref_axis',(1.,0.,0.));
#373=DIRECTION('center_axis',(0.,0.,1.));
#374=DIRECTION('ref_axis',(1.,0.,0.));
#375=DIRECTION('center_axis',(0.,0.,1.));
#376=DIRECTION('ref_axis',(1.,0.,0.));
#377=DIRECTION('',(0.,0.,1.));
#378=DIRECTION('center_axis',(1.,1.74010813922061E-14,0.));
#379=DIRECTION('ref_axis',(-1.74010813922061E-14,1.,0.));
#380=DIRECTION('',(-1.74010813922061E-14,1.,0.));
#381=DIRECTION('',(-1.74010813922061E-14,1.,0.));
#382=DIRECTION('',(0.,0.,1.));
#383=DIRECTION('center_axis',(0.,0.,1.));
#384=DIRECTION('ref_axis',(0.,-1.,0.));
#385=DIRECTION('center_axis',(0.,0.,1.));
#386=DIRECTION('ref_axis',(0.,-1.,0.));
#387=DIRECTION('center_axis',(0.,0.,1.));
#388=DIRECTION('ref_axis',(0.,-1.,0.));
#389=DIRECTION('',(0.,0.,1.));
#390=DIRECTION('center_axis',(0.,-1.,0.));
#391=DIRECTION('ref_axis',(1.,0.,0.));
#392=DIRECTION('',(1.,0.,0.));
#393=DIRECTION('',(1.,0.,0.));
#394=DIRECTION('',(0.,0.,1.));
#395=DIRECTION('center_axis',(0.,0.,1.));
#396=DIRECTION('ref_axis',(-1.,7.1054415684837E-13,0.));
#397=DIRECTION('center_axis',(0.,0.,1.));
#398=DIRECTION('ref_axis',(-1.,7.1054415684837E-13,0.));
#399=DIRECTION('center_axis',(0.,0.,1.));
#400=DIRECTION('ref_axis',(-1.,7.1054415684837E-13,0.));
#401=DIRECTION('',(0.,0.,1.));
#402=DIRECTION('center_axis',(-1.,0.,0.));
#403=DIRECTION('ref_axis',(0.,-1.,0.));
#404=DIRECTION('',(0.,-1.,0.));
#405=DIRECTION('',(0.,-1.,0.));
#406=DIRECTION('center_axis',(0.,0.,1.));
#407=DIRECTION('ref_axis',(1.,0.,0.));
#408=DIRECTION('center_axis',(0.,0.,1.));
#409=DIRECTION('ref_axis',(1.,0.,0.));
#410=CARTESIAN_POINT('',(0.,0.,0.));
#411=CARTESIAN_POINT('Origin',(5.99999998463475E-5,7.9999999671454E-5,1.625));
#412=CARTESIAN_POINT('',(-4.99994000000016,7.99999996708417E-5,0.));
#413=CARTESIAN_POINT('Origin',(5.99999998463475E-5,7.9999999671454E-5,0.));
#414=CARTESIAN_POINT('',(-8.99994000000016,7.99999996703518E-5,4.));
#415=CARTESIAN_POINT('',(-6.62494000000016,7.99999996706427E-5,1.625));
#416=CARTESIAN_POINT('Origin',(5.99999998463475E-5,7.9999999671454E-5,4.));
#417=CARTESIAN_POINT('Origin',(5.99999998463475E-5,-19.9999200000003,1.625));
#418=CARTESIAN_POINT('',(-4.99994000000016,-19.9999200000003,0.));
#419=CARTESIAN_POINT('Origin',(5.99999998463475E-5,-19.9999200000003,0.));
#420=CARTESIAN_POINT('',(-8.99994000000016,-19.9999200000003,4.));
#421=CARTESIAN_POINT('',(-6.62494000000016,-19.9999200000003,1.625));
#422=CARTESIAN_POINT('Origin',(5.99999998463475E-5,-19.9999200000003,4.));
#423=CARTESIAN_POINT('Origin',(9.99993999999849,39.9998799999989,1.625));
#424=CARTESIAN_POINT('',(4.99993999999849,39.9998799999989,0.));
#425=CARTESIAN_POINT('Origin',(9.99993999999849,39.9998799999989,0.));
#426=CARTESIAN_POINT('',(0.999939999998489,39.9998799999989,4.));
#427=CARTESIAN_POINT('',(3.37493999999849,39.9998799999989,1.625));
#428=CARTESIAN_POINT('Origin',(9.99993999999849,39.9998799999989,4.));
#429=CARTESIAN_POINT('Origin',(-9.99994000000015,39.9998799999989,1.625));
#430=CARTESIAN_POINT('',(-14.9999400000002,39.9998799999989,0.));
#431=CARTESIAN_POINT('Origin',(-9.99994000000015,39.9998799999989,0.));
#432=CARTESIAN_POINT('',(-18.9999400000002,39.9998799999989,4.));
#433=CARTESIAN_POINT('',(-16.6249400000002,39.9998799999989,1.625));
#434=CARTESIAN_POINT('Origin',(-9.99994000000015,39.9998799999989,4.));
#435=CARTESIAN_POINT('Origin',(-28.9999420000001,58.999881999999,0.));
#436=CARTESIAN_POINT('',(-28.9999420000004,59.9998799999989,0.));
#437=CARTESIAN_POINT('',(-29.9999400000002,58.999882,0.));
#438=CARTESIAN_POINT('Origin',(-28.9999420000001,58.999881999999,0.));
#439=CARTESIAN_POINT('',(-29.9999400000002,58.999882,4.));
#440=CARTESIAN_POINT('',(-29.9999400000002,58.999882,0.));
#441=CARTESIAN_POINT('',(-28.9999420000004,59.9998799999989,4.));
#442=CARTESIAN_POINT('Origin',(-28.9999420000001,58.999881999999,4.));
#443=CARTESIAN_POINT('',(-28.9999420000004,59.9998799999989,0.));
#444=CARTESIAN_POINT('Origin',(28.9999419999992,59.9998799999989,0.));
#445=CARTESIAN_POINT('',(28.9999419999992,59.9998799999989,0.));
#446=CARTESIAN_POINT('',(28.9999419999992,59.9998799999989,0.));
#447=CARTESIAN_POINT('',(28.9999419999992,59.9998799999989,4.));
#448=CARTESIAN_POINT('',(28.9999419999992,59.9998799999989,4.));
#449=CARTESIAN_POINT('',(28.9999419999992,59.9998799999989,0.));
#450=CARTESIAN_POINT('Origin',(28.9999419999992,58.999882,0.));
#451=CARTESIAN_POINT('',(29.9999399999982,58.999882,0.));
#452=CARTESIAN_POINT('Origin',(28.9999419999992,58.999882,0.));
#453=CARTESIAN_POINT('',(29.9999399999982,58.999882,4.));
#454=CARTESIAN_POINT('Origin',(28.9999419999992,58.999882,4.));
#455=CARTESIAN_POINT('',(29.9999399999982,58.999882,0.));
#456=CARTESIAN_POINT('Origin',(29.9999399999999,-38.9999219999997,0.));
#457=CARTESIAN_POINT('',(29.9999399999999,-38.9999219999997,0.));
#458=CARTESIAN_POINT('',(29.9999399999999,-38.9999219999997,0.));
#459=CARTESIAN_POINT('',(29.9999399999999,-38.9999219999997,4.));
#460=CARTESIAN_POINT('',(29.9999399999999,-38.9999219999997,4.));
#461=CARTESIAN_POINT('',(29.9999399999999,-38.9999219999997,0.));
#462=CARTESIAN_POINT('Origin',(28.9999419999992,-38.9999219999997,0.));
#463=CARTESIAN_POINT('',(28.9999419999992,-39.9999200000003,0.));
#464=CARTESIAN_POINT('Origin',(28.9999419999992,-38.9999219999997,0.));
#465=CARTESIAN_POINT('',(28.9999419999992,-39.9999200000003,4.));
#466=CARTESIAN_POINT('Origin',(28.9999419999992,-38.9999219999997,4.));
#467=CARTESIAN_POINT('',(28.9999419999992,-39.9999200000003,0.));
#468=CARTESIAN_POINT('Origin',(-28.9999420000004,-39.9999200000003,0.));
#469=CARTESIAN_POINT('',(-28.9999420000004,-39.9999200000003,0.));
#470=CARTESIAN_POINT('',(-28.9999420000004,-39.9999200000003,0.));
#471=CARTESIAN_POINT('',(-28.9999420000004,-39.9999200000003,4.));
#472=CARTESIAN_POINT('',(-28.9999420000004,-39.9999200000003,4.));
#473=CARTESIAN_POINT('',(-28.9999420000004,-39.9999200000003,0.));
#474=CARTESIAN_POINT('Origin',(-28.9999420000001,-38.9999220000004,0.));
#475=CARTESIAN_POINT('',(-29.9999400000002,-38.9999219999997,0.));
#476=CARTESIAN_POINT('Origin',(-28.9999420000001,-38.9999220000004,0.));
#477=CARTESIAN_POINT('',(-29.9999400000002,-38.9999219999997,4.));
#478=CARTESIAN_POINT('Origin',(-28.9999420000001,-38.9999220000004,4.));
#479=CARTESIAN_POINT('',(-29.9999400000002,-38.9999219999997,0.));
#480=CARTESIAN_POINT('Origin',(-29.9999400000002,58.999882,0.));
#481=CARTESIAN_POINT('',(-29.9999400000002,58.999882,0.));
#482=CARTESIAN_POINT('',(-29.9999400000002,58.999882,4.));
#483=CARTESIAN_POINT('Origin',(-5.08428742818108E-13,9.9999799999996,4.));
#484=CARTESIAN_POINT('Origin',(-5.08428742818108E-13,9.9999799999996,0.));
#485=UNCERTAINTY_MEASURE_WITH_UNIT(LENGTH_MEASURE(0.01),#489,
'DISTANCE_ACCURACY_VALUE',
'Maximum model space distance between geometric entities at asserted c
onnectivities');
#486=UNCERTAINTY_MEASURE_WITH_UNIT(LENGTH_MEASURE(0.01),#489,
'DISTANCE_ACCURACY_VALUE',
'Maximum model space distance between geometric entities at asserted c
onnectivities');
#487=(
GEOMETRIC_REPRESENTATION_CONTEXT(3)
GLOBAL_UNCERTAINTY_ASSIGNED_CONTEXT((#485))
GLOBAL_UNIT_ASSIGNED_CONTEXT((#489,#491,#492))
REPRESENTATION_CONTEXT('','3D')
);
#488=(
GEOMETRIC_REPRESENTATION_CONTEXT(3)
GLOBAL_UNCERTAINTY_ASSIGNED_CONTEXT((#486))
GLOBAL_UNIT_ASSIGNED_CONTEXT((#489,#491,#492))
REPRESENTATION_CONTEXT('','3D')
);
#489=(
LENGTH_UNIT()
NAMED_UNIT(*)
SI_UNIT(.MILLI.,.METRE.)
);
#490=(
LENGTH_UNIT()
NAMED_UNIT(*)
SI_UNIT(.CENTI.,.METRE.)
);
#491=(
NAMED_UNIT(*)
PLANE_ANGLE_UNIT()
SI_UNIT($,.RADIAN.)
);
#492=(
NAMED_UNIT(*)
SI_UNIT($,.STERADIAN.)
SOLID_ANGLE_UNIT()
);
#493=SHAPE_DEFINITION_REPRESENTATION(#494,#495);
#494=PRODUCT_DEFINITION_SHAPE('',$,#497);
#495=SHAPE_REPRESENTATION('',(#297),#487);
#496=PRODUCT_DEFINITION_CONTEXT('part definition',#501,'design');
#497=PRODUCT_DEFINITION('DPSXX0000959','DPSXX0000959',#498,#496);
#498=PRODUCT_DEFINITION_FORMATION('C',$,#503);
#499=PRODUCT_RELATED_PRODUCT_CATEGORY('DPSXX0000959','DPSXX0000959',(#503));
#500=APPLICATION_PROTOCOL_DEFINITION('international standard',
'automotive_design',2009,#501);
#501=APPLICATION_CONTEXT(
'Core Data for Automotive Mechanical Design Process');
#502=PRODUCT_CONTEXT('part definition',#501,'mechanical');
#503=PRODUCT('DPSXX0000959','DPSXX0000959',
'PIATTO DI FISS. PALO 60X60 A TRAVERSA',(#502));
#504=PRESENTATION_STYLE_ASSIGNMENT((#505));
#505=SURFACE_STYLE_USAGE(.BOTH.,#508);
#506=SURFACE_STYLE_RENDERING_WITH_PROPERTIES($,#512,(#507));
#507=SURFACE_STYLE_TRANSPARENT(0.);
#508=SURFACE_SIDE_STYLE('',(#509,#506));
#509=SURFACE_STYLE_FILL_AREA(#510);
#510=FILL_AREA_STYLE('',(#511));
#511=FILL_AREA_STYLE_COLOUR('',#512);
#512=COLOUR_RGB('',0.83921568627451,0.886274509803922,0.854901960784314);
ENDSEC;
END-ISO-10303-21;
