ISO-10303-21;
HEADER;
/* Generated by software containing ST-Developer
 * from STEP Tools, Inc. (www.steptools.com) 
 */

FILE_DESCRIPTION(
/* description */ ('PIASTRA 80X80 SP.12 ALLUMINIO'),
/* implementation_level */ '2;1');

FILE_NAME(
/* name */ 
'C:\\Users\\tecnico7\\Desktop\\NUOVI DISEGNI 3D\\DPSXX0000376.stp',
/* time_stamp */ '2022-12-05T11:44:13+01:00',
/* author */ ('tecnico7'),
/* organization */ (''),
/* preprocessor_version */ 'ST-DEVELOPER v18.1',
/* originating_system */ 'Autodesk Inventor 2022',
/* authorisation */ '');

FILE_SCHEMA (('AUTOMOTIVE_DESIGN { 1 0 10303 214 3 1 1 }'));
ENDSEC;

DATA;
#10=MECHANICAL_DESIGN_GEOMETRIC_PRESENTATION_REPRESENTATION('',(#13),#567);
#11=SHAPE_REPRESENTATION_RELATIONSHIP('SRR','None',#574,#12);
#12=ADVANCED_BREP_SHAPE_REPRESENTATION('',(#14),#566);
#13=STYLED_ITEM('',(#583),#14);
#14=MANIFOLD_SOLID_BREP('Solido1',#322);
#15=LINE('',#488,#36);
#16=LINE('',#491,#37);
#17=LINE('',#501,#38);
#18=LINE('',#504,#39);
#19=LINE('',#514,#40);
#20=LINE('',#517,#41);
#21=LINE('',#527,#42);
#22=LINE('',#530,#43);
#23=LINE('',#536,#44);
#24=LINE('',#541,#45);
#25=LINE('',#543,#46);
#26=LINE('',#545,#47);
#27=LINE('',#546,#48);
#28=LINE('',#549,#49);
#29=LINE('',#551,#50);
#30=LINE('',#552,#51);
#31=LINE('',#555,#52);
#32=LINE('',#557,#53);
#33=LINE('',#558,#54);
#34=LINE('',#560,#55);
#35=LINE('',#561,#56);
#36=VECTOR('',#394,7.);
#37=VECTOR('',#397,4.5);
#38=VECTOR('',#410,7.);
#39=VECTOR('',#413,4.5);
#40=VECTOR('',#426,7.);
#41=VECTOR('',#429,4.5);
#42=VECTOR('',#442,7.);
#43=VECTOR('',#445,4.5);
#44=VECTOR('',#452,6.9175);
#45=VECTOR('',#457,10.);
#46=VECTOR('',#458,10.);
#47=VECTOR('',#459,10.);
#48=VECTOR('',#460,10.);
#49=VECTOR('',#463,10.);
#50=VECTOR('',#464,10.);
#51=VECTOR('',#465,10.);
#52=VECTOR('',#468,10.);
#53=VECTOR('',#469,10.);
#54=VECTOR('',#470,10.);
#55=VECTOR('',#473,10.);
#56=VECTOR('',#474,10.);
#57=CYLINDRICAL_SURFACE('',#348,7.);
#58=CYLINDRICAL_SURFACE('',#350,4.5);
#59=CYLINDRICAL_SURFACE('',#355,7.);
#60=CYLINDRICAL_SURFACE('',#357,4.5);
#61=CYLINDRICAL_SURFACE('',#362,7.);
#62=CYLINDRICAL_SURFACE('',#364,4.5);
#63=CYLINDRICAL_SURFACE('',#369,7.);
#64=CYLINDRICAL_SURFACE('',#371,4.5);
#65=CYLINDRICAL_SURFACE('',#373,6.9175);
#66=FACE_BOUND('',#100,.T.);
#67=FACE_BOUND('',#104,.T.);
#68=FACE_BOUND('',#108,.T.);
#69=FACE_BOUND('',#112,.T.);
#70=FACE_BOUND('',#121,.T.);
#71=FACE_BOUND('',#122,.T.);
#72=FACE_BOUND('',#123,.T.);
#73=FACE_BOUND('',#124,.T.);
#74=FACE_BOUND('',#125,.T.);
#75=FACE_BOUND('',#127,.T.);
#76=FACE_BOUND('',#128,.T.);
#77=FACE_BOUND('',#129,.T.);
#78=FACE_BOUND('',#130,.T.);
#79=FACE_BOUND('',#131,.T.);
#80=FACE_OUTER_BOUND('',#99,.T.);
#81=FACE_OUTER_BOUND('',#101,.T.);
#82=FACE_OUTER_BOUND('',#102,.T.);
#83=FACE_OUTER_BOUND('',#103,.T.);
#84=FACE_OUTER_BOUND('',#105,.T.);
#85=FACE_OUTER_BOUND('',#106,.T.);
#86=FACE_OUTER_BOUND('',#107,.T.);
#87=FACE_OUTER_BOUND('',#109,.T.);
#88=FACE_OUTER_BOUND('',#110,.T.);
#89=FACE_OUTER_BOUND('',#111,.T.);
#90=FACE_OUTER_BOUND('',#113,.T.);
#91=FACE_OUTER_BOUND('',#114,.T.);
#92=FACE_OUTER_BOUND('',#115,.T.);
#93=FACE_OUTER_BOUND('',#116,.T.);
#94=FACE_OUTER_BOUND('',#117,.T.);
#95=FACE_OUTER_BOUND('',#118,.T.);
#96=FACE_OUTER_BOUND('',#119,.T.);
#97=FACE_OUTER_BOUND('',#120,.T.);
#98=FACE_OUTER_BOUND('',#126,.T.);
#99=EDGE_LOOP('',(#215));
#100=EDGE_LOOP('',(#216));
#101=EDGE_LOOP('',(#217,#218,#219,#220));
#102=EDGE_LOOP('',(#221,#222,#223,#224));
#103=EDGE_LOOP('',(#225));
#104=EDGE_LOOP('',(#226));
#105=EDGE_LOOP('',(#227,#228,#229,#230));
#106=EDGE_LOOP('',(#231,#232,#233,#234));
#107=EDGE_LOOP('',(#235));
#108=EDGE_LOOP('',(#236));
#109=EDGE_LOOP('',(#237,#238,#239,#240));
#110=EDGE_LOOP('',(#241,#242,#243,#244));
#111=EDGE_LOOP('',(#245));
#112=EDGE_LOOP('',(#246));
#113=EDGE_LOOP('',(#247,#248,#249,#250));
#114=EDGE_LOOP('',(#251,#252,#253,#254));
#115=EDGE_LOOP('',(#255,#256,#257,#258));
#116=EDGE_LOOP('',(#259,#260,#261,#262));
#117=EDGE_LOOP('',(#263,#264,#265,#266));
#118=EDGE_LOOP('',(#267,#268,#269,#270));
#119=EDGE_LOOP('',(#271,#272,#273,#274));
#120=EDGE_LOOP('',(#275,#276,#277,#278));
#121=EDGE_LOOP('',(#279));
#122=EDGE_LOOP('',(#280));
#123=EDGE_LOOP('',(#281));
#124=EDGE_LOOP('',(#282));
#125=EDGE_LOOP('',(#283));
#126=EDGE_LOOP('',(#284,#285,#286,#287));
#127=EDGE_LOOP('',(#288));
#128=EDGE_LOOP('',(#289));
#129=EDGE_LOOP('',(#290));
#130=EDGE_LOOP('',(#291));
#131=EDGE_LOOP('',(#292));
#132=CIRCLE('',#346,7.);
#133=CIRCLE('',#347,4.5);
#134=CIRCLE('',#349,7.);
#135=CIRCLE('',#351,4.5);
#136=CIRCLE('',#353,7.);
#137=CIRCLE('',#354,4.5);
#138=CIRCLE('',#356,7.);
#139=CIRCLE('',#358,4.5);
#140=CIRCLE('',#360,7.);
#141=CIRCLE('',#361,4.5);
#142=CIRCLE('',#363,7.);
#143=CIRCLE('',#365,4.5);
#144=CIRCLE('',#367,7.);
#145=CIRCLE('',#368,4.5);
#146=CIRCLE('',#370,7.);
#147=CIRCLE('',#372,4.5);
#148=CIRCLE('',#374,6.9175);
#149=CIRCLE('',#375,6.9175);
#150=VERTEX_POINT('',#481);
#151=VERTEX_POINT('',#483);
#152=VERTEX_POINT('',#486);
#153=VERTEX_POINT('',#490);
#154=VERTEX_POINT('',#494);
#155=VERTEX_POINT('',#496);
#156=VERTEX_POINT('',#499);
#157=VERTEX_POINT('',#503);
#158=VERTEX_POINT('',#507);
#159=VERTEX_POINT('',#509);
#160=VERTEX_POINT('',#512);
#161=VERTEX_POINT('',#516);
#162=VERTEX_POINT('',#520);
#163=VERTEX_POINT('',#522);
#164=VERTEX_POINT('',#525);
#165=VERTEX_POINT('',#529);
#166=VERTEX_POINT('',#533);
#167=VERTEX_POINT('',#535);
#168=VERTEX_POINT('',#539);
#169=VERTEX_POINT('',#540);
#170=VERTEX_POINT('',#542);
#171=VERTEX_POINT('',#544);
#172=VERTEX_POINT('',#548);
#173=VERTEX_POINT('',#550);
#174=VERTEX_POINT('',#554);
#175=VERTEX_POINT('',#556);
#176=EDGE_CURVE('',#150,#150,#132,.T.);
#177=EDGE_CURVE('',#151,#151,#133,.T.);
#178=EDGE_CURVE('',#152,#152,#134,.T.);
#179=EDGE_CURVE('',#152,#150,#15,.T.);
#180=EDGE_CURVE('',#151,#153,#16,.T.);
#181=EDGE_CURVE('',#153,#153,#135,.T.);
#182=EDGE_CURVE('',#154,#154,#136,.T.);
#183=EDGE_CURVE('',#155,#155,#137,.T.);
#184=EDGE_CURVE('',#156,#156,#138,.T.);
#185=EDGE_CURVE('',#156,#154,#17,.T.);
#186=EDGE_CURVE('',#155,#157,#18,.T.);
#187=EDGE_CURVE('',#157,#157,#139,.T.);
#188=EDGE_CURVE('',#158,#158,#140,.T.);
#189=EDGE_CURVE('',#159,#159,#141,.T.);
#190=EDGE_CURVE('',#160,#160,#142,.T.);
#191=EDGE_CURVE('',#160,#158,#19,.T.);
#192=EDGE_CURVE('',#159,#161,#20,.T.);
#193=EDGE_CURVE('',#161,#161,#143,.T.);
#194=EDGE_CURVE('',#162,#162,#144,.T.);
#195=EDGE_CURVE('',#163,#163,#145,.T.);
#196=EDGE_CURVE('',#164,#164,#146,.T.);
#197=EDGE_CURVE('',#164,#162,#21,.T.);
#198=EDGE_CURVE('',#163,#165,#22,.T.);
#199=EDGE_CURVE('',#165,#165,#147,.T.);
#200=EDGE_CURVE('',#166,#166,#148,.T.);
#201=EDGE_CURVE('',#166,#167,#23,.T.);
#202=EDGE_CURVE('',#167,#167,#149,.T.);
#203=EDGE_CURVE('',#168,#169,#24,.T.);
#204=EDGE_CURVE('',#168,#170,#25,.T.);
#205=EDGE_CURVE('',#171,#170,#26,.T.);
#206=EDGE_CURVE('',#169,#171,#27,.T.);
#207=EDGE_CURVE('',#169,#172,#28,.T.);
#208=EDGE_CURVE('',#173,#171,#29,.T.);
#209=EDGE_CURVE('',#172,#173,#30,.T.);
#210=EDGE_CURVE('',#172,#174,#31,.T.);
#211=EDGE_CURVE('',#175,#173,#32,.T.);
#212=EDGE_CURVE('',#174,#175,#33,.T.);
#213=EDGE_CURVE('',#174,#168,#34,.T.);
#214=EDGE_CURVE('',#170,#175,#35,.T.);
#215=ORIENTED_EDGE('',*,*,#176,.T.);
#216=ORIENTED_EDGE('',*,*,#177,.F.);
#217=ORIENTED_EDGE('',*,*,#178,.F.);
#218=ORIENTED_EDGE('',*,*,#179,.T.);
#219=ORIENTED_EDGE('',*,*,#176,.F.);
#220=ORIENTED_EDGE('',*,*,#179,.F.);
#221=ORIENTED_EDGE('',*,*,#177,.T.);
#222=ORIENTED_EDGE('',*,*,#180,.T.);
#223=ORIENTED_EDGE('',*,*,#181,.F.);
#224=ORIENTED_EDGE('',*,*,#180,.F.);
#225=ORIENTED_EDGE('',*,*,#182,.T.);
#226=ORIENTED_EDGE('',*,*,#183,.F.);
#227=ORIENTED_EDGE('',*,*,#184,.F.);
#228=ORIENTED_EDGE('',*,*,#185,.T.);
#229=ORIENTED_EDGE('',*,*,#182,.F.);
#230=ORIENTED_EDGE('',*,*,#185,.F.);
#231=ORIENTED_EDGE('',*,*,#183,.T.);
#232=ORIENTED_EDGE('',*,*,#186,.T.);
#233=ORIENTED_EDGE('',*,*,#187,.F.);
#234=ORIENTED_EDGE('',*,*,#186,.F.);
#235=ORIENTED_EDGE('',*,*,#188,.T.);
#236=ORIENTED_EDGE('',*,*,#189,.F.);
#237=ORIENTED_EDGE('',*,*,#190,.F.);
#238=ORIENTED_EDGE('',*,*,#191,.T.);
#239=ORIENTED_EDGE('',*,*,#188,.F.);
#240=ORIENTED_EDGE('',*,*,#191,.F.);
#241=ORIENTED_EDGE('',*,*,#189,.T.);
#242=ORIENTED_EDGE('',*,*,#192,.T.);
#243=ORIENTED_EDGE('',*,*,#193,.F.);
#244=ORIENTED_EDGE('',*,*,#192,.F.);
#245=ORIENTED_EDGE('',*,*,#194,.T.);
#246=ORIENTED_EDGE('',*,*,#195,.F.);
#247=ORIENTED_EDGE('',*,*,#196,.F.);
#248=ORIENTED_EDGE('',*,*,#197,.T.);
#249=ORIENTED_EDGE('',*,*,#194,.F.);
#250=ORIENTED_EDGE('',*,*,#197,.F.);
#251=ORIENTED_EDGE('',*,*,#195,.T.);
#252=ORIENTED_EDGE('',*,*,#198,.T.);
#253=ORIENTED_EDGE('',*,*,#199,.F.);
#254=ORIENTED_EDGE('',*,*,#198,.F.);
#255=ORIENTED_EDGE('',*,*,#200,.F.);
#256=ORIENTED_EDGE('',*,*,#201,.T.);
#257=ORIENTED_EDGE('',*,*,#202,.F.);
#258=ORIENTED_EDGE('',*,*,#201,.F.);
#259=ORIENTED_EDGE('',*,*,#203,.F.);
#260=ORIENTED_EDGE('',*,*,#204,.T.);
#261=ORIENTED_EDGE('',*,*,#205,.F.);
#262=ORIENTED_EDGE('',*,*,#206,.F.);
#263=ORIENTED_EDGE('',*,*,#207,.F.);
#264=ORIENTED_EDGE('',*,*,#206,.T.);
#265=ORIENTED_EDGE('',*,*,#208,.F.);
#266=ORIENTED_EDGE('',*,*,#209,.F.);
#267=ORIENTED_EDGE('',*,*,#210,.F.);
#268=ORIENTED_EDGE('',*,*,#209,.T.);
#269=ORIENTED_EDGE('',*,*,#211,.F.);
#270=ORIENTED_EDGE('',*,*,#212,.F.);
#271=ORIENTED_EDGE('',*,*,#213,.F.);
#272=ORIENTED_EDGE('',*,*,#212,.T.);
#273=ORIENTED_EDGE('',*,*,#214,.F.);
#274=ORIENTED_EDGE('',*,*,#204,.F.);
#275=ORIENTED_EDGE('',*,*,#213,.T.);
#276=ORIENTED_EDGE('',*,*,#203,.T.);
#277=ORIENTED_EDGE('',*,*,#207,.T.);
#278=ORIENTED_EDGE('',*,*,#210,.T.);
#279=ORIENTED_EDGE('',*,*,#181,.T.);
#280=ORIENTED_EDGE('',*,*,#187,.T.);
#281=ORIENTED_EDGE('',*,*,#193,.T.);
#282=ORIENTED_EDGE('',*,*,#199,.T.);
#283=ORIENTED_EDGE('',*,*,#202,.T.);
#284=ORIENTED_EDGE('',*,*,#214,.T.);
#285=ORIENTED_EDGE('',*,*,#211,.T.);
#286=ORIENTED_EDGE('',*,*,#208,.T.);
#287=ORIENTED_EDGE('',*,*,#205,.T.);
#288=ORIENTED_EDGE('',*,*,#178,.T.);
#289=ORIENTED_EDGE('',*,*,#184,.T.);
#290=ORIENTED_EDGE('',*,*,#190,.T.);
#291=ORIENTED_EDGE('',*,*,#196,.T.);
#292=ORIENTED_EDGE('',*,*,#200,.T.);
#293=PLANE('',#345);
#294=PLANE('',#352);
#295=PLANE('',#359);
#296=PLANE('',#366);
#297=PLANE('',#376);
#298=PLANE('',#377);
#299=PLANE('',#378);
#300=PLANE('',#379);
#301=PLANE('',#380);
#302=PLANE('',#381);
#303=ADVANCED_FACE('',(#80,#66),#293,.T.);
#304=ADVANCED_FACE('',(#81),#57,.F.);
#305=ADVANCED_FACE('',(#82),#58,.F.);
#306=ADVANCED_FACE('',(#83,#67),#294,.T.);
#307=ADVANCED_FACE('',(#84),#59,.F.);
#308=ADVANCED_FACE('',(#85),#60,.F.);
#309=ADVANCED_FACE('',(#86,#68),#295,.T.);
#310=ADVANCED_FACE('',(#87),#61,.F.);
#311=ADVANCED_FACE('',(#88),#62,.F.);
#312=ADVANCED_FACE('',(#89,#69),#296,.T.);
#313=ADVANCED_FACE('',(#90),#63,.F.);
#314=ADVANCED_FACE('',(#91),#64,.F.);
#315=ADVANCED_FACE('',(#92),#65,.F.);
#316=ADVANCED_FACE('',(#93),#297,.T.);
#317=ADVANCED_FACE('',(#94),#298,.T.);
#318=ADVANCED_FACE('',(#95),#299,.T.);
#319=ADVANCED_FACE('',(#96),#300,.T.);
#320=ADVANCED_FACE('',(#97,#70,#71,#72,#73,#74),#301,.F.);
#321=ADVANCED_FACE('',(#98,#75,#76,#77,#78,#79),#302,.T.);
#322=CLOSED_SHELL('',(#303,#304,#305,#306,#307,#308,#309,#310,#311,#312,
#313,#314,#315,#316,#317,#318,#319,#320,#321));
#323=DERIVED_UNIT_ELEMENT(#326,1.);
#324=DERIVED_UNIT_ELEMENT(#569,-3.);
#325=DIMENSIONAL_EXPONENTS(1.,0.,0.,0.,0.,0.,0.);
#326=(
CONVERSION_BASED_UNIT('gram',#328)
MASS_UNIT()
NAMED_UNIT(#325)
);
#327=(
MASS_UNIT()
NAMED_UNIT(*)
SI_UNIT(.KILO.,.GRAM.)
);
#328=MASS_MEASURE_WITH_UNIT(MASS_MEASURE(0.001),#327);
#329=DERIVED_UNIT((#323,#324));
#330=MEASURE_REPRESENTATION_ITEM('density measure',
POSITIVE_RATIO_MEASURE(2.71),#329);
#331=PROPERTY_DEFINITION_REPRESENTATION(#336,#333);
#332=PROPERTY_DEFINITION_REPRESENTATION(#337,#334);
#333=REPRESENTATION('material name',(#335),#566);
#334=REPRESENTATION('density',(#330),#566);
#335=DESCRIPTIVE_REPRESENTATION_ITEM('ALLUMINIO','ALLUMINIO');
#336=PROPERTY_DEFINITION('material property','material name',#576);
#337=PROPERTY_DEFINITION('material property','density of part',#576);
#338=DATE_TIME_ROLE('creation_date');
#339=APPLIED_DATE_AND_TIME_ASSIGNMENT(#340,#338,(#576));
#340=DATE_AND_TIME(#341,#342);
#341=CALENDAR_DATE(2014,7,8);
#342=LOCAL_TIME(0,0,0.,#343);
#343=COORDINATED_UNIVERSAL_TIME_OFFSET(0,0,.BEHIND.);
#344=AXIS2_PLACEMENT_3D('placement',#479,#382,#383);
#345=AXIS2_PLACEMENT_3D('',#480,#384,#385);
#346=AXIS2_PLACEMENT_3D('',#482,#386,#387);
#347=AXIS2_PLACEMENT_3D('',#484,#388,#389);
#348=AXIS2_PLACEMENT_3D('',#485,#390,#391);
#349=AXIS2_PLACEMENT_3D('',#487,#392,#393);
#350=AXIS2_PLACEMENT_3D('',#489,#395,#396);
#351=AXIS2_PLACEMENT_3D('',#492,#398,#399);
#352=AXIS2_PLACEMENT_3D('',#493,#400,#401);
#353=AXIS2_PLACEMENT_3D('',#495,#402,#403);
#354=AXIS2_PLACEMENT_3D('',#497,#404,#405);
#355=AXIS2_PLACEMENT_3D('',#498,#406,#407);
#356=AXIS2_PLACEMENT_3D('',#500,#408,#409);
#357=AXIS2_PLACEMENT_3D('',#502,#411,#412);
#358=AXIS2_PLACEMENT_3D('',#505,#414,#415);
#359=AXIS2_PLACEMENT_3D('',#506,#416,#417);
#360=AXIS2_PLACEMENT_3D('',#508,#418,#419);
#361=AXIS2_PLACEMENT_3D('',#510,#420,#421);
#362=AXIS2_PLACEMENT_3D('',#511,#422,#423);
#363=AXIS2_PLACEMENT_3D('',#513,#424,#425);
#364=AXIS2_PLACEMENT_3D('',#515,#427,#428);
#365=AXIS2_PLACEMENT_3D('',#518,#430,#431);
#366=AXIS2_PLACEMENT_3D('',#519,#432,#433);
#367=AXIS2_PLACEMENT_3D('',#521,#434,#435);
#368=AXIS2_PLACEMENT_3D('',#523,#436,#437);
#369=AXIS2_PLACEMENT_3D('',#524,#438,#439);
#370=AXIS2_PLACEMENT_3D('',#526,#440,#441);
#371=AXIS2_PLACEMENT_3D('',#528,#443,#444);
#372=AXIS2_PLACEMENT_3D('',#531,#446,#447);
#373=AXIS2_PLACEMENT_3D('',#532,#448,#449);
#374=AXIS2_PLACEMENT_3D('',#534,#450,#451);
#375=AXIS2_PLACEMENT_3D('',#537,#453,#454);
#376=AXIS2_PLACEMENT_3D('',#538,#455,#456);
#377=AXIS2_PLACEMENT_3D('',#547,#461,#462);
#378=AXIS2_PLACEMENT_3D('',#553,#466,#467);
#379=AXIS2_PLACEMENT_3D('',#559,#471,#472);
#380=AXIS2_PLACEMENT_3D('',#562,#475,#476);
#381=AXIS2_PLACEMENT_3D('',#563,#477,#478);
#382=DIRECTION('axis',(0.,0.,1.));
#383=DIRECTION('refdir',(1.,0.,0.));
#384=DIRECTION('center_axis',(0.,1.,0.));
#385=DIRECTION('ref_axis',(1.,0.,0.));
#386=DIRECTION('center_axis',(0.,1.,0.));
#387=DIRECTION('ref_axis',(1.,0.,0.));
#388=DIRECTION('center_axis',(0.,1.,0.));
#389=DIRECTION('ref_axis',(1.,0.,0.));
#390=DIRECTION('center_axis',(0.,1.,0.));
#391=DIRECTION('ref_axis',(1.,0.,0.));
#392=DIRECTION('center_axis',(0.,-1.,0.));
#393=DIRECTION('ref_axis',(1.,0.,0.));
#394=DIRECTION('',(0.,-1.,0.));
#395=DIRECTION('center_axis',(0.,1.,0.));
#396=DIRECTION('ref_axis',(1.,0.,0.));
#397=DIRECTION('',(0.,-1.,0.));
#398=DIRECTION('center_axis',(0.,1.,0.));
#399=DIRECTION('ref_axis',(1.,0.,0.));
#400=DIRECTION('center_axis',(0.,1.,0.));
#401=DIRECTION('ref_axis',(1.,0.,0.));
#402=DIRECTION('center_axis',(0.,1.,0.));
#403=DIRECTION('ref_axis',(1.,0.,0.));
#404=DIRECTION('center_axis',(0.,1.,0.));
#405=DIRECTION('ref_axis',(1.,0.,0.));
#406=DIRECTION('center_axis',(0.,1.,0.));
#407=DIRECTION('ref_axis',(1.,0.,0.));
#408=DIRECTION('center_axis',(0.,-1.,0.));
#409=DIRECTION('ref_axis',(1.,0.,0.));
#410=DIRECTION('',(0.,-1.,0.));
#411=DIRECTION('center_axis',(0.,1.,0.));
#412=DIRECTION('ref_axis',(1.,0.,0.));
#413=DIRECTION('',(0.,-1.,0.));
#414=DIRECTION('center_axis',(0.,1.,0.));
#415=DIRECTION('ref_axis',(1.,0.,0.));
#416=DIRECTION('center_axis',(0.,1.,0.));
#417=DIRECTION('ref_axis',(1.,0.,0.));
#418=DIRECTION('center_axis',(0.,1.,0.));
#419=DIRECTION('ref_axis',(1.,0.,0.));
#420=DIRECTION('center_axis',(0.,1.,0.));
#421=DIRECTION('ref_axis',(1.,0.,0.));
#422=DIRECTION('center_axis',(0.,1.,0.));
#423=DIRECTION('ref_axis',(1.,0.,0.));
#424=DIRECTION('center_axis',(0.,-1.,0.));
#425=DIRECTION('ref_axis',(1.,0.,0.));
#426=DIRECTION('',(0.,-1.,0.));
#427=DIRECTION('center_axis',(0.,1.,0.));
#428=DIRECTION('ref_axis',(1.,0.,0.));
#429=DIRECTION('',(0.,-1.,0.));
#430=DIRECTION('center_axis',(0.,1.,0.));
#431=DIRECTION('ref_axis',(1.,0.,0.));
#432=DIRECTION('center_axis',(0.,1.,0.));
#433=DIRECTION('ref_axis',(1.,0.,0.));
#434=DIRECTION('center_axis',(0.,1.,0.));
#435=DIRECTION('ref_axis',(1.,0.,0.));
#436=DIRECTION('center_axis',(0.,1.,0.));
#437=DIRECTION('ref_axis',(1.,0.,0.));
#438=DIRECTION('center_axis',(0.,1.,0.));
#439=DIRECTION('ref_axis',(1.,0.,0.));
#440=DIRECTION('center_axis',(0.,-1.,0.));
#441=DIRECTION('ref_axis',(1.,0.,0.));
#442=DIRECTION('',(0.,-1.,0.));
#443=DIRECTION('center_axis',(0.,1.,0.));
#444=DIRECTION('ref_axis',(1.,0.,0.));
#445=DIRECTION('',(0.,-1.,0.));
#446=DIRECTION('center_axis',(0.,1.,0.));
#447=DIRECTION('ref_axis',(1.,0.,0.));
#448=DIRECTION('center_axis',(0.,1.,0.));
#449=DIRECTION('ref_axis',(1.,0.,0.));
#450=DIRECTION('center_axis',(0.,-1.,0.));
#451=DIRECTION('ref_axis',(1.,0.,0.));
#452=DIRECTION('',(0.,-1.,0.));
#453=DIRECTION('center_axis',(0.,1.,0.));
#454=DIRECTION('ref_axis',(1.,0.,0.));
#455=DIRECTION('center_axis',(-1.,0.,0.));
#456=DIRECTION('ref_axis',(0.,0.,1.));
#457=DIRECTION('',(0.,0.,-1.));
#458=DIRECTION('',(0.,1.,0.));
#459=DIRECTION('',(0.,0.,1.));
#460=DIRECTION('',(0.,1.,0.));
#461=DIRECTION('center_axis',(0.,0.,-1.));
#462=DIRECTION('ref_axis',(-1.,0.,0.));
#463=DIRECTION('',(1.,0.,0.));
#464=DIRECTION('',(-1.,0.,0.));
#465=DIRECTION('',(0.,1.,0.));
#466=DIRECTION('center_axis',(1.,0.,0.));
#467=DIRECTION('ref_axis',(0.,0.,-1.));
#468=DIRECTION('',(0.,0.,1.));
#469=DIRECTION('',(0.,0.,-1.));
#470=DIRECTION('',(0.,1.,0.));
#471=DIRECTION('center_axis',(0.,0.,1.));
#472=DIRECTION('ref_axis',(1.,0.,0.));
#473=DIRECTION('',(-1.,0.,0.));
#474=DIRECTION('',(1.,0.,0.));
#475=DIRECTION('center_axis',(0.,1.,0.));
#476=DIRECTION('ref_axis',(0.,0.,1.));
#477=DIRECTION('center_axis',(0.,1.,0.));
#478=DIRECTION('ref_axis',(0.,0.,1.));
#479=CARTESIAN_POINT('',(0.,0.,0.));
#480=CARTESIAN_POINT('Origin',(20.,4.,20.));
#481=CARTESIAN_POINT('',(13.,4.,20.));
#482=CARTESIAN_POINT('Origin',(20.,4.,20.));
#483=CARTESIAN_POINT('',(15.5,3.99999999999999,20.));
#484=CARTESIAN_POINT('Origin',(20.,3.99999999999999,20.));
#485=CARTESIAN_POINT('Origin',(20.,8.,20.));
#486=CARTESIAN_POINT('',(13.,12.,20.));
#487=CARTESIAN_POINT('Origin',(20.,12.,20.));
#488=CARTESIAN_POINT('',(13.,8.,20.));
#489=CARTESIAN_POINT('Origin',(20.,-101.771701226623,20.));
#490=CARTESIAN_POINT('',(15.5,0.,20.));
#491=CARTESIAN_POINT('',(15.5,-101.771701226623,20.));
#492=CARTESIAN_POINT('Origin',(20.,0.,20.));
#493=CARTESIAN_POINT('Origin',(-20.,4.,-20.));
#494=CARTESIAN_POINT('',(-27.,4.,-20.));
#495=CARTESIAN_POINT('Origin',(-20.,4.,-20.));
#496=CARTESIAN_POINT('',(-24.5,3.99999999999999,-20.));
#497=CARTESIAN_POINT('Origin',(-20.,3.99999999999999,-20.));
#498=CARTESIAN_POINT('Origin',(-20.,8.,-20.));
#499=CARTESIAN_POINT('',(-27.,12.,-20.));
#500=CARTESIAN_POINT('Origin',(-20.,12.,-20.));
#501=CARTESIAN_POINT('',(-27.,8.,-20.));
#502=CARTESIAN_POINT('Origin',(-20.,-101.771701226623,-20.));
#503=CARTESIAN_POINT('',(-24.5,0.,-20.));
#504=CARTESIAN_POINT('',(-24.5,-101.771701226623,-20.));
#505=CARTESIAN_POINT('Origin',(-20.,0.,-20.));
#506=CARTESIAN_POINT('Origin',(20.,4.,-20.));
#507=CARTESIAN_POINT('',(13.,4.,-20.));
#508=CARTESIAN_POINT('Origin',(20.,4.,-20.));
#509=CARTESIAN_POINT('',(15.5,3.99999999999999,-20.));
#510=CARTESIAN_POINT('Origin',(20.,3.99999999999999,-20.));
#511=CARTESIAN_POINT('Origin',(20.,8.,-20.));
#512=CARTESIAN_POINT('',(13.,12.,-20.));
#513=CARTESIAN_POINT('Origin',(20.,12.,-20.));
#514=CARTESIAN_POINT('',(13.,8.,-20.));
#515=CARTESIAN_POINT('Origin',(20.,-101.771701226623,-20.));
#516=CARTESIAN_POINT('',(15.5,0.,-20.));
#517=CARTESIAN_POINT('',(15.5,-101.771701226623,-20.));
#518=CARTESIAN_POINT('Origin',(20.,0.,-20.));
#519=CARTESIAN_POINT('Origin',(-20.,4.,20.));
#520=CARTESIAN_POINT('',(-27.,4.,20.));
#521=CARTESIAN_POINT('Origin',(-20.,4.,20.));
#522=CARTESIAN_POINT('',(-24.5,3.99999999999999,20.));
#523=CARTESIAN_POINT('Origin',(-20.,3.99999999999999,20.));
#524=CARTESIAN_POINT('Origin',(-20.,8.,20.));
#525=CARTESIAN_POINT('',(-27.,12.,20.));
#526=CARTESIAN_POINT('Origin',(-20.,12.,20.));
#527=CARTESIAN_POINT('',(-27.,8.,20.));
#528=CARTESIAN_POINT('Origin',(-20.,-101.771701226623,20.));
#529=CARTESIAN_POINT('',(-24.5,0.,20.));
#530=CARTESIAN_POINT('',(-24.5,-101.771701226623,20.));
#531=CARTESIAN_POINT('Origin',(-20.,0.,20.));
#532=CARTESIAN_POINT('Origin',(0.,-101.771701226623,0.));
#533=CARTESIAN_POINT('',(-6.9175,12.,8.47149423310182E-16));
#534=CARTESIAN_POINT('Origin',(0.,12.,0.));
#535=CARTESIAN_POINT('',(-6.9175,0.,8.47149423310182E-16));
#536=CARTESIAN_POINT('',(-6.9175,-101.771701226623,8.47149423310182E-16));
#537=CARTESIAN_POINT('Origin',(0.,0.,0.));
#538=CARTESIAN_POINT('Origin',(-40.,0.,-40.));
#539=CARTESIAN_POINT('',(-40.,0.,40.));
#540=CARTESIAN_POINT('',(-40.,0.,-40.));
#541=CARTESIAN_POINT('',(-40.,0.,40.));
#542=CARTESIAN_POINT('',(-40.,12.,40.));
#543=CARTESIAN_POINT('',(-40.,0.,40.));
#544=CARTESIAN_POINT('',(-40.,12.,-40.));
#545=CARTESIAN_POINT('',(-40.,12.,40.));
#546=CARTESIAN_POINT('',(-40.,0.,-40.));
#547=CARTESIAN_POINT('Origin',(40.,0.,-40.));
#548=CARTESIAN_POINT('',(40.,0.,-40.));
#549=CARTESIAN_POINT('',(-40.,0.,-40.));
#550=CARTESIAN_POINT('',(40.,12.,-40.));
#551=CARTESIAN_POINT('',(-40.,12.,-40.));
#552=CARTESIAN_POINT('',(40.,0.,-40.));
#553=CARTESIAN_POINT('Origin',(40.,0.,40.));
#554=CARTESIAN_POINT('',(40.,0.,40.));
#555=CARTESIAN_POINT('',(40.,0.,-40.));
#556=CARTESIAN_POINT('',(40.,12.,40.));
#557=CARTESIAN_POINT('',(40.,12.,-40.));
#558=CARTESIAN_POINT('',(40.,0.,40.));
#559=CARTESIAN_POINT('Origin',(-40.,0.,40.));
#560=CARTESIAN_POINT('',(40.,0.,40.));
#561=CARTESIAN_POINT('',(40.,12.,40.));
#562=CARTESIAN_POINT('Origin',(0.,0.,0.));
#563=CARTESIAN_POINT('Origin',(0.,12.,0.));
#564=UNCERTAINTY_MEASURE_WITH_UNIT(LENGTH_MEASURE(0.01),#568,
'DISTANCE_ACCURACY_VALUE',
'Maximum model space distance between geometric entities at asserted c
onnectivities');
#565=UNCERTAINTY_MEASURE_WITH_UNIT(LENGTH_MEASURE(0.01),#568,
'DISTANCE_ACCURACY_VALUE',
'Maximum model space distance between geometric entities at asserted c
onnectivities');
#566=(
GEOMETRIC_REPRESENTATION_CONTEXT(3)
GLOBAL_UNCERTAINTY_ASSIGNED_CONTEXT((#564))
GLOBAL_UNIT_ASSIGNED_CONTEXT((#568,#570,#571))
REPRESENTATION_CONTEXT('','3D')
);
#567=(
GEOMETRIC_REPRESENTATION_CONTEXT(3)
GLOBAL_UNCERTAINTY_ASSIGNED_CONTEXT((#565))
GLOBAL_UNIT_ASSIGNED_CONTEXT((#568,#570,#571))
REPRESENTATION_CONTEXT('','3D')
);
#568=(
LENGTH_UNIT()
NAMED_UNIT(*)
SI_UNIT(.MILLI.,.METRE.)
);
#569=(
LENGTH_UNIT()
NAMED_UNIT(*)
SI_UNIT(.CENTI.,.METRE.)
);
#570=(
NAMED_UNIT(*)
PLANE_ANGLE_UNIT()
SI_UNIT($,.RADIAN.)
);
#571=(
NAMED_UNIT(*)
SI_UNIT($,.STERADIAN.)
SOLID_ANGLE_UNIT()
);
#572=SHAPE_DEFINITION_REPRESENTATION(#573,#574);
#573=PRODUCT_DEFINITION_SHAPE('',$,#576);
#574=SHAPE_REPRESENTATION('',(#344),#566);
#575=PRODUCT_DEFINITION_CONTEXT('part definition',#580,'design');
#576=PRODUCT_DEFINITION('DPSXX0000376','DPSXX0000376',#577,#575);
#577=PRODUCT_DEFINITION_FORMATION('A',$,#582);
#578=PRODUCT_RELATED_PRODUCT_CATEGORY('DPSXX0000376','DPSXX0000376',(#582));
#579=APPLICATION_PROTOCOL_DEFINITION('international standard',
'automotive_design',2009,#580);
#580=APPLICATION_CONTEXT(
'Core Data for Automotive Mechanical Design Process');
#581=PRODUCT_CONTEXT('part definition',#580,'mechanical');
#582=PRODUCT('DPSXX0000376','DPSXX0000376',
'PIASTRA 80X80 SP.12 ALLUMINIO',(#581));
#583=PRESENTATION_STYLE_ASSIGNMENT((#584));
#584=SURFACE_STYLE_USAGE(.BOTH.,#587);
#585=SURFACE_STYLE_RENDERING_WITH_PROPERTIES($,#591,(#586));
#586=SURFACE_STYLE_TRANSPARENT(0.);
#587=SURFACE_SIDE_STYLE('',(#588,#585));
#588=SURFACE_STYLE_FILL_AREA(#589);
#589=FILL_AREA_STYLE('',(#590));
#590=FILL_AREA_STYLE_COLOUR('',#591);
#591=COLOUR_RGB('',0.752941176470588,0.752941176470588,0.752941176470588);
ENDSEC;
END-ISO-10303-21;
