ISO-10303-21;
HEADER;
/* Generated by software containing ST-Developer
 * from STEP Tools, Inc. (www.steptools.com) 
 */

FILE_DESCRIPTION(
/* description */ ('PIASTRA 120X80 SP.12 ALLUMINIO'),
/* implementation_level */ '2;1');

FILE_NAME(
/* name */ 
'C:\\Users\\tecnico7\\Desktop\\NUOVI DISEGNI 3D\\DPSXX0000365.stp',
/* time_stamp */ '2022-11-22T09:53:58+01:00',
/* author */ ('tecnico7'),
/* organization */ (''),
/* preprocessor_version */ 'ST-DEVELOPER v18.1',
/* originating_system */ 'Autodesk Inventor 2022',
/* authorisation */ '');

FILE_SCHEMA (('AUTOMOTIVE_DESIGN { 1 0 10303 214 3 1 1 }'));
ENDSEC;

DATA;
#10=MECHANICAL_DESIGN_GEOMETRIC_PRESENTATION_REPRESENTATION('',(#13),#567);
#11=SHAPE_REPRESENTATION_RELATIONSHIP('SRR','None',#574,#12);
#12=ADVANCED_BREP_SHAPE_REPRESENTATION('',(#14),#566);
#13=STYLED_ITEM('',(#583),#14);
#14=MANIFOLD_SOLID_BREP('None',#322);
#15=CYLINDRICAL_SURFACE('',#361,8.);
#16=CYLINDRICAL_SURFACE('',#362,4.25);
#17=CYLINDRICAL_SURFACE('',#366,7.);
#18=CYLINDRICAL_SURFACE('',#367,4.25);
#19=CYLINDRICAL_SURFACE('',#371,7.);
#20=CYLINDRICAL_SURFACE('',#372,4.25);
#21=CYLINDRICAL_SURFACE('',#376,7.);
#22=CYLINDRICAL_SURFACE('',#377,4.25);
#23=CYLINDRICAL_SURFACE('',#381,7.);
#24=FACE_BOUND('',#80,.T.);
#25=FACE_BOUND('',#81,.T.);
#26=FACE_BOUND('',#82,.T.);
#27=FACE_BOUND('',#83,.T.);
#28=FACE_BOUND('',#84,.T.);
#29=FACE_BOUND('',#86,.T.);
#30=FACE_BOUND('',#87,.T.);
#31=FACE_BOUND('',#88,.T.);
#32=FACE_BOUND('',#89,.T.);
#33=FACE_BOUND('',#90,.T.);
#34=FACE_BOUND('',#94,.T.);
#35=FACE_BOUND('',#98,.T.);
#36=FACE_BOUND('',#102,.T.);
#37=FACE_BOUND('',#106,.T.);
#38=CIRCLE('',#350,8.);
#39=CIRCLE('',#351,7.);
#40=CIRCLE('',#352,7.);
#41=CIRCLE('',#353,7.);
#42=CIRCLE('',#354,7.);
#43=CIRCLE('',#356,8.);
#44=CIRCLE('',#357,4.25);
#45=CIRCLE('',#358,4.25);
#46=CIRCLE('',#359,4.25);
#47=CIRCLE('',#360,4.25);
#48=CIRCLE('',#363,4.25);
#49=CIRCLE('',#365,7.);
#50=CIRCLE('',#368,4.25);
#51=CIRCLE('',#370,7.);
#52=CIRCLE('',#373,4.25);
#53=CIRCLE('',#375,7.);
#54=CIRCLE('',#378,4.25);
#55=CIRCLE('',#380,7.);
#56=FACE_OUTER_BOUND('',#75,.T.);
#57=FACE_OUTER_BOUND('',#76,.T.);
#58=FACE_OUTER_BOUND('',#77,.T.);
#59=FACE_OUTER_BOUND('',#78,.T.);
#60=FACE_OUTER_BOUND('',#79,.T.);
#61=FACE_OUTER_BOUND('',#85,.T.);
#62=FACE_OUTER_BOUND('',#91,.T.);
#63=FACE_OUTER_BOUND('',#92,.T.);
#64=FACE_OUTER_BOUND('',#93,.T.);
#65=FACE_OUTER_BOUND('',#95,.T.);
#66=FACE_OUTER_BOUND('',#96,.T.);
#67=FACE_OUTER_BOUND('',#97,.T.);
#68=FACE_OUTER_BOUND('',#99,.T.);
#69=FACE_OUTER_BOUND('',#100,.T.);
#70=FACE_OUTER_BOUND('',#101,.T.);
#71=FACE_OUTER_BOUND('',#103,.T.);
#72=FACE_OUTER_BOUND('',#104,.T.);
#73=FACE_OUTER_BOUND('',#105,.T.);
#74=FACE_OUTER_BOUND('',#107,.T.);
#75=EDGE_LOOP('',(#215,#216,#217,#218));
#76=EDGE_LOOP('',(#219,#220,#221,#222));
#77=EDGE_LOOP('',(#223,#224,#225,#226));
#78=EDGE_LOOP('',(#227,#228,#229,#230));
#79=EDGE_LOOP('',(#231,#232,#233,#234));
#80=EDGE_LOOP('',(#235));
#81=EDGE_LOOP('',(#236));
#82=EDGE_LOOP('',(#237));
#83=EDGE_LOOP('',(#238));
#84=EDGE_LOOP('',(#239));
#85=EDGE_LOOP('',(#240,#241,#242,#243));
#86=EDGE_LOOP('',(#244));
#87=EDGE_LOOP('',(#245));
#88=EDGE_LOOP('',(#246));
#89=EDGE_LOOP('',(#247));
#90=EDGE_LOOP('',(#248));
#91=EDGE_LOOP('',(#249,#250,#251,#252));
#92=EDGE_LOOP('',(#253,#254,#255,#256));
#93=EDGE_LOOP('',(#257));
#94=EDGE_LOOP('',(#258));
#95=EDGE_LOOP('',(#259,#260,#261,#262));
#96=EDGE_LOOP('',(#263,#264,#265,#266));
#97=EDGE_LOOP('',(#267));
#98=EDGE_LOOP('',(#268));
#99=EDGE_LOOP('',(#269,#270,#271,#272));
#100=EDGE_LOOP('',(#273,#274,#275,#276));
#101=EDGE_LOOP('',(#277));
#102=EDGE_LOOP('',(#278));
#103=EDGE_LOOP('',(#279,#280,#281,#282));
#104=EDGE_LOOP('',(#283,#284,#285,#286));
#105=EDGE_LOOP('',(#287));
#106=EDGE_LOOP('',(#288));
#107=EDGE_LOOP('',(#289,#290,#291,#292));
#108=LINE('',#483,#129);
#109=LINE('',#485,#130);
#110=LINE('',#487,#131);
#111=LINE('',#488,#132);
#112=LINE('',#491,#133);
#113=LINE('',#493,#134);
#114=LINE('',#494,#135);
#115=LINE('',#497,#136);
#116=LINE('',#499,#137);
#117=LINE('',#500,#138);
#118=LINE('',#502,#139);
#119=LINE('',#503,#140);
#120=LINE('',#527,#141);
#121=LINE('',#530,#142);
#122=LINE('',#536,#143);
#123=LINE('',#539,#144);
#124=LINE('',#545,#145);
#125=LINE('',#548,#146);
#126=LINE('',#554,#147);
#127=LINE('',#557,#148);
#128=LINE('',#563,#149);
#129=VECTOR('',#386,12.);
#130=VECTOR('',#387,79.9999822396799);
#131=VECTOR('',#388,12.);
#132=VECTOR('',#389,79.9999822396799);
#133=VECTOR('',#392,119.99997335952);
#134=VECTOR('',#393,12.);
#135=VECTOR('',#394,119.99997335952);
#136=VECTOR('',#397,79.9999822396799);
#137=VECTOR('',#398,12.);
#138=VECTOR('',#399,79.9999822396799);
#139=VECTOR('',#402,119.99997335952);
#140=VECTOR('',#403,119.99997335952);
#141=VECTOR('',#430,7.);
#142=VECTOR('',#433,4.25);
#143=VECTOR('',#442,7.);
#144=VECTOR('',#445,4.25);
#145=VECTOR('',#454,7.);
#146=VECTOR('',#457,4.25);
#147=VECTOR('',#466,7.);
#148=VECTOR('',#469,4.25);
#149=VECTOR('',#478,7.);
#150=VERTEX_POINT('',#481);
#151=VERTEX_POINT('',#482);
#152=VERTEX_POINT('',#484);
#153=VERTEX_POINT('',#486);
#154=VERTEX_POINT('',#490);
#155=VERTEX_POINT('',#492);
#156=VERTEX_POINT('',#496);
#157=VERTEX_POINT('',#498);
#158=VERTEX_POINT('',#505);
#159=VERTEX_POINT('',#507);
#160=VERTEX_POINT('',#509);
#161=VERTEX_POINT('',#511);
#162=VERTEX_POINT('',#513);
#163=VERTEX_POINT('',#516);
#164=VERTEX_POINT('',#518);
#165=VERTEX_POINT('',#520);
#166=VERTEX_POINT('',#522);
#167=VERTEX_POINT('',#524);
#168=VERTEX_POINT('',#529);
#169=VERTEX_POINT('',#533);
#170=VERTEX_POINT('',#538);
#171=VERTEX_POINT('',#542);
#172=VERTEX_POINT('',#547);
#173=VERTEX_POINT('',#551);
#174=VERTEX_POINT('',#556);
#175=VERTEX_POINT('',#560);
#176=EDGE_CURVE('',#150,#151,#108,.T.);
#177=EDGE_CURVE('',#151,#152,#109,.T.);
#178=EDGE_CURVE('',#153,#152,#110,.T.);
#179=EDGE_CURVE('',#150,#153,#111,.T.);
#180=EDGE_CURVE('',#152,#154,#112,.T.);
#181=EDGE_CURVE('',#155,#154,#113,.T.);
#182=EDGE_CURVE('',#153,#155,#114,.T.);
#183=EDGE_CURVE('',#154,#156,#115,.T.);
#184=EDGE_CURVE('',#157,#156,#116,.T.);
#185=EDGE_CURVE('',#155,#157,#117,.T.);
#186=EDGE_CURVE('',#156,#151,#118,.T.);
#187=EDGE_CURVE('',#157,#150,#119,.T.);
#188=EDGE_CURVE('',#158,#158,#38,.F.);
#189=EDGE_CURVE('',#159,#159,#39,.T.);
#190=EDGE_CURVE('',#160,#160,#40,.T.);
#191=EDGE_CURVE('',#161,#161,#41,.T.);
#192=EDGE_CURVE('',#162,#162,#42,.T.);
#193=EDGE_CURVE('',#163,#163,#43,.T.);
#194=EDGE_CURVE('',#164,#164,#44,.T.);
#195=EDGE_CURVE('',#165,#165,#45,.T.);
#196=EDGE_CURVE('',#166,#166,#46,.T.);
#197=EDGE_CURVE('',#167,#167,#47,.T.);
#198=EDGE_CURVE('',#163,#158,#120,.T.);
#199=EDGE_CURVE('',#164,#168,#121,.T.);
#200=EDGE_CURVE('',#168,#168,#48,.T.);
#201=EDGE_CURVE('',#169,#169,#49,.T.);
#202=EDGE_CURVE('',#169,#159,#122,.T.);
#203=EDGE_CURVE('',#165,#170,#123,.T.);
#204=EDGE_CURVE('',#170,#170,#50,.T.);
#205=EDGE_CURVE('',#171,#171,#51,.T.);
#206=EDGE_CURVE('',#171,#160,#124,.T.);
#207=EDGE_CURVE('',#166,#172,#125,.T.);
#208=EDGE_CURVE('',#172,#172,#52,.T.);
#209=EDGE_CURVE('',#173,#173,#53,.T.);
#210=EDGE_CURVE('',#173,#161,#126,.T.);
#211=EDGE_CURVE('',#167,#174,#127,.T.);
#212=EDGE_CURVE('',#174,#174,#54,.T.);
#213=EDGE_CURVE('',#175,#175,#55,.T.);
#214=EDGE_CURVE('',#175,#162,#128,.T.);
#215=ORIENTED_EDGE('',*,*,#176,.T.);
#216=ORIENTED_EDGE('',*,*,#177,.T.);
#217=ORIENTED_EDGE('',*,*,#178,.F.);
#218=ORIENTED_EDGE('',*,*,#179,.F.);
#219=ORIENTED_EDGE('',*,*,#178,.T.);
#220=ORIENTED_EDGE('',*,*,#180,.T.);
#221=ORIENTED_EDGE('',*,*,#181,.F.);
#222=ORIENTED_EDGE('',*,*,#182,.F.);
#223=ORIENTED_EDGE('',*,*,#181,.T.);
#224=ORIENTED_EDGE('',*,*,#183,.T.);
#225=ORIENTED_EDGE('',*,*,#184,.F.);
#226=ORIENTED_EDGE('',*,*,#185,.F.);
#227=ORIENTED_EDGE('',*,*,#184,.T.);
#228=ORIENTED_EDGE('',*,*,#186,.T.);
#229=ORIENTED_EDGE('',*,*,#176,.F.);
#230=ORIENTED_EDGE('',*,*,#187,.F.);
#231=ORIENTED_EDGE('',*,*,#179,.T.);
#232=ORIENTED_EDGE('',*,*,#182,.T.);
#233=ORIENTED_EDGE('',*,*,#185,.T.);
#234=ORIENTED_EDGE('',*,*,#187,.T.);
#235=ORIENTED_EDGE('',*,*,#188,.F.);
#236=ORIENTED_EDGE('',*,*,#189,.F.);
#237=ORIENTED_EDGE('',*,*,#190,.F.);
#238=ORIENTED_EDGE('',*,*,#191,.F.);
#239=ORIENTED_EDGE('',*,*,#192,.F.);
#240=ORIENTED_EDGE('',*,*,#186,.F.);
#241=ORIENTED_EDGE('',*,*,#183,.F.);
#242=ORIENTED_EDGE('',*,*,#180,.F.);
#243=ORIENTED_EDGE('',*,*,#177,.F.);
#244=ORIENTED_EDGE('',*,*,#193,.F.);
#245=ORIENTED_EDGE('',*,*,#194,.T.);
#246=ORIENTED_EDGE('',*,*,#195,.T.);
#247=ORIENTED_EDGE('',*,*,#196,.T.);
#248=ORIENTED_EDGE('',*,*,#197,.T.);
#249=ORIENTED_EDGE('',*,*,#193,.T.);
#250=ORIENTED_EDGE('',*,*,#198,.T.);
#251=ORIENTED_EDGE('',*,*,#188,.T.);
#252=ORIENTED_EDGE('',*,*,#198,.F.);
#253=ORIENTED_EDGE('',*,*,#194,.F.);
#254=ORIENTED_EDGE('',*,*,#199,.T.);
#255=ORIENTED_EDGE('',*,*,#200,.T.);
#256=ORIENTED_EDGE('',*,*,#199,.F.);
#257=ORIENTED_EDGE('',*,*,#201,.T.);
#258=ORIENTED_EDGE('',*,*,#200,.F.);
#259=ORIENTED_EDGE('',*,*,#201,.F.);
#260=ORIENTED_EDGE('',*,*,#202,.T.);
#261=ORIENTED_EDGE('',*,*,#189,.T.);
#262=ORIENTED_EDGE('',*,*,#202,.F.);
#263=ORIENTED_EDGE('',*,*,#195,.F.);
#264=ORIENTED_EDGE('',*,*,#203,.T.);
#265=ORIENTED_EDGE('',*,*,#204,.T.);
#266=ORIENTED_EDGE('',*,*,#203,.F.);
#267=ORIENTED_EDGE('',*,*,#205,.T.);
#268=ORIENTED_EDGE('',*,*,#204,.F.);
#269=ORIENTED_EDGE('',*,*,#205,.F.);
#270=ORIENTED_EDGE('',*,*,#206,.T.);
#271=ORIENTED_EDGE('',*,*,#190,.T.);
#272=ORIENTED_EDGE('',*,*,#206,.F.);
#273=ORIENTED_EDGE('',*,*,#196,.F.);
#274=ORIENTED_EDGE('',*,*,#207,.T.);
#275=ORIENTED_EDGE('',*,*,#208,.T.);
#276=ORIENTED_EDGE('',*,*,#207,.F.);
#277=ORIENTED_EDGE('',*,*,#209,.T.);
#278=ORIENTED_EDGE('',*,*,#208,.F.);
#279=ORIENTED_EDGE('',*,*,#209,.F.);
#280=ORIENTED_EDGE('',*,*,#210,.T.);
#281=ORIENTED_EDGE('',*,*,#191,.T.);
#282=ORIENTED_EDGE('',*,*,#210,.F.);
#283=ORIENTED_EDGE('',*,*,#197,.F.);
#284=ORIENTED_EDGE('',*,*,#211,.T.);
#285=ORIENTED_EDGE('',*,*,#212,.T.);
#286=ORIENTED_EDGE('',*,*,#211,.F.);
#287=ORIENTED_EDGE('',*,*,#213,.T.);
#288=ORIENTED_EDGE('',*,*,#212,.F.);
#289=ORIENTED_EDGE('',*,*,#213,.F.);
#290=ORIENTED_EDGE('',*,*,#214,.T.);
#291=ORIENTED_EDGE('',*,*,#192,.T.);
#292=ORIENTED_EDGE('',*,*,#214,.F.);
#293=PLANE('',#345);
#294=PLANE('',#346);
#295=PLANE('',#347);
#296=PLANE('',#348);
#297=PLANE('',#349);
#298=PLANE('',#355);
#299=PLANE('',#364);
#300=PLANE('',#369);
#301=PLANE('',#374);
#302=PLANE('',#379);
#303=ADVANCED_FACE('',(#56),#293,.F.);
#304=ADVANCED_FACE('',(#57),#294,.F.);
#305=ADVANCED_FACE('',(#58),#295,.F.);
#306=ADVANCED_FACE('',(#59),#296,.F.);
#307=ADVANCED_FACE('',(#60,#24,#25,#26,#27,#28),#297,.T.);
#308=ADVANCED_FACE('',(#61,#29,#30,#31,#32,#33),#298,.F.);
#309=ADVANCED_FACE('',(#62),#15,.F.);
#310=ADVANCED_FACE('',(#63),#16,.F.);
#311=ADVANCED_FACE('',(#64,#34),#299,.F.);
#312=ADVANCED_FACE('',(#65),#17,.F.);
#313=ADVANCED_FACE('',(#66),#18,.F.);
#314=ADVANCED_FACE('',(#67,#35),#300,.F.);
#315=ADVANCED_FACE('',(#68),#19,.F.);
#316=ADVANCED_FACE('',(#69),#20,.F.);
#317=ADVANCED_FACE('',(#70,#36),#301,.F.);
#318=ADVANCED_FACE('',(#71),#21,.F.);
#319=ADVANCED_FACE('',(#72),#22,.F.);
#320=ADVANCED_FACE('',(#73,#37),#302,.F.);
#321=ADVANCED_FACE('',(#74),#23,.F.);
#322=CLOSED_SHELL('',(#303,#304,#305,#306,#307,#308,#309,#310,#311,#312,
#313,#314,#315,#316,#317,#318,#319,#320,#321));
#323=DERIVED_UNIT_ELEMENT(#326,1.);
#324=DERIVED_UNIT_ELEMENT(#569,-3.);
#325=DIMENSIONAL_EXPONENTS(1.,0.,0.,0.,0.,0.,0.);
#326=(
CONVERSION_BASED_UNIT('gram',#328)
MASS_UNIT()
NAMED_UNIT(#325)
);
#327=(
MASS_UNIT()
NAMED_UNIT(*)
SI_UNIT(.KILO.,.GRAM.)
);
#328=MASS_MEASURE_WITH_UNIT(MASS_MEASURE(0.001),#327);
#329=DERIVED_UNIT((#323,#324));
#330=MEASURE_REPRESENTATION_ITEM('density measure',
POSITIVE_RATIO_MEASURE(2.71),#329);
#331=PROPERTY_DEFINITION_REPRESENTATION(#336,#333);
#332=PROPERTY_DEFINITION_REPRESENTATION(#337,#334);
#333=REPRESENTATION('material name',(#335),#566);
#334=REPRESENTATION('density',(#330),#566);
#335=DESCRIPTIVE_REPRESENTATION_ITEM('ALLUMINIO','ALLUMINIO');
#336=PROPERTY_DEFINITION('material property','material name',#576);
#337=PROPERTY_DEFINITION('material property','density of part',#576);
#338=DATE_TIME_ROLE('creation_date');
#339=APPLIED_DATE_AND_TIME_ASSIGNMENT(#340,#338,(#576));
#340=DATE_AND_TIME(#341,#342);
#341=CALENDAR_DATE(2012,3,12);
#342=LOCAL_TIME(0,0,0.,#343);
#343=COORDINATED_UNIVERSAL_TIME_OFFSET(0,0,.BEHIND.);
#344=AXIS2_PLACEMENT_3D('placement',#479,#382,#383);
#345=AXIS2_PLACEMENT_3D('',#480,#384,#385);
#346=AXIS2_PLACEMENT_3D('',#489,#390,#391);
#347=AXIS2_PLACEMENT_3D('',#495,#395,#396);
#348=AXIS2_PLACEMENT_3D('',#501,#400,#401);
#349=AXIS2_PLACEMENT_3D('',#504,#404,#405);
#350=AXIS2_PLACEMENT_3D('',#506,#406,#407);
#351=AXIS2_PLACEMENT_3D('',#508,#408,#409);
#352=AXIS2_PLACEMENT_3D('',#510,#410,#411);
#353=AXIS2_PLACEMENT_3D('',#512,#412,#413);
#354=AXIS2_PLACEMENT_3D('',#514,#414,#415);
#355=AXIS2_PLACEMENT_3D('',#515,#416,#417);
#356=AXIS2_PLACEMENT_3D('',#517,#418,#419);
#357=AXIS2_PLACEMENT_3D('',#519,#420,#421);
#358=AXIS2_PLACEMENT_3D('',#521,#422,#423);
#359=AXIS2_PLACEMENT_3D('',#523,#424,#425);
#360=AXIS2_PLACEMENT_3D('',#525,#426,#427);
#361=AXIS2_PLACEMENT_3D('',#526,#428,#429);
#362=AXIS2_PLACEMENT_3D('',#528,#431,#432);
#363=AXIS2_PLACEMENT_3D('',#531,#434,#435);
#364=AXIS2_PLACEMENT_3D('',#532,#436,#437);
#365=AXIS2_PLACEMENT_3D('',#534,#438,#439);
#366=AXIS2_PLACEMENT_3D('',#535,#440,#441);
#367=AXIS2_PLACEMENT_3D('',#537,#443,#444);
#368=AXIS2_PLACEMENT_3D('',#540,#446,#447);
#369=AXIS2_PLACEMENT_3D('',#541,#448,#449);
#370=AXIS2_PLACEMENT_3D('',#543,#450,#451);
#371=AXIS2_PLACEMENT_3D('',#544,#452,#453);
#372=AXIS2_PLACEMENT_3D('',#546,#455,#456);
#373=AXIS2_PLACEMENT_3D('',#549,#458,#459);
#374=AXIS2_PLACEMENT_3D('',#550,#460,#461);
#375=AXIS2_PLACEMENT_3D('',#552,#462,#463);
#376=AXIS2_PLACEMENT_3D('',#553,#464,#465);
#377=AXIS2_PLACEMENT_3D('',#555,#467,#468);
#378=AXIS2_PLACEMENT_3D('',#558,#470,#471);
#379=AXIS2_PLACEMENT_3D('',#559,#472,#473);
#380=AXIS2_PLACEMENT_3D('',#561,#474,#475);
#381=AXIS2_PLACEMENT_3D('',#562,#476,#477);
#382=DIRECTION('axis',(0.,0.,1.));
#383=DIRECTION('refdir',(1.,0.,0.));
#384=DIRECTION('center_axis',(-1.,0.,0.));
#385=DIRECTION('ref_axis',(0.,0.,1.));
#386=DIRECTION('',(0.,0.,-1.));
#387=DIRECTION('',(0.,1.,0.));
#388=DIRECTION('',(0.,0.,-1.));
#389=DIRECTION('',(0.,1.,0.));
#390=DIRECTION('center_axis',(0.,-1.,0.));
#391=DIRECTION('ref_axis',(0.,0.,-1.));
#392=DIRECTION('',(-1.,0.,0.));
#393=DIRECTION('',(0.,0.,-1.));
#394=DIRECTION('',(-1.,0.,0.));
#395=DIRECTION('center_axis',(1.,0.,0.));
#396=DIRECTION('ref_axis',(0.,0.,-1.));
#397=DIRECTION('',(0.,-1.,0.));
#398=DIRECTION('',(0.,0.,-1.));
#399=DIRECTION('',(0.,-1.,0.));
#400=DIRECTION('center_axis',(0.,1.,0.));
#401=DIRECTION('ref_axis',(0.,0.,1.));
#402=DIRECTION('',(1.,0.,0.));
#403=DIRECTION('',(1.,0.,0.));
#404=DIRECTION('center_axis',(0.,0.,1.));
#405=DIRECTION('ref_axis',(1.,0.,0.));
#406=DIRECTION('center_axis',(0.,0.,-1.));
#407=DIRECTION('ref_axis',(1.,0.,0.));
#408=DIRECTION('center_axis',(0.,0.,1.));
#409=DIRECTION('ref_axis',(1.,0.,0.));
#410=DIRECTION('center_axis',(0.,0.,1.));
#411=DIRECTION('ref_axis',(1.,0.,0.));
#412=DIRECTION('center_axis',(0.,0.,1.));
#413=DIRECTION('ref_axis',(1.,0.,0.));
#414=DIRECTION('center_axis',(0.,0.,1.));
#415=DIRECTION('ref_axis',(1.,0.,0.));
#416=DIRECTION('center_axis',(0.,0.,1.));
#417=DIRECTION('ref_axis',(1.,0.,0.));
#418=DIRECTION('center_axis',(0.,0.,-1.));
#419=DIRECTION('ref_axis',(1.,0.,0.));
#420=DIRECTION('center_axis',(0.,0.,1.));
#421=DIRECTION('ref_axis',(1.,0.,0.));
#422=DIRECTION('center_axis',(0.,0.,1.));
#423=DIRECTION('ref_axis',(1.,0.,0.));
#424=DIRECTION('center_axis',(0.,0.,1.));
#425=DIRECTION('ref_axis',(1.,0.,0.));
#426=DIRECTION('center_axis',(0.,0.,1.));
#427=DIRECTION('ref_axis',(1.,0.,0.));
#428=DIRECTION('center_axis',(0.,0.,1.));
#429=DIRECTION('ref_axis',(1.,0.,0.));
#430=DIRECTION('',(0.,0.,1.));
#431=DIRECTION('center_axis',(0.,0.,1.));
#432=DIRECTION('ref_axis',(1.,0.,0.));
#433=DIRECTION('',(0.,0.,1.));
#434=DIRECTION('center_axis',(0.,0.,1.));
#435=DIRECTION('ref_axis',(1.,0.,0.));
#436=DIRECTION('center_axis',(0.,0.,-1.));
#437=DIRECTION('ref_axis',(-1.,0.,0.));
#438=DIRECTION('center_axis',(0.,0.,1.));
#439=DIRECTION('ref_axis',(1.,0.,0.));
#440=DIRECTION('center_axis',(0.,0.,1.));
#441=DIRECTION('ref_axis',(1.,0.,0.));
#442=DIRECTION('',(0.,0.,1.));
#443=DIRECTION('center_axis',(0.,0.,1.));
#444=DIRECTION('ref_axis',(1.,0.,0.));
#445=DIRECTION('',(0.,0.,1.));
#446=DIRECTION('center_axis',(0.,0.,1.));
#447=DIRECTION('ref_axis',(1.,0.,0.));
#448=DIRECTION('center_axis',(0.,0.,-1.));
#449=DIRECTION('ref_axis',(-1.,0.,0.));
#450=DIRECTION('center_axis',(0.,0.,1.));
#451=DIRECTION('ref_axis',(1.,0.,0.));
#452=DIRECTION('center_axis',(0.,0.,1.));
#453=DIRECTION('ref_axis',(1.,0.,0.));
#454=DIRECTION('',(0.,0.,1.));
#455=DIRECTION('center_axis',(0.,0.,1.));
#456=DIRECTION('ref_axis',(1.,0.,0.));
#457=DIRECTION('',(0.,0.,1.));
#458=DIRECTION('center_axis',(0.,0.,1.));
#459=DIRECTION('ref_axis',(1.,0.,0.));
#460=DIRECTION('center_axis',(0.,0.,-1.));
#461=DIRECTION('ref_axis',(-1.,0.,0.));
#462=DIRECTION('center_axis',(0.,0.,1.));
#463=DIRECTION('ref_axis',(1.,0.,0.));
#464=DIRECTION('center_axis',(0.,0.,1.));
#465=DIRECTION('ref_axis',(1.,0.,0.));
#466=DIRECTION('',(0.,0.,1.));
#467=DIRECTION('center_axis',(0.,0.,1.));
#468=DIRECTION('ref_axis',(1.,0.,0.));
#469=DIRECTION('',(0.,0.,1.));
#470=DIRECTION('center_axis',(0.,0.,1.));
#471=DIRECTION('ref_axis',(1.,0.,0.));
#472=DIRECTION('center_axis',(0.,0.,-1.));
#473=DIRECTION('ref_axis',(-1.,0.,0.));
#474=DIRECTION('center_axis',(0.,0.,1.));
#475=DIRECTION('ref_axis',(1.,0.,0.));
#476=DIRECTION('center_axis',(0.,0.,1.));
#477=DIRECTION('ref_axis',(1.,0.,0.));
#478=DIRECTION('',(0.,0.,1.));
#479=CARTESIAN_POINT('',(0.,0.,0.));
#480=CARTESIAN_POINT('Origin',(59.99998667976,-39.9999911198397,12.));
#481=CARTESIAN_POINT('',(59.99998667976,-39.9999911198397,12.));
#482=CARTESIAN_POINT('',(59.99998667976,-39.9999911198397,0.));
#483=CARTESIAN_POINT('',(59.99998667976,-39.9999911198397,12.));
#484=CARTESIAN_POINT('',(59.99998667976,39.9999911198402,0.));
#485=CARTESIAN_POINT('',(59.99998667976,-39.9999911198397,0.));
#486=CARTESIAN_POINT('',(59.99998667976,39.9999911198402,12.));
#487=CARTESIAN_POINT('',(59.99998667976,39.9999911198402,12.));
#488=CARTESIAN_POINT('',(59.99998667976,-39.9999911198397,12.));
#489=CARTESIAN_POINT('Origin',(59.99998667976,39.9999911198402,12.));
#490=CARTESIAN_POINT('',(-59.99998667976,39.9999911198402,0.));
#491=CARTESIAN_POINT('',(59.99998667976,39.9999911198402,0.));
#492=CARTESIAN_POINT('',(-59.99998667976,39.9999911198402,12.));
#493=CARTESIAN_POINT('',(-59.99998667976,39.9999911198402,12.));
#494=CARTESIAN_POINT('',(59.99998667976,39.9999911198402,12.));
#495=CARTESIAN_POINT('Origin',(-59.99998667976,39.9999911198402,12.));
#496=CARTESIAN_POINT('',(-59.99998667976,-39.9999911198397,0.));
#497=CARTESIAN_POINT('',(-59.99998667976,39.9999911198402,0.));
#498=CARTESIAN_POINT('',(-59.99998667976,-39.9999911198397,12.));
#499=CARTESIAN_POINT('',(-59.99998667976,-39.9999911198397,12.));
#500=CARTESIAN_POINT('',(-59.99998667976,39.9999911198402,12.));
#501=CARTESIAN_POINT('Origin',(-59.99998667976,-39.9999911198397,12.));
#502=CARTESIAN_POINT('',(-59.99998667976,-39.9999911198397,0.));
#503=CARTESIAN_POINT('',(-59.99998667976,-39.9999911198397,12.));
#504=CARTESIAN_POINT('Origin',(-71.9999887488352,-47.9999940767352,12.));
#505=CARTESIAN_POINT('',(-8.,9.79717439317883E-16,12.));
#506=CARTESIAN_POINT('Origin',(0.,0.,12.));
#507=CARTESIAN_POINT('',(-46.9999911198402,19.9999955599201,12.));
#508=CARTESIAN_POINT('Origin',(-39.9999911198402,19.9999955599201,12.));
#509=CARTESIAN_POINT('',(32.9999911198399,19.9999955599201,12.));
#510=CARTESIAN_POINT('Origin',(39.9999911198399,19.9999955599201,12.));
#511=CARTESIAN_POINT('',(32.9999911198399,-19.9999955599196,12.));
#512=CARTESIAN_POINT('Origin',(39.9999911198399,-19.9999955599196,12.));
#513=CARTESIAN_POINT('',(-46.9999911198402,-19.9999955599196,12.));
#514=CARTESIAN_POINT('Origin',(-39.9999911198402,-19.9999955599196,12.));
#515=CARTESIAN_POINT('Origin',(-71.9999887488352,-47.9999940767352,0.));
#516=CARTESIAN_POINT('',(-8.,9.79717439317883E-16,0.));
#517=CARTESIAN_POINT('Origin',(0.,0.,0.));
#518=CARTESIAN_POINT('',(-44.2499911198402,19.9999955599201,0.));
#519=CARTESIAN_POINT('Origin',(-39.9999911198402,19.9999955599201,0.));
#520=CARTESIAN_POINT('',(35.7499911198399,19.9999955599201,0.));
#521=CARTESIAN_POINT('Origin',(39.9999911198399,19.9999955599201,0.));
#522=CARTESIAN_POINT('',(35.7499911198399,-19.9999955599196,0.));
#523=CARTESIAN_POINT('Origin',(39.9999911198399,-19.9999955599196,0.));
#524=CARTESIAN_POINT('',(-44.2499911198402,-19.9999955599196,0.));
#525=CARTESIAN_POINT('Origin',(-39.9999911198402,-19.9999955599196,0.));
#526=CARTESIAN_POINT('Origin',(0.,0.,12.));
#527=CARTESIAN_POINT('',(-8.,-9.79717439317883E-16,12.));
#528=CARTESIAN_POINT('Origin',(-39.9999911198402,19.9999955599201,-1.20981903076172));
#529=CARTESIAN_POINT('',(-44.2499911198402,19.9999955599201,4.));
#530=CARTESIAN_POINT('',(-44.2499911198402,19.9999955599201,-1.20981903076172));
#531=CARTESIAN_POINT('Origin',(-39.9999911198402,19.9999955599201,4.));
#532=CARTESIAN_POINT('Origin',(-53.9999911198402,5.99999555992008,4.));
#533=CARTESIAN_POINT('',(-46.9999911198402,19.9999955599201,4.));
#534=CARTESIAN_POINT('Origin',(-39.9999911198402,19.9999955599201,4.));
#535=CARTESIAN_POINT('Origin',(-39.9999911198402,19.9999955599201,4.));
#536=CARTESIAN_POINT('',(-46.9999911198402,19.9999955599201,4.));
#537=CARTESIAN_POINT('Origin',(39.9999911198399,19.9999955599201,-1.20981903076172));
#538=CARTESIAN_POINT('',(35.7499911198399,19.9999955599201,4.));
#539=CARTESIAN_POINT('',(35.7499911198399,19.9999955599201,-1.20981903076172));
#540=CARTESIAN_POINT('Origin',(39.9999911198399,19.9999955599201,4.));
#541=CARTESIAN_POINT('Origin',(25.9999911198399,5.99999555992008,4.));
#542=CARTESIAN_POINT('',(32.9999911198399,19.9999955599201,4.));
#543=CARTESIAN_POINT('Origin',(39.9999911198399,19.9999955599201,4.));
#544=CARTESIAN_POINT('Origin',(39.9999911198399,19.9999955599201,4.));
#545=CARTESIAN_POINT('',(32.9999911198399,19.9999955599201,4.));
#546=CARTESIAN_POINT('Origin',(39.9999911198399,-19.9999955599196,-1.20981903076172));
#547=CARTESIAN_POINT('',(35.7499911198399,-19.9999955599196,4.));
#548=CARTESIAN_POINT('',(35.7499911198399,-19.9999955599196,-1.20981903076172));
#549=CARTESIAN_POINT('Origin',(39.9999911198399,-19.9999955599196,4.));
#550=CARTESIAN_POINT('Origin',(25.9999911198399,-33.9999955599196,4.));
#551=CARTESIAN_POINT('',(32.9999911198399,-19.9999955599196,4.));
#552=CARTESIAN_POINT('Origin',(39.9999911198399,-19.9999955599196,4.));
#553=CARTESIAN_POINT('Origin',(39.9999911198399,-19.9999955599196,4.));
#554=CARTESIAN_POINT('',(32.9999911198399,-19.9999955599196,4.));
#555=CARTESIAN_POINT('Origin',(-39.9999911198402,-19.9999955599196,-1.20981903076172));
#556=CARTESIAN_POINT('',(-44.2499911198402,-19.9999955599196,4.));
#557=CARTESIAN_POINT('',(-44.2499911198402,-19.9999955599196,-1.20981903076172));
#558=CARTESIAN_POINT('Origin',(-39.9999911198402,-19.9999955599196,4.));
#559=CARTESIAN_POINT('Origin',(-53.9999911198402,-33.9999955599196,4.));
#560=CARTESIAN_POINT('',(-46.9999911198402,-19.9999955599196,4.));
#561=CARTESIAN_POINT('Origin',(-39.9999911198402,-19.9999955599196,4.));
#562=CARTESIAN_POINT('Origin',(-39.9999911198402,-19.9999955599196,4.));
#563=CARTESIAN_POINT('',(-46.9999911198402,-19.9999955599196,4.));
#564=UNCERTAINTY_MEASURE_WITH_UNIT(LENGTH_MEASURE(0.01),#568,
'DISTANCE_ACCURACY_VALUE',
'Maximum model space distance between geometric entities at asserted c
onnectivities');
#565=UNCERTAINTY_MEASURE_WITH_UNIT(LENGTH_MEASURE(0.01),#568,
'DISTANCE_ACCURACY_VALUE',
'Maximum model space distance between geometric entities at asserted c
onnectivities');
#566=(
GEOMETRIC_REPRESENTATION_CONTEXT(3)
GLOBAL_UNCERTAINTY_ASSIGNED_CONTEXT((#564))
GLOBAL_UNIT_ASSIGNED_CONTEXT((#568,#570,#571))
REPRESENTATION_CONTEXT('','3D')
);
#567=(
GEOMETRIC_REPRESENTATION_CONTEXT(3)
GLOBAL_UNCERTAINTY_ASSIGNED_CONTEXT((#565))
GLOBAL_UNIT_ASSIGNED_CONTEXT((#568,#570,#571))
REPRESENTATION_CONTEXT('','3D')
);
#568=(
LENGTH_UNIT()
NAMED_UNIT(*)
SI_UNIT(.MILLI.,.METRE.)
);
#569=(
LENGTH_UNIT()
NAMED_UNIT(*)
SI_UNIT(.CENTI.,.METRE.)
);
#570=(
NAMED_UNIT(*)
PLANE_ANGLE_UNIT()
SI_UNIT($,.RADIAN.)
);
#571=(
NAMED_UNIT(*)
SI_UNIT($,.STERADIAN.)
SOLID_ANGLE_UNIT()
);
#572=SHAPE_DEFINITION_REPRESENTATION(#573,#574);
#573=PRODUCT_DEFINITION_SHAPE('',$,#576);
#574=SHAPE_REPRESENTATION('',(#344),#566);
#575=PRODUCT_DEFINITION_CONTEXT('part definition',#580,'design');
#576=PRODUCT_DEFINITION('DPSXX0000365','DPSXX0000365',#577,#575);
#577=PRODUCT_DEFINITION_FORMATION('A',$,#582);
#578=PRODUCT_RELATED_PRODUCT_CATEGORY('DPSXX0000365','DPSXX0000365',(#582));
#579=APPLICATION_PROTOCOL_DEFINITION('international standard',
'automotive_design',2009,#580);
#580=APPLICATION_CONTEXT(
'Core Data for Automotive Mechanical Design Process');
#581=PRODUCT_CONTEXT('part definition',#580,'mechanical');
#582=PRODUCT('DPSXX0000365','DPSXX0000365',
'PIASTRA 120X80 SP.12 ALLUMINIO',(#581));
#583=PRESENTATION_STYLE_ASSIGNMENT((#584));
#584=SURFACE_STYLE_USAGE(.BOTH.,#587);
#585=SURFACE_STYLE_RENDERING_WITH_PROPERTIES($,#591,(#586));
#586=SURFACE_STYLE_TRANSPARENT(0.);
#587=SURFACE_SIDE_STYLE('',(#588,#585));
#588=SURFACE_STYLE_FILL_AREA(#589);
#589=FILL_AREA_STYLE('',(#590));
#590=FILL_AREA_STYLE_COLOUR('',#591);
#591=COLOUR_RGB('',0.87843137254902,0.874509803921569,0.858823529411765);
ENDSEC;
END-ISO-10303-21;
