ISO-10303-21;
HEADER;
/* Generated by software containing ST-Developer
 * from STEP Tools, Inc. (www.steptools.com) 
 */

FILE_DESCRIPTION(
/* description */ ('PERNO MASCHIO D.8x13.5H'),
/* implementation_level */ '2;1');

FILE_NAME(
/* name */ 
'C:\\Users\\ddelbianco.DR\\Desktop\\PER LAURA\\PAG. 18\\XT90125.stp',
/* time_stamp */ '2014-05-14T09:23:45+02:00',
/* author */ ('ddelbianco'),
/* organization */ (''),
/* preprocessor_version */ 'ST-DEVELOPER v15.2',
/* originating_system */ 'Autodesk Inventor 2014',
/* authorisation */ '');

FILE_SCHEMA (('AUTOMOTIVE_DESIGN { 1 0 10303 214 3 1 1 }'));
ENDSEC;

DATA;
#10=SHAPE_REPRESENTATION_RELATIONSHIP('SRR','None',#301,#11);
#11=ADVANCED_BREP_SHAPE_REPRESENTATION($,(#168),#292);
#12=STYLED_ITEM($,(#309),#168);
#13=CYLINDRICAL_SURFACE($,#183,2.5);
#14=CYLINDRICAL_SURFACE($,#187,4.);
#15=CYLINDRICAL_SURFACE($,#191,5.);
#16=FACE_BOUND($,#51,.T.);
#17=FACE_BOUND($,#54,.T.);
#18=FACE_BOUND($,#56,.T.);
#19=FACE_BOUND($,#58,.T.);
#20=FACE_BOUND($,#59,.T.);
#21=FACE_BOUND($,#60,.T.);
#22=FACE_BOUND($,#62,.T.);
#23=CONICAL_SURFACE($,#179,2.25,44.9999999999984);
#24=CIRCLE($,#173,5.);
#25=CIRCLE($,#174,5.);
#26=CIRCLE($,#176,5.);
#27=CIRCLE($,#178,5.);
#28=CIRCLE($,#180,2.);
#29=CIRCLE($,#181,2.5);
#30=CIRCLE($,#184,2.5);
#31=CIRCLE($,#186,4.);
#32=CIRCLE($,#188,4.);
#33=CIRCLE($,#190,5.);
#34=FACE_OUTER_BOUND($,#45,.T.);
#35=FACE_OUTER_BOUND($,#46,.T.);
#36=FACE_OUTER_BOUND($,#47,.T.);
#37=FACE_OUTER_BOUND($,#48,.T.);
#38=FACE_OUTER_BOUND($,#49,.T.);
#39=FACE_OUTER_BOUND($,#50,.T.);
#40=FACE_OUTER_BOUND($,#52,.T.);
#41=FACE_OUTER_BOUND($,#53,.T.);
#42=FACE_OUTER_BOUND($,#55,.T.);
#43=FACE_OUTER_BOUND($,#57,.T.);
#44=FACE_OUTER_BOUND($,#61,.T.);
#45=EDGE_LOOP($,(#111,#112,#113,#114));
#46=EDGE_LOOP($,(#115,#116,#117,#118));
#47=EDGE_LOOP($,(#119,#120,#121,#122));
#48=EDGE_LOOP($,(#123,#124));
#49=EDGE_LOOP($,(#125,#126));
#50=EDGE_LOOP($,(#127));
#51=EDGE_LOOP($,(#128));
#52=EDGE_LOOP($,(#129));
#53=EDGE_LOOP($,(#130));
#54=EDGE_LOOP($,(#131));
#55=EDGE_LOOP($,(#132));
#56=EDGE_LOOP($,(#133));
#57=EDGE_LOOP($,(#134));
#58=EDGE_LOOP($,(#135));
#59=EDGE_LOOP($,(#136));
#60=EDGE_LOOP($,(#137));
#61=EDGE_LOOP($,(#138,#139,#140,#141,#142,#143,#144,#145));
#62=EDGE_LOOP($,(#146));
#63=LINE($,#250,#71);
#64=LINE($,#252,#72);
#65=LINE($,#254,#73);
#66=LINE($,#255,#74);
#67=LINE($,#259,#75);
#68=LINE($,#261,#76);
#69=LINE($,#263,#77);
#70=LINE($,#264,#78);
#71=VECTOR($,#196,9.9498743710662);
#72=VECTOR($,#197,0.8);
#73=VECTOR($,#198,9.9498743710662);
#74=VECTOR($,#199,0.8);
#75=VECTOR($,#202,9.9498743710662);
#76=VECTOR($,#203,0.8);
#77=VECTOR($,#204,9.9498743710662);
#78=VECTOR($,#205,0.8);
#79=VERTEX_POINT($,#248);
#80=VERTEX_POINT($,#249);
#81=VERTEX_POINT($,#251);
#82=VERTEX_POINT($,#253);
#83=VERTEX_POINT($,#257);
#84=VERTEX_POINT($,#258);
#85=VERTEX_POINT($,#260);
#86=VERTEX_POINT($,#262);
#87=VERTEX_POINT($,#273);
#88=VERTEX_POINT($,#275);
#89=VERTEX_POINT($,#279);
#90=VERTEX_POINT($,#282);
#91=VERTEX_POINT($,#285);
#92=VERTEX_POINT($,#288);
#93=EDGE_CURVE($,#79,#80,#63,.T.);
#94=EDGE_CURVE($,#81,#79,#64,.T.);
#95=EDGE_CURVE($,#81,#82,#65,.T.);
#96=EDGE_CURVE($,#80,#82,#66,.T.);
#97=EDGE_CURVE($,#83,#84,#67,.T.);
#98=EDGE_CURVE($,#85,#83,#68,.T.);
#99=EDGE_CURVE($,#85,#86,#69,.T.);
#100=EDGE_CURVE($,#84,#86,#70,.T.);
#101=EDGE_CURVE($,#82,#85,#24,.T.);
#102=EDGE_CURVE($,#86,#81,#25,.T.);
#103=EDGE_CURVE($,#80,#79,#26,.T.);
#104=EDGE_CURVE($,#84,#83,#27,.T.);
#105=EDGE_CURVE($,#87,#87,#28,.T.);
#106=EDGE_CURVE($,#88,#88,#29,.T.);
#107=EDGE_CURVE($,#89,#89,#30,.T.);
#108=EDGE_CURVE($,#90,#90,#31,.T.);
#109=EDGE_CURVE($,#91,#91,#32,.T.);
#110=EDGE_CURVE($,#92,#92,#33,.T.);
#111=ORIENTED_EDGE($,*,*,#93,.F.);
#112=ORIENTED_EDGE($,*,*,#94,.F.);
#113=ORIENTED_EDGE($,*,*,#95,.T.);
#114=ORIENTED_EDGE($,*,*,#96,.F.);
#115=ORIENTED_EDGE($,*,*,#97,.F.);
#116=ORIENTED_EDGE($,*,*,#98,.F.);
#117=ORIENTED_EDGE($,*,*,#99,.T.);
#118=ORIENTED_EDGE($,*,*,#100,.F.);
#119=ORIENTED_EDGE($,*,*,#99,.F.);
#120=ORIENTED_EDGE($,*,*,#101,.F.);
#121=ORIENTED_EDGE($,*,*,#95,.F.);
#122=ORIENTED_EDGE($,*,*,#102,.F.);
#123=ORIENTED_EDGE($,*,*,#93,.T.);
#124=ORIENTED_EDGE($,*,*,#103,.T.);
#125=ORIENTED_EDGE($,*,*,#97,.T.);
#126=ORIENTED_EDGE($,*,*,#104,.T.);
#127=ORIENTED_EDGE($,*,*,#105,.T.);
#128=ORIENTED_EDGE($,*,*,#106,.T.);
#129=ORIENTED_EDGE($,*,*,#105,.F.);
#130=ORIENTED_EDGE($,*,*,#107,.F.);
#131=ORIENTED_EDGE($,*,*,#106,.F.);
#132=ORIENTED_EDGE($,*,*,#108,.F.);
#133=ORIENTED_EDGE($,*,*,#107,.T.);
#134=ORIENTED_EDGE($,*,*,#109,.F.);
#135=ORIENTED_EDGE($,*,*,#108,.T.);
#136=ORIENTED_EDGE($,*,*,#109,.T.);
#137=ORIENTED_EDGE($,*,*,#110,.F.);
#138=ORIENTED_EDGE($,*,*,#98,.T.);
#139=ORIENTED_EDGE($,*,*,#104,.F.);
#140=ORIENTED_EDGE($,*,*,#100,.T.);
#141=ORIENTED_EDGE($,*,*,#102,.T.);
#142=ORIENTED_EDGE($,*,*,#94,.T.);
#143=ORIENTED_EDGE($,*,*,#103,.F.);
#144=ORIENTED_EDGE($,*,*,#96,.T.);
#145=ORIENTED_EDGE($,*,*,#101,.T.);
#146=ORIENTED_EDGE($,*,*,#110,.T.);
#147=PLANE($,#170);
#148=PLANE($,#171);
#149=PLANE($,#172);
#150=PLANE($,#175);
#151=PLANE($,#177);
#152=PLANE($,#182);
#153=PLANE($,#185);
#154=PLANE($,#189);
#155=ADVANCED_FACE($,(#34),#147,.F.);
#156=ADVANCED_FACE($,(#35),#148,.F.);
#157=ADVANCED_FACE($,(#36),#149,.F.);
#158=ADVANCED_FACE($,(#37),#150,.T.);
#159=ADVANCED_FACE($,(#38),#151,.T.);
#160=ADVANCED_FACE($,(#39,#16),#23,.T.);
#161=ADVANCED_FACE($,(#40),#152,.T.);
#162=ADVANCED_FACE($,(#41,#17),#13,.T.);
#163=ADVANCED_FACE($,(#42,#18),#153,.T.);
#164=ADVANCED_FACE($,(#43,#19),#14,.T.);
#165=ADVANCED_FACE($,(#20,#21),#154,.T.);
#166=ADVANCED_FACE($,(#44,#22),#15,.T.);
#167=CLOSED_SHELL($,(#155,#156,#157,#158,#159,#160,#161,#162,#163,#164,
#165,#166));
#168=MANIFOLD_SOLID_BREP('Solido1',#167);
#169=AXIS2_PLACEMENT_3D('placement',#246,#192,#193);
#170=AXIS2_PLACEMENT_3D($,#247,#194,#195);
#171=AXIS2_PLACEMENT_3D($,#256,#200,#201);
#172=AXIS2_PLACEMENT_3D($,#265,#206,#207);
#173=AXIS2_PLACEMENT_3D($,#266,#208,#209);
#174=AXIS2_PLACEMENT_3D($,#267,#210,#211);
#175=AXIS2_PLACEMENT_3D($,#268,#212,#213);
#176=AXIS2_PLACEMENT_3D($,#269,#214,#215);
#177=AXIS2_PLACEMENT_3D($,#270,#216,#217);
#178=AXIS2_PLACEMENT_3D($,#271,#218,#219);
#179=AXIS2_PLACEMENT_3D($,#272,#220,#221);
#180=AXIS2_PLACEMENT_3D($,#274,#222,#223);
#181=AXIS2_PLACEMENT_3D($,#276,#224,#225);
#182=AXIS2_PLACEMENT_3D($,#277,#226,#227);
#183=AXIS2_PLACEMENT_3D($,#278,#228,#229);
#184=AXIS2_PLACEMENT_3D($,#280,#230,#231);
#185=AXIS2_PLACEMENT_3D($,#281,#232,#233);
#186=AXIS2_PLACEMENT_3D($,#283,#234,#235);
#187=AXIS2_PLACEMENT_3D($,#284,#236,#237);
#188=AXIS2_PLACEMENT_3D($,#286,#238,#239);
#189=AXIS2_PLACEMENT_3D($,#287,#240,#241);
#190=AXIS2_PLACEMENT_3D($,#289,#242,#243);
#191=AXIS2_PLACEMENT_3D($,#290,#244,#245);
#192=DIRECTION('axis',(0.,0.,1.));
#193=DIRECTION('refdir',(1.,0.,0.));
#194=DIRECTION('center_axis',(1.,0.,0.));
#195=DIRECTION('ref_axis',(0.,0.,-1.));
#196=DIRECTION($,(0.,0.,-1.));
#197=DIRECTION($,(0.,-1.,0.));
#198=DIRECTION($,(0.,0.,-1.));
#199=DIRECTION($,(0.,1.,0.));
#200=DIRECTION('center_axis',(-1.,0.,0.));
#201=DIRECTION('ref_axis',(0.,0.,1.));
#202=DIRECTION($,(0.,0.,1.));
#203=DIRECTION($,(0.,-1.,0.));
#204=DIRECTION($,(0.,0.,1.));
#205=DIRECTION($,(0.,1.,0.));
#206=DIRECTION('center_axis',(-7.43618456388562E-019,1.,-6.02180804712986E-032));
#207=DIRECTION('ref_axis',(0.,0.,1.));
#208=DIRECTION('center_axis',(-7.43618456388562E-019,1.,-6.02180804712986E-032));
#209=DIRECTION('ref_axis',(1.,0.,0.));
#210=DIRECTION('center_axis',(-7.43618456388562E-019,1.,-6.02180804712986E-032));
#211=DIRECTION('ref_axis',(1.,0.,0.));
#212=DIRECTION('center_axis',(0.,-1.,0.));
#213=DIRECTION('ref_axis',(0.,0.,-1.));
#214=DIRECTION('center_axis',(0.,-1.,0.));
#215=DIRECTION('ref_axis',(1.,0.,0.));
#216=DIRECTION('center_axis',(0.,-1.,0.));
#217=DIRECTION('ref_axis',(0.,0.,-1.));
#218=DIRECTION('center_axis',(0.,-1.,0.));
#219=DIRECTION('ref_axis',(1.,0.,0.));
#220=DIRECTION('center_axis',(0.,-1.,0.));
#221=DIRECTION('ref_axis',(-1.,0.,0.));
#222=DIRECTION('center_axis',(0.,-1.,0.));
#223=DIRECTION('ref_axis',(-1.,0.,0.));
#224=DIRECTION('center_axis',(0.,1.,0.));
#225=DIRECTION('ref_axis',(-1.,0.,0.));
#226=DIRECTION('center_axis',(0.,1.,0.));
#227=DIRECTION('ref_axis',(0.,0.,1.));
#228=DIRECTION('center_axis',(0.,-1.,0.));
#229=DIRECTION('ref_axis',(1.,0.,0.));
#230=DIRECTION('center_axis',(0.,-1.,0.));
#231=DIRECTION('ref_axis',(1.,0.,0.));
#232=DIRECTION('center_axis',(0.,1.,0.));
#233=DIRECTION('ref_axis',(0.,0.,1.));
#234=DIRECTION('center_axis',(0.,-1.,0.));
#235=DIRECTION('ref_axis',(1.,0.,0.));
#236=DIRECTION('center_axis',(0.,-1.,0.));
#237=DIRECTION('ref_axis',(1.,0.,0.));
#238=DIRECTION('center_axis',(0.,-1.,0.));
#239=DIRECTION('ref_axis',(1.,0.,0.));
#240=DIRECTION('center_axis',(0.,1.,0.));
#241=DIRECTION('ref_axis',(0.,0.,1.));
#242=DIRECTION('center_axis',(0.,-1.,0.));
#243=DIRECTION('ref_axis',(1.,0.,0.));
#244=DIRECTION('center_axis',(0.,-1.,0.));
#245=DIRECTION('ref_axis',(1.,0.,0.));
#246=CARTESIAN_POINT('',(0.,0.,0.));
#247=CARTESIAN_POINT('Origin',(0.5,-5.54381365935396E-014,4.9749371855331));
#248=CARTESIAN_POINT('',(0.5,-5.54381365935396E-014,4.9749371855331));
#249=CARTESIAN_POINT('',(0.5,-5.54381365935396E-014,-4.9749371855331));
#250=CARTESIAN_POINT($,(0.5,-5.54381365935396E-014,2.48746859276655));
#251=CARTESIAN_POINT('',(0.5,0.799999999999945,4.9749371855331));
#252=CARTESIAN_POINT($,(0.5,0.499999999999891,4.9749371855331));
#253=CARTESIAN_POINT('',(0.5,0.799999999999945,-4.9749371855331));
#254=CARTESIAN_POINT($,(0.5,0.799999999999945,-4.9749371855331));
#255=CARTESIAN_POINT($,(0.5,0.499999999999891,-4.9749371855331));
#256=CARTESIAN_POINT('Origin',(-0.5,-5.54381365935396E-014,-4.9749371855331));
#257=CARTESIAN_POINT('',(-0.5,-5.54381365935396E-014,-4.9749371855331));
#258=CARTESIAN_POINT('',(-0.5,-5.54381365935396E-014,4.9749371855331));
#259=CARTESIAN_POINT($,(-0.5,-5.54381365935396E-014,-2.48746859276655));
#260=CARTESIAN_POINT('',(-0.5,0.799999999999945,-4.9749371855331));
#261=CARTESIAN_POINT($,(-0.5,0.499999999999891,-4.9749371855331));
#262=CARTESIAN_POINT('',(-0.5,0.799999999999945,4.9749371855331));
#263=CARTESIAN_POINT($,(-0.5,0.799999999999945,4.9749371855331));
#264=CARTESIAN_POINT($,(-0.5,0.499999999999891,4.9749371855331));
#265=CARTESIAN_POINT('Origin',(9.57015160262727E-017,0.799999999999945,
-1.24011525458475E-015));
#266=CARTESIAN_POINT('Origin',(0.,0.799999999999945,0.));
#267=CARTESIAN_POINT('Origin',(0.,0.799999999999945,0.));
#268=CARTESIAN_POINT('Origin',(2.5,-5.54381365935396E-014,0.));
#269=CARTESIAN_POINT('Origin',(0.,-1.10876273187079E-013,0.));
#270=CARTESIAN_POINT('Origin',(2.5,-5.54381365935396E-014,0.));
#271=CARTESIAN_POINT('Origin',(0.,-1.10876273187079E-013,0.));
#272=CARTESIAN_POINT('Origin',(0.,20.25,0.));
#273=CARTESIAN_POINT('',(2.,20.5,2.44929359829471E-016));
#274=CARTESIAN_POINT('Origin',(0.,20.5,0.));
#275=CARTESIAN_POINT('',(2.5,20.,-3.06161699786838E-016));
#276=CARTESIAN_POINT('Origin',(0.,20.,0.));
#277=CARTESIAN_POINT('Origin',(1.25000000000023,20.5,0.));
#278=CARTESIAN_POINT('Origin',(0.,17.,0.));
#279=CARTESIAN_POINT('',(2.5,13.4999999999999,0.));
#280=CARTESIAN_POINT('Origin',(0.,13.4999999999999,0.));
#281=CARTESIAN_POINT('Origin',(3.25,13.4999999999999,0.));
#282=CARTESIAN_POINT('',(4.,13.4999999999999,0.));
#283=CARTESIAN_POINT('Origin',(0.,13.4999999999999,0.));
#284=CARTESIAN_POINT('Origin',(0.,7.24999999999992,0.));
#285=CARTESIAN_POINT('',(4.,0.999999999999914,0.));
#286=CARTESIAN_POINT('Origin',(0.,0.999999999999903,0.));
#287=CARTESIAN_POINT('Origin',(4.5,0.999999999999904,0.));
#288=CARTESIAN_POINT('',(5.,0.999999999999893,0.));
#289=CARTESIAN_POINT('Origin',(0.,0.999999999999893,0.));
#290=CARTESIAN_POINT('Origin',(0.,0.499999999999891,0.));
#291=UNCERTAINTY_MEASURE_WITH_UNIT(LENGTH_MEASURE(0.01),#293,
'DISTANCE_ACCURACY_VALUE',
'Maximum model space distance between geometric entities at asserted c
onnectivities');
#292=(
GEOMETRIC_REPRESENTATION_CONTEXT(3)
GLOBAL_UNCERTAINTY_ASSIGNED_CONTEXT((#291))
GLOBAL_UNIT_ASSIGNED_CONTEXT((#293,#296,#294))
REPRESENTATION_CONTEXT('','3D')
);
#293=(
LENGTH_UNIT()
NAMED_UNIT(*)
SI_UNIT(.MILLI.,.METRE.)
);
#294=(
NAMED_UNIT(*)
SI_UNIT($,.STERADIAN.)
SOLID_ANGLE_UNIT()
);
#295=DIMENSIONAL_EXPONENTS(0.,0.,0.,0.,0.,0.,0.);
#296=(
CONVERSION_BASED_UNIT('degree',#298)
NAMED_UNIT(#295)
PLANE_ANGLE_UNIT()
);
#297=(
NAMED_UNIT(*)
PLANE_ANGLE_UNIT()
SI_UNIT($,.RADIAN.)
);
#298=PLANE_ANGLE_MEASURE_WITH_UNIT(PLANE_ANGLE_MEASURE(0.01745329252),#297);
#299=SHAPE_DEFINITION_REPRESENTATION(#300,#301);
#300=PRODUCT_DEFINITION_SHAPE('',$,#303);
#301=SHAPE_REPRESENTATION('',(#169),#292);
#302=PRODUCT_DEFINITION_CONTEXT('3D Mechanical Parts',#306,'design');
#303=PRODUCT_DEFINITION('XT90125','XT90125',#304,#302);
#304=PRODUCT_DEFINITION_FORMATION('',$,#308);
#305=APPLICATION_PROTOCOL_DEFINITION('international standard',
'automotive_design',2009,#306);
#306=APPLICATION_CONTEXT(
'Core Data for Automotive Mechanical Design Process');
#307=PRODUCT_CONTEXT('3D Mechanical Parts',#306,'mechanical');
#308=PRODUCT('XT90125','XT90125',$,(#307));
#309=PRESENTATION_STYLE_ASSIGNMENT((#310));
#310=SURFACE_STYLE_USAGE(.BOTH.,#311);
#311=SURFACE_SIDE_STYLE($,(#312));
#312=SURFACE_STYLE_FILL_AREA(#313);
#313=FILL_AREA_STYLE($,(#314));
#314=FILL_AREA_STYLE_COLOUR($,#315);
#315=COLOUR_RGB('',0.956862745098039,0.956862745098039,0.956862745098039);
ENDSEC;
END-ISO-10303-21;
