ISO-10303-21;
HEADER;
/* Generated by software containing ST-Developer
 * from STEP Tools, Inc. (www.steptools.com) 
 */

FILE_DESCRIPTION(
/* description */ ('PERNO FEMMINA D.8x13.5H'),
/* implementation_level */ '2;1');

FILE_NAME(
/* name */ 
'C:\\Users\\ddelbianco.DR\\Desktop\\PER LAURA\\PAG. 18\\XT90127.stp',
/* time_stamp */ '2014-05-14T09:19:31+02:00',
/* author */ ('ddelbianco'),
/* organization */ (''),
/* preprocessor_version */ 'ST-DEVELOPER v15.2',
/* originating_system */ 'Autodesk Inventor 2014',
/* authorisation */ '');

FILE_SCHEMA (('AUTOMOTIVE_DESIGN { 1 0 10303 214 3 1 1 }'));
ENDSEC;

DATA;
#10=SHAPE_REPRESENTATION_RELATIONSHIP('SRR','None',#301,#11);
#11=ADVANCED_BREP_SHAPE_REPRESENTATION($,(#168),#292);
#12=STYLED_ITEM($,(#309),#168);
#13=LINE($,#259,#21);
#14=LINE($,#261,#22);
#15=LINE($,#263,#23);
#16=LINE($,#264,#24);
#17=LINE($,#268,#25);
#18=LINE($,#270,#26);
#19=LINE($,#272,#27);
#20=LINE($,#273,#28);
#21=VECTOR($,#208,9.9498743710662);
#22=VECTOR($,#209,0.8);
#23=VECTOR($,#210,9.9498743710662);
#24=VECTOR($,#211,0.8);
#25=VECTOR($,#214,9.9498743710662);
#26=VECTOR($,#215,0.8);
#27=VECTOR($,#216,9.9498743710662);
#28=VECTOR($,#217,0.8);
#29=PLANE($,#176);
#30=PLANE($,#177);
#31=PLANE($,#178);
#32=PLANE($,#181);
#33=PLANE($,#183);
#34=PLANE($,#188);
#35=PLANE($,#189);
#36=CYLINDRICAL_SURFACE($,#175,2.067);
#37=CYLINDRICAL_SURFACE($,#185,4.);
#38=CYLINDRICAL_SURFACE($,#191,5.);
#39=FACE_BOUND($,#59,.T.);
#40=FACE_BOUND($,#61,.T.);
#41=FACE_BOUND($,#68,.T.);
#42=FACE_BOUND($,#69,.T.);
#43=FACE_BOUND($,#70,.T.);
#44=FACE_BOUND($,#71,.T.);
#45=FACE_BOUND($,#72,.T.);
#46=FACE_BOUND($,#74,.T.);
#47=FACE_OUTER_BOUND($,#57,.T.);
#48=FACE_OUTER_BOUND($,#58,.T.);
#49=FACE_OUTER_BOUND($,#60,.T.);
#50=FACE_OUTER_BOUND($,#62,.T.);
#51=FACE_OUTER_BOUND($,#63,.T.);
#52=FACE_OUTER_BOUND($,#64,.T.);
#53=FACE_OUTER_BOUND($,#65,.T.);
#54=FACE_OUTER_BOUND($,#66,.T.);
#55=FACE_OUTER_BOUND($,#67,.T.);
#56=FACE_OUTER_BOUND($,#73,.T.);
#57=EDGE_LOOP($,(#117));
#58=EDGE_LOOP($,(#118));
#59=EDGE_LOOP($,(#119));
#60=EDGE_LOOP($,(#120));
#61=EDGE_LOOP($,(#121));
#62=EDGE_LOOP($,(#122,#123,#124,#125));
#63=EDGE_LOOP($,(#126,#127,#128,#129));
#64=EDGE_LOOP($,(#130,#131,#132,#133));
#65=EDGE_LOOP($,(#134,#135));
#66=EDGE_LOOP($,(#136,#137));
#67=EDGE_LOOP($,(#138));
#68=EDGE_LOOP($,(#139));
#69=EDGE_LOOP($,(#140));
#70=EDGE_LOOP($,(#141));
#71=EDGE_LOOP($,(#142));
#72=EDGE_LOOP($,(#143));
#73=EDGE_LOOP($,(#144,#145,#146,#147,#148,#149,#150,#151));
#74=EDGE_LOOP($,(#152));
#75=CIRCLE($,#171,2.067);
#76=CIRCLE($,#173,3.65);
#77=CIRCLE($,#174,2.067);
#78=CIRCLE($,#179,5.);
#79=CIRCLE($,#180,5.);
#80=CIRCLE($,#182,5.);
#81=CIRCLE($,#184,5.);
#82=CIRCLE($,#186,4.);
#83=CIRCLE($,#187,4.);
#84=CIRCLE($,#190,5.);
#85=VERTEX_POINT($,#248);
#86=VERTEX_POINT($,#251);
#87=VERTEX_POINT($,#253);
#88=VERTEX_POINT($,#257);
#89=VERTEX_POINT($,#258);
#90=VERTEX_POINT($,#260);
#91=VERTEX_POINT($,#262);
#92=VERTEX_POINT($,#266);
#93=VERTEX_POINT($,#267);
#94=VERTEX_POINT($,#269);
#95=VERTEX_POINT($,#271);
#96=VERTEX_POINT($,#282);
#97=VERTEX_POINT($,#284);
#98=VERTEX_POINT($,#288);
#99=EDGE_CURVE($,#85,#85,#75,.T.);
#100=EDGE_CURVE($,#86,#86,#76,.T.);
#101=EDGE_CURVE($,#87,#87,#77,.T.);
#102=EDGE_CURVE($,#88,#89,#13,.T.);
#103=EDGE_CURVE($,#90,#88,#14,.T.);
#104=EDGE_CURVE($,#90,#91,#15,.T.);
#105=EDGE_CURVE($,#89,#91,#16,.T.);
#106=EDGE_CURVE($,#92,#93,#17,.T.);
#107=EDGE_CURVE($,#94,#92,#18,.T.);
#108=EDGE_CURVE($,#94,#95,#19,.T.);
#109=EDGE_CURVE($,#93,#95,#20,.T.);
#110=EDGE_CURVE($,#91,#94,#78,.T.);
#111=EDGE_CURVE($,#95,#90,#79,.T.);
#112=EDGE_CURVE($,#89,#88,#80,.T.);
#113=EDGE_CURVE($,#93,#92,#81,.T.);
#114=EDGE_CURVE($,#96,#96,#82,.T.);
#115=EDGE_CURVE($,#97,#97,#83,.T.);
#116=EDGE_CURVE($,#98,#98,#84,.T.);
#117=ORIENTED_EDGE($,*,*,#99,.T.);
#118=ORIENTED_EDGE($,*,*,#100,.F.);
#119=ORIENTED_EDGE($,*,*,#101,.F.);
#120=ORIENTED_EDGE($,*,*,#101,.T.);
#121=ORIENTED_EDGE($,*,*,#99,.F.);
#122=ORIENTED_EDGE($,*,*,#102,.F.);
#123=ORIENTED_EDGE($,*,*,#103,.F.);
#124=ORIENTED_EDGE($,*,*,#104,.T.);
#125=ORIENTED_EDGE($,*,*,#105,.F.);
#126=ORIENTED_EDGE($,*,*,#106,.F.);
#127=ORIENTED_EDGE($,*,*,#107,.F.);
#128=ORIENTED_EDGE($,*,*,#108,.T.);
#129=ORIENTED_EDGE($,*,*,#109,.F.);
#130=ORIENTED_EDGE($,*,*,#108,.F.);
#131=ORIENTED_EDGE($,*,*,#110,.F.);
#132=ORIENTED_EDGE($,*,*,#104,.F.);
#133=ORIENTED_EDGE($,*,*,#111,.F.);
#134=ORIENTED_EDGE($,*,*,#102,.T.);
#135=ORIENTED_EDGE($,*,*,#112,.T.);
#136=ORIENTED_EDGE($,*,*,#106,.T.);
#137=ORIENTED_EDGE($,*,*,#113,.T.);
#138=ORIENTED_EDGE($,*,*,#114,.F.);
#139=ORIENTED_EDGE($,*,*,#115,.T.);
#140=ORIENTED_EDGE($,*,*,#100,.T.);
#141=ORIENTED_EDGE($,*,*,#115,.F.);
#142=ORIENTED_EDGE($,*,*,#114,.T.);
#143=ORIENTED_EDGE($,*,*,#116,.F.);
#144=ORIENTED_EDGE($,*,*,#107,.T.);
#145=ORIENTED_EDGE($,*,*,#113,.F.);
#146=ORIENTED_EDGE($,*,*,#109,.T.);
#147=ORIENTED_EDGE($,*,*,#111,.T.);
#148=ORIENTED_EDGE($,*,*,#103,.T.);
#149=ORIENTED_EDGE($,*,*,#112,.F.);
#150=ORIENTED_EDGE($,*,*,#105,.T.);
#151=ORIENTED_EDGE($,*,*,#110,.T.);
#152=ORIENTED_EDGE($,*,*,#116,.T.);
#153=CONICAL_SURFACE($,#170,1.0335,59.);
#154=CONICAL_SURFACE($,#172,2.8585,45.);
#155=ADVANCED_FACE($,(#47),#153,.F.);
#156=ADVANCED_FACE($,(#48,#39),#154,.F.);
#157=ADVANCED_FACE($,(#49,#40),#36,.F.);
#158=ADVANCED_FACE($,(#50),#29,.F.);
#159=ADVANCED_FACE($,(#51),#30,.F.);
#160=ADVANCED_FACE($,(#52),#31,.F.);
#161=ADVANCED_FACE($,(#53),#32,.T.);
#162=ADVANCED_FACE($,(#54),#33,.T.);
#163=ADVANCED_FACE($,(#55,#41),#37,.T.);
#164=ADVANCED_FACE($,(#42,#43),#34,.T.);
#165=ADVANCED_FACE($,(#44,#45),#35,.T.);
#166=ADVANCED_FACE($,(#56,#46),#38,.T.);
#167=CLOSED_SHELL($,(#155,#156,#157,#158,#159,#160,#161,#162,#163,#164,
#165,#166));
#168=MANIFOLD_SOLID_BREP('Solido1',#167);
#169=AXIS2_PLACEMENT_3D('placement',#246,#192,#193);
#170=AXIS2_PLACEMENT_3D($,#247,#194,#195);
#171=AXIS2_PLACEMENT_3D($,#249,#196,#197);
#172=AXIS2_PLACEMENT_3D($,#250,#198,#199);
#173=AXIS2_PLACEMENT_3D($,#252,#200,#201);
#174=AXIS2_PLACEMENT_3D($,#254,#202,#203);
#175=AXIS2_PLACEMENT_3D($,#255,#204,#205);
#176=AXIS2_PLACEMENT_3D($,#256,#206,#207);
#177=AXIS2_PLACEMENT_3D($,#265,#212,#213);
#178=AXIS2_PLACEMENT_3D($,#274,#218,#219);
#179=AXIS2_PLACEMENT_3D($,#275,#220,#221);
#180=AXIS2_PLACEMENT_3D($,#276,#222,#223);
#181=AXIS2_PLACEMENT_3D($,#277,#224,#225);
#182=AXIS2_PLACEMENT_3D($,#278,#226,#227);
#183=AXIS2_PLACEMENT_3D($,#279,#228,#229);
#184=AXIS2_PLACEMENT_3D($,#280,#230,#231);
#185=AXIS2_PLACEMENT_3D($,#281,#232,#233);
#186=AXIS2_PLACEMENT_3D($,#283,#234,#235);
#187=AXIS2_PLACEMENT_3D($,#285,#236,#237);
#188=AXIS2_PLACEMENT_3D($,#286,#238,#239);
#189=AXIS2_PLACEMENT_3D($,#287,#240,#241);
#190=AXIS2_PLACEMENT_3D($,#289,#242,#243);
#191=AXIS2_PLACEMENT_3D($,#290,#244,#245);
#192=DIRECTION('axis',(0.,0.,1.));
#193=DIRECTION('refdir',(1.,0.,0.));
#194=DIRECTION('center_axis',(0.,1.,0.));
#195=DIRECTION('ref_axis',(1.,0.,0.));
#196=DIRECTION('center_axis',(0.,1.,0.));
#197=DIRECTION('ref_axis',(1.,0.,0.));
#198=DIRECTION('center_axis',(0.,1.,0.));
#199=DIRECTION('ref_axis',(1.,0.,0.));
#200=DIRECTION('center_axis',(0.,-1.,0.));
#201=DIRECTION('ref_axis',(1.,0.,0.));
#202=DIRECTION('center_axis',(0.,1.,0.));
#203=DIRECTION('ref_axis',(1.,0.,0.));
#204=DIRECTION('center_axis',(0.,1.,0.));
#205=DIRECTION('ref_axis',(1.,0.,0.));
#206=DIRECTION('center_axis',(1.,0.,0.));
#207=DIRECTION('ref_axis',(0.,0.,-1.));
#208=DIRECTION($,(0.,0.,-1.));
#209=DIRECTION($,(0.,-1.,0.));
#210=DIRECTION($,(0.,0.,-1.));
#211=DIRECTION($,(0.,1.,0.));
#212=DIRECTION('center_axis',(-1.,0.,0.));
#213=DIRECTION('ref_axis',(0.,0.,1.));
#214=DIRECTION($,(0.,0.,1.));
#215=DIRECTION($,(0.,-1.,0.));
#216=DIRECTION($,(0.,0.,1.));
#217=DIRECTION($,(0.,1.,0.));
#218=DIRECTION('center_axis',(-7.43618456388562E-019,1.,-6.02180804712986E-032));
#219=DIRECTION('ref_axis',(0.,0.,1.));
#220=DIRECTION('center_axis',(-7.43618456388562E-019,1.,-6.02180804712986E-032));
#221=DIRECTION('ref_axis',(1.,0.,0.));
#222=DIRECTION('center_axis',(-7.43618456388562E-019,1.,-6.02180804712986E-032));
#223=DIRECTION('ref_axis',(1.,0.,0.));
#224=DIRECTION('center_axis',(0.,-1.,0.));
#225=DIRECTION('ref_axis',(0.,0.,-1.));
#226=DIRECTION('center_axis',(0.,-1.,0.));
#227=DIRECTION('ref_axis',(1.,0.,0.));
#228=DIRECTION('center_axis',(0.,-1.,0.));
#229=DIRECTION('ref_axis',(0.,0.,-1.));
#230=DIRECTION('center_axis',(0.,-1.,0.));
#231=DIRECTION('ref_axis',(1.,0.,0.));
#232=DIRECTION('center_axis',(0.,-1.,0.));
#233=DIRECTION('ref_axis',(1.,0.,0.));
#234=DIRECTION('center_axis',(0.,-1.,0.));
#235=DIRECTION('ref_axis',(1.,0.,0.));
#236=DIRECTION('center_axis',(0.,-1.,0.));
#237=DIRECTION('ref_axis',(1.,0.,0.));
#238=DIRECTION('center_axis',(0.,1.,0.));
#239=DIRECTION('ref_axis',(0.,0.,1.));
#240=DIRECTION('center_axis',(0.,1.,0.));
#241=DIRECTION('ref_axis',(0.,0.,1.));
#242=DIRECTION('center_axis',(0.,-1.,0.));
#243=DIRECTION('ref_axis',(1.,0.,0.));
#244=DIRECTION('center_axis',(0.,-1.,0.));
#245=DIRECTION('ref_axis',(1.,0.,0.));
#246=CARTESIAN_POINT('',(0.,0.,0.));
#247=CARTESIAN_POINT('Origin',(0.,2.87901055023502,0.));
#248=CARTESIAN_POINT('',(2.067,3.5,0.));
#249=CARTESIAN_POINT('Origin',(0.,3.5,0.));
#250=CARTESIAN_POINT('Origin',(0.,12.7085,0.));
#251=CARTESIAN_POINT('',(3.65,13.5,0.));
#252=CARTESIAN_POINT('Origin',(0.,13.5,0.));
#253=CARTESIAN_POINT('',(2.067,11.917,0.));
#254=CARTESIAN_POINT('Origin',(0.,11.917,0.));
#255=CARTESIAN_POINT('Origin',(0.,8.5,0.));
#256=CARTESIAN_POINT('Origin',(0.5,0.,4.9749371855331));
#257=CARTESIAN_POINT('',(0.5,0.,4.9749371855331));
#258=CARTESIAN_POINT('',(0.5,0.,-4.9749371855331));
#259=CARTESIAN_POINT($,(0.5,0.,2.48746859276655));
#260=CARTESIAN_POINT('',(0.5,0.8,4.9749371855331));
#261=CARTESIAN_POINT($,(0.5,0.5,4.9749371855331));
#262=CARTESIAN_POINT('',(0.5,0.8,-4.9749371855331));
#263=CARTESIAN_POINT($,(0.5,0.8,-4.9749371855331));
#264=CARTESIAN_POINT($,(0.5,0.5,-4.9749371855331));
#265=CARTESIAN_POINT('Origin',(-0.5,0.,-4.9749371855331));
#266=CARTESIAN_POINT('',(-0.5,0.,-4.9749371855331));
#267=CARTESIAN_POINT('',(-0.5,0.,4.9749371855331));
#268=CARTESIAN_POINT($,(-0.5,0.,-2.48746859276655));
#269=CARTESIAN_POINT('',(-0.5,0.8,-4.9749371855331));
#270=CARTESIAN_POINT($,(-0.5,0.5,-4.9749371855331));
#271=CARTESIAN_POINT('',(-0.5,0.8,4.9749371855331));
#272=CARTESIAN_POINT($,(-0.5,0.8,4.9749371855331));
#273=CARTESIAN_POINT($,(-0.5,0.5,4.9749371855331));
#274=CARTESIAN_POINT('Origin',(9.57015160262727E-017,0.8,-1.24011525458475E-015));
#275=CARTESIAN_POINT('Origin',(0.,0.8,0.));
#276=CARTESIAN_POINT('Origin',(0.,0.8,0.));
#277=CARTESIAN_POINT('Origin',(2.5,0.,0.));
#278=CARTESIAN_POINT('Origin',(0.,0.,0.));
#279=CARTESIAN_POINT('Origin',(2.5,0.,0.));
#280=CARTESIAN_POINT('Origin',(0.,0.,0.));
#281=CARTESIAN_POINT('Origin',(0.,7.25,0.));
#282=CARTESIAN_POINT('',(4.,1.,0.));
#283=CARTESIAN_POINT('Origin',(0.,1.,0.));
#284=CARTESIAN_POINT('',(4.,13.5,0.));
#285=CARTESIAN_POINT('Origin',(0.,13.5,0.));
#286=CARTESIAN_POINT('Origin',(2.,13.5,0.));
#287=CARTESIAN_POINT('Origin',(4.5,1.,0.));
#288=CARTESIAN_POINT('',(5.,1.,0.));
#289=CARTESIAN_POINT('Origin',(0.,1.,0.));
#290=CARTESIAN_POINT('Origin',(0.,0.5,0.));
#291=UNCERTAINTY_MEASURE_WITH_UNIT(LENGTH_MEASURE(0.01),#293,
'DISTANCE_ACCURACY_VALUE',
'Maximum model space distance between geometric entities at asserted c
onnectivities');
#292=(
GEOMETRIC_REPRESENTATION_CONTEXT(3)
GLOBAL_UNCERTAINTY_ASSIGNED_CONTEXT((#291))
GLOBAL_UNIT_ASSIGNED_CONTEXT((#293,#296,#294))
REPRESENTATION_CONTEXT('','3D')
);
#293=(
LENGTH_UNIT()
NAMED_UNIT(*)
SI_UNIT(.MILLI.,.METRE.)
);
#294=(
NAMED_UNIT(*)
SI_UNIT($,.STERADIAN.)
SOLID_ANGLE_UNIT()
);
#295=DIMENSIONAL_EXPONENTS(0.,0.,0.,0.,0.,0.,0.);
#296=(
CONVERSION_BASED_UNIT('degree',#298)
NAMED_UNIT(#295)
PLANE_ANGLE_UNIT()
);
#297=(
NAMED_UNIT(*)
PLANE_ANGLE_UNIT()
SI_UNIT($,.RADIAN.)
);
#298=PLANE_ANGLE_MEASURE_WITH_UNIT(PLANE_ANGLE_MEASURE(0.01745329252),#297);
#299=SHAPE_DEFINITION_REPRESENTATION(#300,#301);
#300=PRODUCT_DEFINITION_SHAPE('',$,#303);
#301=SHAPE_REPRESENTATION('',(#169),#292);
#302=PRODUCT_DEFINITION_CONTEXT('3D Mechanical Parts',#306,'design');
#303=PRODUCT_DEFINITION('XT90127','XT90127',#304,#302);
#304=PRODUCT_DEFINITION_FORMATION('',$,#308);
#305=APPLICATION_PROTOCOL_DEFINITION('international standard',
'automotive_design',2009,#306);
#306=APPLICATION_CONTEXT(
'Core Data for Automotive Mechanical Design Process');
#307=PRODUCT_CONTEXT('3D Mechanical Parts',#306,'mechanical');
#308=PRODUCT('XT90127','XT90127',$,(#307));
#309=PRESENTATION_STYLE_ASSIGNMENT((#310));
#310=SURFACE_STYLE_USAGE(.BOTH.,#311);
#311=SURFACE_SIDE_STYLE($,(#312));
#312=SURFACE_STYLE_FILL_AREA(#313);
#313=FILL_AREA_STYLE($,(#314));
#314=FILL_AREA_STYLE_COLOUR($,#315);
#315=COLOUR_RGB('',0.956862745098039,0.956862745098039,0.956862745098039);
ENDSEC;
END-ISO-10303-21;
