  0
SECTION
  2
HEADER
  9
$ACADVER
  1
AC1015
  9
$ACADMAINTVER
 70
    20
  9
$DWGCODEPAGE
  3
ANSI_1252
  9
$INSBASE
 10
0.0
 20
0.0
 30
0.0
  9
$EXTMIN
 10
827.5446402389274
 20
1472.518951199245
 30
0.0
  9
$EXTMAX
 10
1247.544640238927
 20
1769.518951199245
 30
0.0007628928878773
  9
$LIMMIN
 10
0.0
 20
0.0
  9
$LIMMAX
 10
12.0
 20
9.0
  9
$ORTHOMODE
 70
     0
  9
$REGENMODE
 70
     1
  9
$FILLMODE
 70
     1
  9
$QTEXTMODE
 70
     0
  9
$MIRRTEXT
 70
     1
  9
$LTSCALE
 40
25.0
  9
$ATTMODE
 70
     1
  9
$TEXTSIZE
 40
0.2
  9
$TRACEWID
 40
0.05
  9
$TEXTSTYLE
  7
SIMPLEX
  9
$CLAYER
  8
P-0000
  9
$CELTYPE
  6
ASSI
  9
$CECOLOR
 62
     2
  9
$CELTSCALE
 40
1.0
  9
$DISPSILH
 70
     0
  9
$DIMSCALE
 40
1.0
  9
$DIMASZ
 40
2.0
  9
$DIMEXO
 40
1.0
  9
$DIMDLI
 40
10.0
  9
$DIMRND
 40
0.0
  9
$DIMDLE
 40
0.0
  9
$DIMEXE
 40
1.5
  9
$DIMTP
 40
0.0
  9
$DIMTM
 40
0.0
  9
$DIMTXT
 40
2.0
  9
$DIMCEN
 40
2.0
  9
$DIMTSZ
 40
0.0
  9
$DIMTOL
 70
     0
  9
$DIMLIM
 70
     0
  9
$DIMTIH
 70
     0
  9
$DIMTOH
 70
     0
  9
$DIMSE1
 70
     0
  9
$DIMSE2
 70
     0
  9
$DIMTAD
 70
     1
  9
$DIMZIN
 70
     8
  9
$DIMBLK
  1

  9
$DIMASO
 70
     1
  9
$DIMSHO
 70
     1
  9
$DIMPOST
  1

  9
$DIMAPOST
  1

  9
$DIMALT
 70
     0
  9
$DIMALTD
 70
     2
  9
$DIMALTF
 40
25.4
  9
$DIMLFAC
 40
1.0
  9
$DIMTOFL
 70
     1
  9
$DIMTVP
 40
0.0
  9
$DIMTIX
 70
     0
  9
$DIMSOXD
 70
     0
  9
$DIMSAH
 70
     0
  9
$DIMBLK1
  1

  9
$DIMBLK2
  1

  9
$DIMSTYLE
  2
ACADTOP
  9
$DIMCLRD
 70
     2
  9
$DIMCLRE
 70
     2
  9
$DIMCLRT
 70
     1
  9
$DIMTFAC
 40
0.6
  9
$DIMGAP
 40
1.0
  9
$DIMJUST
 70
     0
  9
$DIMSD1
 70
     0
  9
$DIMSD2
 70
     0
  9
$DIMTOLJ
 70
     1
  9
$DIMTZIN
 70
     8
  9
$DIMALTZ
 70
     0
  9
$DIMALTTZ
 70
     0
  9
$DIMUPT
 70
     0
  9
$DIMDEC
 70
     2
  9
$DIMTDEC
 70
     2
  9
$DIMALTU
 70
     2
  9
$DIMALTTD
 70
     2
  9
$DIMTXSTY
  7
Stile_Quota
  9
$DIMAUNIT
 70
     0
  9
$DIMADEC
 70
     1
  9
$DIMALTRND
 40
0.0
  9
$DIMAZIN
 70
     2
  9
$DIMDSEP
 70
    46
  9
$DIMATFIT
 70
     0
  9
$DIMFRAC
 70
     0
  9
$DIMLDRBLK
  1

  9
$DIMLUNIT
 70
     2
  9
$DIMLWD
 70
    -2
  9
$DIMLWE
 70
    -2
  9
$DIMTMOVE
 70
     0
  9
$LUNITS
 70
     2
  9
$LUPREC
 70
     2
  9
$SKETCHINC
 40
0.1
  9
$FILLETRAD
 40
0.0
  9
$AUNITS
 70
     0
  9
$AUPREC
 70
     0
  9
$MENU
  1
acad
  9
$ELEVATION
 40
0.0
  9
$PELEVATION
 40
0.0
  9
$THICKNESS
 40
0.0
  9
$LIMCHECK
 70
     0
  9
$CHAMFERA
 40
0.0
  9
$CHAMFERB
 40
0.0
  9
$CHAMFERC
 40
0.0
  9
$CHAMFERD
 40
0.0
  9
$SKPOLY
 70
     0
  9
$TDCREATE
 40
2452802.310883912
  9
$TDUCREATE
 40
2452802.227550579
  9
$TDUPDATE
 40
2455705.639090070
  9
$TDUUPDATE
 40
2455705.555756736
  9
$TDINDWG
 40
0.3501475231
  9
$TDUSRTIMER
 40
0.3501475231
  9
$USRTIMER
 70
     1
  9
$ANGBASE
 50
0.0
  9
$ANGDIR
 70
     0
  9
$PDMODE
 70
     0
  9
$PDSIZE
 40
0.0
  9
$PLINEWID
 40
0.0
  9
$SPLFRAME
 70
     0
  9
$SPLINETYPE
 70
     6
  9
$SPLINESEGS
 70
     8
  9
$HANDSEED
  5
24E5
  9
$SURFTAB1
 70
     6
  9
$SURFTAB2
 70
     6
  9
$SURFTYPE
 70
     6
  9
$SURFU
 70
     6
  9
$SURFV
 70
     6
  9
$UCSBASE
  2

  9
$UCSNAME
  2

  9
$UCSORG
 10
0.0
 20
0.0
 30
0.0
  9
$UCSXDIR
 10
1.0
 20
0.0
 30
0.0
  9
$UCSYDIR
 10
0.0
 20
1.0
 30
0.0
  9
$UCSORTHOREF
  2

  9
$UCSORTHOVIEW
 70
     0
  9
$UCSORGTOP
 10
0.0
 20
0.0
 30
0.0
  9
$UCSORGBOTTOM
 10
0.0
 20
0.0
 30
0.0
  9
$UCSORGLEFT
 10
0.0
 20
0.0
 30
0.0
  9
$UCSORGRIGHT
 10
0.0
 20
0.0
 30
0.0
  9
$UCSORGFRONT
 10
0.0
 20
0.0
 30
0.0
  9
$UCSORGBACK
 10
0.0
 20
0.0
 30
0.0
  9
$PUCSBASE
  2

  9
$PUCSNAME
  2

  9
$PUCSORG
 10
0.0
 20
0.0
 30
0.0
  9
$PUCSXDIR
 10
1.0
 20
0.0
 30
0.0
  9
$PUCSYDIR
 10
0.0
 20
1.0
 30
0.0
  9
$PUCSORTHOREF
  2

  9
$PUCSORTHOVIEW
 70
     0
  9
$PUCSORGTOP
 10
0.0
 20
0.0
 30
0.0
  9
$PUCSORGBOTTOM
 10
0.0
 20
0.0
 30
0.0
  9
$PUCSORGLEFT
 10
0.0
 20
0.0
 30
0.0
  9
$PUCSORGRIGHT
 10
0.0
 20
0.0
 30
0.0
  9
$PUCSORGFRONT
 10
0.0
 20
0.0
 30
0.0
  9
$PUCSORGBACK
 10
0.0
 20
0.0
 30
0.0
  9
$USERI1
 70
     0
  9
$USERI2
 70
     0
  9
$USERI3
 70
     0
  9
$USERI4
 70
     0
  9
$USERI5
 70
     0
  9
$USERR1
 40
0.0
  9
$USERR2
 40
0.0
  9
$USERR3
 40
0.0
  9
$USERR4
 40
0.0
  9
$USERR5
 40
0.0
  9
$WORLDVIEW
 70
     1
  9
$SHADEDGE
 70
     3
  9
$SHADEDIF
 70
    70
  9
$TILEMODE
 70
     1
  9
$MAXACTVP
 70
    16
  9
$PINSBASE
 10
0.0
 20
0.0
 30
0.0
  9
$PLIMCHECK
 70
     0
  9
$PEXTMIN
 10
1.000000000000000E+20
 20
1.000000000000000E+20
 30
1.000000000000000E+20
  9
$PEXTMAX
 10
-1.000000000000000E+20
 20
-1.000000000000000E+20
 30
-1.000000000000000E+20
  9
$PLIMMIN
 10
0.0
 20
0.0
  9
$PLIMMAX
 10
12.0
 20
9.0
  9
$UNITMODE
 70
     0
  9
$VISRETAIN
 70
     0
  9
$PLINEGEN
 70
     0
  9
$PSLTSCALE
 70
     1
  9
$TREEDEPTH
 70
  3020
  9
$CMLSTYLE
  2
STANDARD
  9
$CMLJUST
 70
     0
  9
$CMLSCALE
 40
1.0
  9
$PROXYGRAPHICS
 70
     1
  9
$MEASUREMENT
 70
     1
  9
$CELWEIGHT
370
    -1
  9
$ENDCAPS
280
     0
  9
$JOINSTYLE
280
     0
  9
$LWDISPLAY
290
     0
  9
$INSUNITS
 70
     0
  9
$HYPERLINKBASE
  1

  9
$STYLESHEET
  1
DIERRE BN.ctb
  9
$XEDIT
290
     1
  9
$CEPSNTYPE
380
     0
  9
$PSTYLEMODE
290
     1
  9
$FINGERPRINTGUID
  2
{C2D23504-8AAE-493B-ACC1-1BD438FCB5E1}
  9
$VERSIONGUID
  2
{28741E41-D705-4CBE-8149-0D8724099FA7}
  9
$EXTNAMES
290
     1
  9
$PSVPSCALE
 40
0.0
  9
$OLESTARTUP
290
     0
  0
ENDSEC
  0
SECTION
  2
CLASSES
  0
CLASS
  1
LWPOLYLINE
  2
AcDbPolyline
  3
ObjectDBX Classes
 90
        0
280
     0
281
     1
  0
CLASS
  1
HATCH
  2
AcDbHatch
  3
ObjectDBX Classes
 90
        0
280
     0
281
     1
  0
CLASS
  1
ACDBDICTIONARYWDFLT
  2
AcDbDictionaryWithDefault
  3
ObjectDBX Classes
 90
        0
280
     0
281
     0
  0
CLASS
  1
MATERIAL
  2
AcDbMaterial
  3
ObjectDBX Classes
 90
     1153
280
     0
281
     0
  0
CLASS
  1
VISUALSTYLE
  2
AcDbVisualStyle
  3
ObjectDBX Classes
 90
     4095
280
     0
281
     0
  0
CLASS
  1
TABLESTYLE
  2
AcDbTableStyle
  3
ObjectDBX Classes
 90
     4095
280
     0
281
     0
  0
CLASS
  1
SCALE
  2
AcDbScale
  3
ObjectDBX Classes
 90
     1153
280
     0
281
     0
  0
CLASS
  1
MLEADERSTYLE
  2
AcDbMLeaderStyle
  3
ACDB_MLEADERSTYLE_CLASS
 90
     4095
280
     0
281
     0
  0
CLASS
  1
ACDBQSCATEGORY
  2
AcQsCategory
  3
categories
 90
     1024
280
     0
281
     0
  0
CLASS
  1
PLOTSETTINGS
  2
AcDbPlotSettings
  3
ObjectDBX Classes
 90
        0
280
     0
281
     0
  0
CLASS
  1
AEC_REFEDIT_STATUS_TRACKER
  2
AecDbRefEditStatusTracker
  3
AecArchBase50|Product Desc: Autodesk Architectural Desktop 2007 |Company: Autodesk,Inc. |WEB Address: www.autodesk.com
 90
    32897
280
     0
281
     0
  0
CLASS
  1
NPOCOLLECTION
  2
AcDbImpNonPersistentObjectsCollection
  3
ObjectDBX Classes
 90
    33921
280
     0
281
     0
  0
CLASS
  1
CELLSTYLEMAP
  2
AcDbCellStyleMap
  3
ObjectDBX Classes
 90
     1152
280
     0
281
     0
  0
CLASS
  1
DICTIONARYVAR
  2
AcDbDictionaryVar
  3
ObjectDBX Classes
 90
        0
280
     0
281
     0
  0
CLASS
  1
ACDBQSPALLSTYLE
  2
AcQsPallStyle
  3
pallcart
 90
     1024
280
     0
281
     0
  0
CLASS
  1
ACDBPLACEHOLDER
  2
AcDbPlaceHolder
  3
ObjectDBX Classes
 90
        0
280
     0
281
     0
  0
CLASS
  1
LAYOUT
  2
AcDbLayout
  3
ObjectDBX Classes
 90
        0
280
     0
281
     0
  0
ENDSEC
  0
SECTION
  2
TABLES
  0
TABLE
  2
VPORT
  5
8
330
0
100
AcDbSymbolTable
 70
     1
  0
VPORT
  5
177F
330
8
100
AcDbSymbolTableRecord
100
AcDbViewportTableRecord
  2
*ACTIVE
 70
     0
 10
0.0
 20
0.0
 11
1.0
 21
1.0
 12
1206.40115811361
 22
1469.664954711259
 13
0.0
 23
0.0
 14
1.0
 24
1.0
 15
0.0
 25
0.0
 16
0.0
 26
0.0
 36
1.0
 17
0.0
 27
0.0
 37
0.0
 40
1053.614935776763
 41
2.217081850533807
 42
50.0
 43
0.0
 44
0.0
 50
0.0
 51
0.0
 71
     0
 72
   100
 73
     1
 74
     0
 75
     0
 76
     0
 77
     0
 78
     0
281
     0
 65
     1
110
0.0
120
0.0
130
0.0
111
1.0
121
0.0
131
0.0
112
0.0
122
1.0
132
0.0
 79
     0
146
0.0
  0
ENDTAB
  0
TABLE
  2
LTYPE
  5
5
330
0
100
AcDbSymbolTable
 70
    30
  0
LTYPE
  5
12
330
5
100
AcDbSymbolTableRecord
100
AcDbLinetypeTableRecord
  2
BYBLOCK
 70
     0
  3

 72
    65
 73
     0
 40
0.0
  0
LTYPE
  5
13
330
5
100
AcDbSymbolTableRecord
100
AcDbLinetypeTableRecord
  2
BYLAYER
 70
     0
  3

 72
    65
 73
     0
 40
0.0
  0
LTYPE
  5
14
330
5
100
AcDbSymbolTableRecord
100
AcDbLinetypeTableRecord
  2
CONTINUOUS
 70
     0
  3
Solid line
 72
    65
 73
     0
 40
0.0
  0
LTYPE
  5
26
330
5
100
AcDbSymbolTableRecord
100
AcDbLinetypeTableRecord
  2
BORDER
 70
     0
  3
__ __ . __ __ . __ __ . __ __ . __ __ . __ __ .
 72
    65
 73
     6
 40
1.75
 49
0.5
 74
     0
 49
-0.25
 74
     0
 49
0.5
 74
     0
 49
-0.25
 74
     0
 49
0.0
 74
     0
 49
-0.25
 74
     0
  0
LTYPE
  5
27
330
5
100
AcDbSymbolTableRecord
100
AcDbLinetypeTableRecord
  2
BORDER2
 70
     0
  3
__.__.__.__.__.__.__.__.__.__.__.__.__.__.__.__
 72
    65
 73
     6
 40
0.875
 49
0.25
 74
     0
 49
-0.125
 74
     0
 49
0.25
 74
     0
 49
-0.125
 74
     0
 49
0.0
 74
     0
 49
-0.125
 74
     0
  0
LTYPE
  5
28
330
5
100
AcDbSymbolTableRecord
100
AcDbLinetypeTableRecord
  2
BORDERX2
 70
     0
  3
____  ____  .  ____  ____  .  ____  ____  .  __
 72
    65
 73
     6
 40
3.5
 49
1.0
 74
     0
 49
-0.5
 74
     0
 49
1.0
 74
     0
 49
-0.5
 74
     0
 49
0.0
 74
     0
 49
-0.5
 74
     0
  0
LTYPE
  5
29
330
5
100
AcDbSymbolTableRecord
100
AcDbLinetypeTableRecord
  2
CENTER
 70
     0
  3
____ _ ____ _ ____ _ ____ _ ____ _ ____ _ ____ 
 72
    65
 73
     4
 40
2.0
 49
1.25
 74
     0
 49
-0.25
 74
     0
 49
0.25
 74
     0
 49
-0.25
 74
     0
  0
LTYPE
  5
2A
330
5
100
AcDbSymbolTableRecord
100
AcDbLinetypeTableRecord
  2
CENTER2
 70
     0
  3
___ _ ___ _ ___ _ ___ _ ___ _ ___ _ ___ _ ___ _
 72
    65
 73
     4
 40
1.125
 49
0.75
 74
     0
 49
-0.125
 74
     0
 49
0.125
 74
     0
 49
-0.125
 74
     0
  0
LTYPE
  5
2B
330
5
100
AcDbSymbolTableRecord
100
AcDbLinetypeTableRecord
  2
CENTERX2
 70
     0
  3
________  __  ________  __  ________  __  _____
 72
    65
 73
     4
 40
4.0
 49
2.5
 74
     0
 49
-0.5
 74
     0
 49
0.5
 74
     0
 49
-0.5
 74
     0
  0
LTYPE
  5
2C
330
5
100
AcDbSymbolTableRecord
100
AcDbLinetypeTableRecord
  2
DASHDOT
 70
     0
  3
__ . __ . __ . __ . __ . __ . __ . __ . __ . __
 72
    65
 73
     4
 40
1.0
 49
0.5
 74
     0
 49
-0.25
 74
     0
 49
0.0
 74
     0
 49
-0.25
 74
     0
  0
LTYPE
  5
2D
330
5
100
AcDbSymbolTableRecord
100
AcDbLinetypeTableRecord
  2
DASHDOT2
 70
     0
  3
_._._._._._._._._._._._._._._._._._._._._._._._
 72
    65
 73
     4
 40
0.5
 49
0.25
 74
     0
 49
-0.125
 74
     0
 49
0.0
 74
     0
 49
-0.125
 74
     0
  0
LTYPE
  5
2E
330
5
100
AcDbSymbolTableRecord
100
AcDbLinetypeTableRecord
  2
DASHDOTX2
 70
     0
  3
____  .  ____  .  ____  .  ____  .  ____  .  __
 72
    65
 73
     4
 40
2.0
 49
1.0
 74
     0
 49
-0.5
 74
     0
 49
0.0
 74
     0
 49
-0.5
 74
     0
  0
LTYPE
  5
2F
330
5
100
AcDbSymbolTableRecord
100
AcDbLinetypeTableRecord
  2
DASHED
 70
     0
  3
__ __ __ __ __ __ __ __ __ __ __ __ __ __ __ __
 72
    65
 73
     2
 40
0.75
 49
0.5
 74
     0
 49
-0.25
 74
     0
  0
LTYPE
  5
30
330
5
100
AcDbSymbolTableRecord
100
AcDbLinetypeTableRecord
  2
DASHED2
 70
     0
  3
_ _ _ _ _ _ _ _ _ _ _ _ _ _ _ _ _ _ _ _ _ _ _ _
 72
    65
 73
     2
 40
0.375
 49
0.25
 74
     0
 49
-0.125
 74
     0
  0
LTYPE
  5
31
330
5
100
AcDbSymbolTableRecord
100
AcDbLinetypeTableRecord
  2
DASHEDX2
 70
     0
  3
____  ____  ____  ____  ____  ____  ____  ____ 
 72
    65
 73
     2
 40
1.5
 49
1.0
 74
     0
 49
-0.5
 74
     0
  0
LTYPE
  5
32
330
5
100
AcDbSymbolTableRecord
100
AcDbLinetypeTableRecord
  2
DIVIDE
 70
     0
  3
____ . . ____ . . ____ . . ____ . . ____ . . __
 72
    65
 73
     6
 40
1.25
 49
0.5
 74
     0
 49
-0.25
 74
     0
 49
0.0
 74
     0
 49
-0.25
 74
     0
 49
0.0
 74
     0
 49
-0.25
 74
     0
  0
LTYPE
  5
33
330
5
100
AcDbSymbolTableRecord
100
AcDbLinetypeTableRecord
  2
DIVIDE2
 70
     0
  3
__..__..__..__..__..__..__..__..__..__..__..__.
 72
    65
 73
     6
 40
0.625
 49
0.25
 74
     0
 49
-0.125
 74
     0
 49
0.0
 74
     0
 49
-0.125
 74
     0
 49
0.0
 74
     0
 49
-0.125
 74
     0
  0
LTYPE
  5
34
330
5
100
AcDbSymbolTableRecord
100
AcDbLinetypeTableRecord
  2
DIVIDEX2
 70
     0
  3
________  .  .  ________  .  .  ________  .  . 
 72
    65
 73
     6
 40
2.5
 49
1.0
 74
     0
 49
-0.5
 74
     0
 49
0.0
 74
     0
 49
-0.5
 74
     0
 49
0.0
 74
     0
 49
-0.5
 74
     0
  0
LTYPE
  5
35
330
5
100
AcDbSymbolTableRecord
100
AcDbLinetypeTableRecord
  2
DOT
 70
     0
  3
. . . . . . . . . . . . . . . . . . . . . . . .
 72
    65
 73
     2
 40
0.25
 49
0.0
 74
     0
 49
-0.25
 74
     0
  0
LTYPE
  5
36
330
5
100
AcDbSymbolTableRecord
100
AcDbLinetypeTableRecord
  2
DOT2
 70
     0
  3
...............................................
 72
    65
 73
     2
 40
0.125
 49
0.0
 74
     0
 49
-0.125
 74
     0
  0
LTYPE
  5
37
330
5
100
AcDbSymbolTableRecord
100
AcDbLinetypeTableRecord
  2
DOTX2
 70
     0
  3
.  .  .  .  .  .  .  .  .  .  .  .  .  .  .  . 
 72
    65
 73
     2
 40
0.5
 49
0.0
 74
     0
 49
-0.5
 74
     0
  0
LTYPE
  5
38
330
5
100
AcDbSymbolTableRecord
100
AcDbLinetypeTableRecord
  2
HIDDEN
 70
     0
  3
__ __ __ __ __ __ __ __ __ __ __ __ __ __ __ __
 72
    65
 73
     2
 40
0.375
 49
0.25
 74
     0
 49
-0.125
 74
     0
  0
LTYPE
  5
39
330
5
100
AcDbSymbolTableRecord
100
AcDbLinetypeTableRecord
  2
HIDDEN2
 70
     0
  3
_ _ _ _ _ _ _ _ _ _ _ _ _ _ _ _ _ _ _ _ _ _ _ _
 72
    65
 73
     2
 40
0.1875
 49
0.125
 74
     0
 49
-0.0625
 74
     0
  0
LTYPE
  5
3A
330
5
100
AcDbSymbolTableRecord
100
AcDbLinetypeTableRecord
  2
HIDDENX2
 70
     0
  3
____ ____ ____ ____ ____ ____ ____ ____ ____ __
 72
    65
 73
     2
 40
0.75
 49
0.5
 74
     0
 49
-0.25
 74
     0
  0
LTYPE
  5
3B
330
5
100
AcDbSymbolTableRecord
100
AcDbLinetypeTableRecord
  2
PHANTOM
 70
     0
  3
______  __  __  ______  __  __  ______  __  __ 
 72
    65
 73
     6
 40
2.5
 49
1.25
 74
     0
 49
-0.25
 74
     0
 49
0.25
 74
     0
 49
-0.25
 74
     0
 49
0.25
 74
     0
 49
-0.25
 74
     0
  0
LTYPE
  5
3C
330
5
100
AcDbSymbolTableRecord
100
AcDbLinetypeTableRecord
  2
PHANTOM2
 70
     0
  3
___ _ _ ___ _ _ ___ _ _ ___ _ _ ___ _ _ ___ _ _
 72
    65
 73
     6
 40
1.25
 49
0.625
 74
     0
 49
-0.125
 74
     0
 49
0.125
 74
     0
 49
-0.125
 74
     0
 49
0.125
 74
     0
 49
-0.125
 74
     0
  0
LTYPE
  5
3D
330
5
100
AcDbSymbolTableRecord
100
AcDbLinetypeTableRecord
  2
PHANTOMX2
 70
     0
  3
____________    ____    ____    ____________   
 72
    65
 73
     6
 40
5.0
 49
2.5
 74
     0
 49
-0.5
 74
     0
 49
0.5
 74
     0
 49
-0.5
 74
     0
 49
0.5
 74
     0
 49
-0.5
 74
     0
  0
LTYPE
  5
17D8
330
5
100
AcDbSymbolTableRecord
100
AcDbLinetypeTableRecord
  2
ASSI
 70
     0
  3
-.-.-.-.-.-.-.-.-.-.-.-.-.-.-.-.-.-.-.-.-.-.-.-
 72
    65
 73
     4
 40
16.0
 49
10.0
 74
     0
 49
-2.0
 74
     0
 49
2.0
 74
     0
 49
-2.0
 74
     0
  0
LTYPE
  5
17D9
330
5
100
AcDbSymbolTableRecord
100
AcDbLinetypeTableRecord
  2
INGOMBRI
 70
     0
  3
--..--..--..--..--..--..--..--..--..--..--..--
 72
    65
 73
     6
 40
20.0
 49
10.0
 74
     0
 49
-2.0
 74
     0
 49
2.0
 74
     0
 49
-2.0
 74
     0
 49
2.0
 74
     0
 49
-2.0
 74
     0
  0
LTYPE
  5
17DA
330
5
100
AcDbSymbolTableRecord
100
AcDbLinetypeTableRecord
  2
TRATTEGGIO
 70
     0
  3
- - - - - - - - - - - - - - - - - - - - - -
 72
    65
 73
     2
 40
5.5
 49
4.0
 74
     0
 49
-1.5
 74
     0
  0
LTYPE
  5
17DB
330
5
100
AcDbSymbolTableRecord
100
AcDbLinetypeTableRecord
  2
PUNTO
 70
     0
  3
Punto . . . . . . . . . . . . . . . . . . . . .
 72
    65
 73
     2
 40
6.349999999999999
 49
0.0
 74
     0
 49
-6.349999999999999
 74
     0
  0
ENDTAB
  0
TABLE
  2
LAYER
  5
2
102
{ACAD_XDICTIONARY
360
20E2
102
}
330
0
100
AcDbSymbolTable
 70
     9
  0
LAYER
  5
F
102
{ACAD_XDICTIONARY
360
1952
102
}
330
2
100
AcDbSymbolTableRecord
100
AcDbLayerTableRecord
  2
0
 70
     0
 62
     7
  6
CONTINUOUS
370
    -3
390
1782
  0
LAYER
  5
41
102
{ACAD_XDICTIONARY
360
1954
102
}
330
2
100
AcDbSymbolTableRecord
100
AcDbLayerTableRecord
  2
2
 70
     0
 62
     2
  6
CONTINUOUS
370
    -3
390
1782
  0
LAYER
  5
42
102
{ACAD_XDICTIONARY
360
1956
102
}
330
2
100
AcDbSymbolTableRecord
100
AcDbLayerTableRecord
  2
SOTTILI
 70
     0
 62
     3
  6
CONTINUOUS
370
    -3
390
1782
  0
LAYER
  5
43
102
{ACAD_XDICTIONARY
360
1958
102
}
330
2
100
AcDbSymbolTableRecord
100
AcDbLayerTableRecord
  2
TRATTEGGIO
 70
     0
 62
     6
  6
CONTINUOUS
370
    -3
390
1782
  0
LAYER
  5
44
102
{ACAD_XDICTIONARY
360
195A
102
}
330
2
100
AcDbSymbolTableRecord
100
AcDbLayerTableRecord
  2
QUOTE
 70
     0
 62
     7
  6
CONTINUOUS
370
    -3
390
1782
  0
LAYER
  5
45
102
{ACAD_XDICTIONARY
360
195C
102
}
330
2
100
AcDbSymbolTableRecord
100
AcDbLayerTableRecord
  2
3
 70
     0
 62
     4
  6
CONTINUOUS
370
    -3
390
1782
  0
LAYER
  5
158
330
2
100
AcDbSymbolTableRecord
100
AcDbLayerTableRecord
  2
DEFPOINTS
 70
     0
 62
     7
  6
CONTINUOUS
290
     0
370
    -3
390
1782
  0
LAYER
  5
17D0
102
{ACAD_XDICTIONARY
360
195E
102
}
330
2
100
AcDbSymbolTableRecord
100
AcDbLayerTableRecord
  2
P-0000
 70
     0
 62
     7
  6
CONTINUOUS
370
    -3
390
1782
1001
AcAecLayerStandard
1000

1000
RINFORZO 90° NYLON
  0
LAYER
  5
220A
330
2
100
AcDbSymbolTableRecord
100
AcDbLayerTableRecord
  2
P-24F6
 70
     0
 62
     7
  6
CONTINUOUS
370
    -3
390
1782
1001
AcAecLayerStandard
1000

1000
.cart
  0
ENDTAB
  0
TABLE
  2
STYLE
  5
3
330
0
100
AcDbSymbolTable
 70
    14
  0
STYLE
  5
10
330
3
100
AcDbSymbolTableRecord
100
AcDbTextStyleTableRecord
  2
STANDARD
 70
     0
 40
0.0
 41
1.0
 50
0.0
 71
     0
 42
0.2
  3
txt
  4

  0
STYLE
  5
21
330
3
100
AcDbSymbolTableRecord
100
AcDbTextStyleTableRecord
  2
ITALICT
 70
     0
 40
2.0
 41
1.0
 50
10.0
 71
     0
 42
2.0
  3
TXT.shx
  4

  0
STYLE
  5
22
330
3
100
AcDbSymbolTableRecord
100
AcDbTextStyleTableRecord
  2
SCRIPTS
 70
     0
 40
2.5
 41
1.199999999999999
 50
5.0
 71
     0
 42
2.5
  3
TXT.shx
  4

  0
STYLE
  5
23
330
3
100
AcDbSymbolTableRecord
100
AcDbTextStyleTableRecord
  2
_STYLE
 70
     0
 40
2.0
 41
1.0
 50
0.0
 71
     0
 42
2.0
  3
TXT.shx
  4

  0
STYLE
  5
24
330
3
100
AcDbSymbolTableRecord
100
AcDbTextStyleTableRecord
  2
SQUOTA
 70
     0
 40
0.0
 41
1.0
 50
0.0
 71
     0
 42
25.0
  3
SIMPLEX.SHX
  4

  0
STYLE
  5
25
330
3
100
AcDbSymbolTableRecord
100
AcDbTextStyleTableRecord
  2
SIMPLEX
 70
     0
 40
0.0
 41
1.0
 50
0.0
 71
     0
 42
0.2
  3
SIMPLEX.shx
  4

  0
STYLE
  5
17DC
330
3
100
AcDbSymbolTableRecord
100
AcDbTextStyleTableRecord
  2
ROMANS
 70
     0
 40
0.0
 41
0.8
 50
0.0
 71
     0
 42
3.0
  3
ROMANS.shx
  4

  0
STYLE
  5
17DD
330
3
100
AcDbSymbolTableRecord
100
AcDbTextStyleTableRecord
  2

 70
     1
 40
0.0
 41
1.0
 50
0.0
 71
     0
 42
0.2
  3
ltypeshp.shx
  4

  0
STYLE
  5
17DE
330
3
100
AcDbSymbolTableRecord
100
AcDbTextStyleTableRecord
  2
Stile_Quota
 70
     0
 40
0.0
 41
1.0
 50
0.0
 71
     0
 42
3.0
  3
BOD_I.TTF
  4

1001
ACAD
1000
Bodoni MT
1071
 16777234
  0
STYLE
  5
17DF
330
3
100
AcDbSymbolTableRecord
100
AcDbTextStyleTableRecord
  2
Stile_Quota_FISSO
 70
     0
 40
20.0
 41
1.0
 50
0.0
 71
     0
 42
3.0
  3
BOD_I.TTF
  4

1001
ACAD
1000
Bodoni MT
1071
 16777234
  0
STYLE
  5
220F
330
3
100
AcDbSymbolTableRecord
100
AcDbTextStyleTableRecord
  2
STYLE1
 70
     0
 40
0.0
 41
1.0
 50
0.0
 71
     0
 42
3.0
  3
eurr____.ttf
  4

1001
ACAD
1000
EuroRoman
1071
      514
  0
STYLE
  5
2210
330
3
100
AcDbSymbolTableRecord
100
AcDbTextStyleTableRecord
  2
arial_ttf
 70
     0
 40
0.0
 41
1.0
 50
0.0
 71
     0
 42
0.2
  3
ARIAL.TTF
  4

1001
ACAD
1000
Arial
1071
        2
  0
STYLE
  5
2211
330
3
100
AcDbSymbolTableRecord
100
AcDbTextStyleTableRecord
  2
seansi_ttf
 70
     0
 40
0.0
 41
1.0
 50
0.0
 71
     0
 42
0.2
  3
seansi.ttf
  4

  0
STYLE
  5
2212
330
3
100
AcDbSymbolTableRecord
100
AcDbTextStyleTableRecord
  2
Stile_Cart
 70
     0
 40
0.0
 41
1.0
 50
0.0
 71
     0
 42
1.5
  3
TIMES.TTF
  4

1001
ACAD
1000
Times New Roman
1071
       18
  0
ENDTAB
  0
TABLE
  2
VIEW
  5
6
330
0
100
AcDbSymbolTable
 70
     0
  0
ENDTAB
  0
TABLE
  2
UCS
  5
7
330
0
100
AcDbSymbolTable
 70
     0
  0
ENDTAB
  0
TABLE
  2
APPID
  5
9
330
0
100
AcDbSymbolTable
 70
    12
  0
APPID
  5
11
330
9
100
AcDbSymbolTableRecord
100
AcDbRegAppTableRecord
  2
ACAD
 70
     0
  0
APPID
  5
17C4
330
9
100
AcDbSymbolTableRecord
100
AcDbRegAppTableRecord
  2
ACAD_MLEADERVER
 70
     0
  0
APPID
  5
17D1
330
9
100
AcDbSymbolTableRecord
100
AcDbRegAppTableRecord
  2
AcAecLayerStandard
 70
     0
  0
APPID
  5
17D7
330
9
100
AcDbSymbolTableRecord
100
AcDbRegAppTableRecord
  2
TOP
 70
     0
  0
APPID
  5
17E3
330
9
100
AcDbSymbolTableRecord
100
AcDbRegAppTableRecord
  2
ACAD_DSTYLE_DIMJAG
 70
     0
  0
APPID
  5
17E4
330
9
100
AcDbSymbolTableRecord
100
AcDbRegAppTableRecord
  2
ACAD_DSTYLE_DIMTALN
 70
     0
  0
APPID
  5
17E5
330
9
100
AcDbSymbolTableRecord
100
AcDbRegAppTableRecord
  2
AcadAnnoPO
 70
     0
  0
APPID
  5
17E6
330
9
100
AcDbSymbolTableRecord
100
AcDbRegAppTableRecord
  2
ACAD_EXEMPT_FROM_CAD_STANDARDS
 70
     0
  0
APPID
  5
17E7
330
9
100
AcDbSymbolTableRecord
100
AcDbRegAppTableRecord
  2
ACAD_PSEXT
 70
     0
  0
APPID
  5
17E8
330
9
100
AcDbSymbolTableRecord
100
AcDbRegAppTableRecord
  2
ACAD_DSTYLE_DIMBREAK
 70
     0
  0
APPID
  5
23D1
330
9
100
AcDbSymbolTableRecord
100
AcDbRegAppTableRecord
  2
ACAD_DSTYLE_DIMRADIAL_EXTENSION
 70
     0
  0
APPID
  5
24D0
330
9
100
AcDbSymbolTableRecord
100
AcDbRegAppTableRecord
  2
ACAD_DSTYLE_DIMJOGGED_JOGANGLE_SYMBOL
 70
     0
  0
ENDTAB
  0
TABLE
  2
DIMSTYLE
  5
A
330
0
100
AcDbSymbolTable
 70
     8
100
AcDbDimStyleTable
 71
     1
340
17E0
  0
DIMSTYLE
105
40
330
A
100
AcDbSymbolTableRecord
100
AcDbDimStyleTableRecord
  2
MECC
 70
     0
 41
25.0
 42
30.0
 44
5.0
 73
     0
 74
     0
 77
     1
 78
     8
140
25.0
146
0.0072
147
8.0
172
     1
271
     2
272
     2
279
     2
284
     8
285
     8
286
     8
340
25
  0
DIMSTYLE
105
189
330
A
100
AcDbSymbolTableRecord
100
AcDbDimStyleTableRecord
  2
STANDARD
 70
     0
340
10
  0
DIMSTYLE
105
17E0
330
A
100
AcDbSymbolTableRecord
100
AcDbDimStyleTableRecord
  2
ACADTOP
 70
     0
 41
2.0
 42
1.0
 43
10.0
 44
1.5
 73
     0
 74
     0
 77
     1
 78
     8
 79
     2
140
2.0
141
2.0
146
0.6
147
1.0
172
     1
176
     2
177
     2
178
     1
179
     1
271
     2
272
     2
284
     8
289
     0
340
17DE
1001
ACAD_DSTYLE_DIMJAG
1070
   388
1040
1.5
1001
ACAD_DSTYLE_DIMTALN
1070
   392
1070
     0
  0
DIMSTYLE
105
17E1
330
A
100
AcDbSymbolTableRecord
100
AcDbDimStyleTableRecord
  2
DIERRE_LUNG-ALT
 70
     0
 41
3.0
 42
1.0
 43
10.0
 44
1.5
 73
     0
 74
     0
 75
     1
 76
     1
 78
     8
 79
     2
140
20.0
141
2.0
146
0.6
147
1.0
172
     1
176
     3
177
     3
178
    30
179
     1
271
     1
272
     1
281
     1
282
     1
284
     8
340
17DF
1001
ACAD_DSTYLE_DIMBREAK
1070
   391
1040
3.75
1001
ACAD_DSTYLE_DIMJAG
1070
   388
1040
1.5
1001
ACAD_DSTYLE_DIMTALN
1070
   392
1070
     0
  0
DIMSTYLE
105
17E2
330
A
100
AcDbSymbolTableRecord
100
AcDbDimStyleTableRecord
  2
DIERRE_LARG
 70
     0
 41
3.0
 42
1.0
 43
10.0
 44
1.5
 73
     0
 74
     0
 75
     1
 76
     1
 78
     8
 79
     2
140
20.0
141
2.0
146
0.6
147
1.0
172
     1
176
     4
177
     4
178
     4
179
     1
271
     1
272
     1
281
     1
282
     1
284
     8
340
17DF
1001
ACAD_DSTYLE_DIMBREAK
1070
   391
1040
3.75
1001
ACAD_DSTYLE_DIMJAG
1070
   388
1040
1.5
1001
ACAD_DSTYLE_DIMTALN
1070
   392
1070
     0
  0
DIMSTYLE
105
20E1
330
A
100
AcDbSymbolTableRecord
100
AcDbDimStyleTableRecord
  2
ETICHETTE
 70
     0
 41
25.0
 42
30.0
 44
5.0
 73
     0
 74
     0
 75
     1
 76
     1
 77
     1
 78
     8
140
17.0
146
0.0072
147
6.5
172
     1
173
     1
271
     2
272
     2
281
     1
282
     1
284
     8
285
     8
286
     8
340
25
341
20D7
343
20D7
344
20D7
  0
DIMSTYLE
105
2213
330
A
100
AcDbSymbolTableRecord
100
AcDbDimStyleTableRecord
  2
ISO-25
 70
     0
 41
2.5
 42
0.625
 43
3.75
 44
1.25
 73
     0
 74
     0
 77
     1
 78
     8
140
2.5
141
2.5
143
0.03937007874016
147
0.625
171
     3
172
     1
271
     2
272
     2
274
     3
278
    44
283
     0
284
     8
340
10
1001
ACAD_DSTYLE_DIMJOGGED_JOGANGLE_SYMBOL
1070
   384
1040
1.570796326794896
  0
ENDTAB
  0
TABLE
  2
BLOCK_RECORD
  5
1
330
0
100
AcDbSymbolTable
 70
    28
  0
BLOCK_RECORD
  5
18
330
1
100
AcDbSymbolTableRecord
100
AcDbBlockTableRecord
  2
*MODEL_SPACE
340
17C7
  0
BLOCK_RECORD
  5
15
330
1
100
AcDbSymbolTableRecord
100
AcDbBlockTableRecord
  2
*PAPER_SPACE
340
17C8
  0
BLOCK_RECORD
  5
1003
330
1
100
AcDbSymbolTableRecord
100
AcDbBlockTableRecord
  2
COD
340
0
102
{BLKREFS
331
111B
331
111C
331
1121
331
1122
331
113A
102
}
  0
BLOCK_RECORD
  5
1010
330
1
100
AcDbSymbolTableRecord
100
AcDbBlockTableRecord
  2
PIPPONA
340
0
  0
BLOCK_RECORD
  5
1624
330
1
100
AcDbSymbolTableRecord
100
AcDbBlockTableRecord
  2
CART
340
0
  0
BLOCK_RECORD
  5
20D7
330
1
100
AcDbSymbolTableRecord
100
AcDbBlockTableRecord
  2
_NONE
340
0
  0
BLOCK_RECORD
  5
20DB
330
1
100
AcDbSymbolTableRecord
100
AcDbBlockTableRecord
  2
A$C5B540C28
340
0
  0
BLOCK_RECORD
  5
2140
330
1
100
AcDbSymbolTableRecord
100
AcDbBlockTableRecord
  2
*D5
340
0
  0
BLOCK_RECORD
  5
214D
330
1
100
AcDbSymbolTableRecord
100
AcDbBlockTableRecord
  2
*D6
340
0
  0
BLOCK_RECORD
  5
215A
330
1
100
AcDbSymbolTableRecord
100
AcDbBlockTableRecord
  2
*D7
340
0
  0
BLOCK_RECORD
  5
2167
330
1
100
AcDbSymbolTableRecord
100
AcDbBlockTableRecord
  2
*D8
340
0
  0
BLOCK_RECORD
  5
2174
330
1
100
AcDbSymbolTableRecord
100
AcDbBlockTableRecord
  2
*D9
340
0
  0
BLOCK_RECORD
  5
2181
330
1
100
AcDbSymbolTableRecord
100
AcDbBlockTableRecord
  2
*D10
340
0
  0
BLOCK_RECORD
  5
21B8
330
1
100
AcDbSymbolTableRecord
100
AcDbBlockTableRecord
  2
*D11
340
0
  0
BLOCK_RECORD
  5
2214
330
1
100
AcDbSymbolTableRecord
100
AcDbBlockTableRecord
  2
TAB-A3
340
0
  0
BLOCK_RECORD
  5
2355
330
1
100
AcDbSymbolTableRecord
100
AcDbBlockTableRecord
  2
*D13
340
0
  0
BLOCK_RECORD
  5
236B
330
1
100
AcDbSymbolTableRecord
100
AcDbBlockTableRecord
  2
*D14
340
0
  0
BLOCK_RECORD
  5
2385
330
1
100
AcDbSymbolTableRecord
100
AcDbBlockTableRecord
  2
*D15
340
0
  0
BLOCK_RECORD
  5
2394
330
1
100
AcDbSymbolTableRecord
100
AcDbBlockTableRecord
  2
*D16
340
0
  0
BLOCK_RECORD
  5
23E5
330
1
100
AcDbSymbolTableRecord
100
AcDbBlockTableRecord
  2
*D18
340
0
  0
BLOCK_RECORD
  5
23F4
330
1
100
AcDbSymbolTableRecord
100
AcDbBlockTableRecord
  2
*D19
340
0
  0
BLOCK_RECORD
  5
2401
330
1
100
AcDbSymbolTableRecord
100
AcDbBlockTableRecord
  2
*D20
340
0
  0
BLOCK_RECORD
  5
2419
330
1
100
AcDbSymbolTableRecord
100
AcDbBlockTableRecord
  2
*D21
340
0
  0
BLOCK_RECORD
  5
2428
330
1
100
AcDbSymbolTableRecord
100
AcDbBlockTableRecord
  2
*D22
340
0
  0
BLOCK_RECORD
  5
2435
330
1
100
AcDbSymbolTableRecord
100
AcDbBlockTableRecord
  2
*D23
340
0
  0
BLOCK_RECORD
  5
2444
330
1
100
AcDbSymbolTableRecord
100
AcDbBlockTableRecord
  2
*D24
340
0
  0
BLOCK_RECORD
  5
2453
330
1
100
AcDbSymbolTableRecord
100
AcDbBlockTableRecord
  2
*D25
340
0
  0
BLOCK_RECORD
  5
2460
330
1
100
AcDbSymbolTableRecord
100
AcDbBlockTableRecord
  2
*D26
340
0
  0
ENDTAB
  0
ENDSEC
  0
SECTION
  2
BLOCKS
  0
BLOCK
  5
48
330
18
100
AcDbEntity
  8
0
100
AcDbBlockBegin
  2
*MODEL_SPACE
 70
     0
 10
0.0
 20
0.0
 30
0.0
  3
*MODEL_SPACE
  1

  0
ENDBLK
  5
49
330
18
100
AcDbEntity
  8
0
100
AcDbBlockEnd
  0
BLOCK
  5
46
330
15
100
AcDbEntity
 67
     1
  8
0
100
AcDbBlockBegin
  2
*PAPER_SPACE
 70
     0
 10
0.0
 20
0.0
 30
0.0
  3
*PAPER_SPACE
  1

  0
ENDBLK
  5
47
330
15
100
AcDbEntity
 67
     1
  8
0
100
AcDbBlockEnd
  0
BLOCK
  5
100E
330
1003
100
AcDbEntity
  8
0
100
AcDbBlockBegin
  2
COD
 70
     0
 10
0.0
 20
0.0
 30
0.0
  3
COD
  1

  0
LINE
  5
1004
330
1003
100
AcDbEntity
  8
2
100
AcDbLine
 10
0.0
 20
0.0
 30
0.0
 11
0.0
 21
1.0
 31
0.0
  0
LINE
  5
1005
330
1003
100
AcDbEntity
  8
2
100
AcDbLine
 10
0.0
 20
0.0
 30
0.0
 11
29.76000000000001
 21
0.0
 31
0.0
  0
LINE
  5
1006
330
1003
100
AcDbEntity
  8
2
100
AcDbLine
 10
3.719999999999998
 20
0.0
 30
0.0
 11
3.719999999999998
 21
1.0
 31
0.0
  0
LINE
  5
1007
330
1003
100
AcDbEntity
  8
2
100
AcDbLine
 10
7.439999999999997
 20
0.0
 30
0.0
 11
7.439999999999997
 21
1.0
 31
0.0
  0
LINE
  5
1008
330
1003
100
AcDbEntity
  8
2
100
AcDbLine
 10
11.15999999999999
 20
0.0
 30
0.0
 11
11.15999999999999
 21
1.0
 31
0.0
  0
LINE
  5
1009
330
1003
100
AcDbEntity
  8
2
100
AcDbLine
 10
14.87999999999999
 20
0.0
 30
0.0
 11
14.87999999999999
 21
1.0
 31
0.0
  0
LINE
  5
100A
330
1003
100
AcDbEntity
  8
2
100
AcDbLine
 10
18.59999999999999
 20
0.0
 30
0.0
 11
18.59999999999999
 21
1.0
 31
0.0
  0
LINE
  5
100B
330
1003
100
AcDbEntity
  8
2
100
AcDbLine
 10
22.31999999999999
 20
0.0
 30
0.0
 11
22.31999999999999
 21
1.0
 31
0.0
  0
LINE
  5
100C
330
1003
100
AcDbEntity
  8
2
100
AcDbLine
 10
26.04000000000001
 20
0.0
 30
0.0
 11
26.04000000000001
 21
1.0
 31
0.0
  0
LINE
  5
100D
330
1003
100
AcDbEntity
  8
2
100
AcDbLine
 10
29.76000000000001
 20
0.0
 30
0.0
 11
29.76000000000001
 21
1.0
 31
0.0
  0
ENDBLK
  5
100F
330
1003
100
AcDbEntity
  8
0
100
AcDbBlockEnd
  0
BLOCK
  5
10A6
330
1010
100
AcDbEntity
  8
0
100
AcDbBlockBegin
  2
PIPPONA
 70
     2
 10
0.0
 20
0.0
 30
0.0
  3
PIPPONA
  1

  0
ATTDEF
  5
10A8
330
1010
100
AcDbEntity
  8
2
100
AcDbText
 10
-1006.303032476206
 20
112.9701799923649
 30
0.0
 40
25.0
  1

  7
SQUOTA
 72
     1
 11
-1006.303032476206
 21
112.9701799923649
 31
0.0
100
AcDbAttributeDefinition
  3
DENOMINAZIONE DISEGNO
  2
DENOMINAZIONE
 70
     0
  0
TRACE
  5
10A9
330
1010
100
AcDbEntity
  8
2
100
AcDbTrace
 10
-88.36848013982603
 20
85.96174377339027
 30
0.0
 11
-92.26981347315927
 21
89.86307710672361
 31
0.0
 12
-2003.923146806493
 22
85.96174377339027
 32
0.0
 13
-2000.021813473159
 23
89.86307710672361
 33
0.0
  0
LINE
  5
10AA
330
1010
100
AcDbEntity
  8
2
100
AcDbLine
 10
-1514.305813473159
 20
704.3230771067236
 30
0.0
 11
-90.31914680649265
 21
704.3230771067236
 31
0.0
  0
LINE
  5
10AB
330
1010
100
AcDbEntity
  8
2
100
AcDbLine
 10
-1514.305813473159
 20
445.142410440057
 30
0.0
 11
-90.31914680649265
 21
445.142410440057
 31
0.0
  0
LINE
  5
10AC
330
1010
100
AcDbEntity
  8
2
100
AcDbLine
 10
-1514.305813473159
 20
190.3224104400569
 30
0.0
 11
-90.31914680649265
 21
190.3224104400569
 31
0.0
  0
LINE
  5
10AD
330
1010
100
AcDbEntity
  8
2
100
AcDbLine
 10
-2001.972480139826
 20
292.7324104400569
 30
0.0
 11
-90.31914680649265
 21
292.7324104400569
 31
0.0
  0
LINE
  5
10AE
330
1010
100
AcDbEntity
  8
2
100
AcDbLine
 10
-2001.972480139826
 20
395.142410440057
 30
0.0
 11
-90.31914680649265
 21
395.142410440057
 31
0.0
  0
LINE
  5
10AF
330
1010
100
AcDbEntity
  8
2
100
AcDbLine
 10
-2001.972480139826
 20
87.91241044005694
 30
0.0
 11
-90.31914680649265
 21
87.91241044005694
 31
0.0
  0
LINE
  5
10B0
330
1010
100
AcDbEntity
  8
2
100
AcDbLine
 10
-1514.305813473159
 20
509.937410440057
 30
0.0
 11
-90.31914680649265
 21
509.937410440057
 31
0.0
  0
LINE
  5
10B1
330
1010
100
AcDbEntity
  8
2
100
AcDbLine
 10
-1514.305813473159
 20
574.7324104400568
 30
0.0
 11
-90.31914680649265
 21
574.7324104400568
 31
0.0
  0
LINE
  5
10B2
330
1010
100
AcDbEntity
  8
2
100
AcDbLine
 10
-1514.305813473159
 20
639.527410440057
 30
0.0
 11
-90.31914680649265
 21
639.527410440057
 31
0.0
  0
LINE
  5
10B3
330
1010
100
AcDbEntity
  8
2
100
AcDbLine
 10
-1703.204380658674
 20
260.5905385797148
 30
0.0
 11
-1779.806380461151
 21
260.5905385797148
 31
0.0
  0
LINE
  5
10B4
330
1010
100
AcDbEntity
  8
2
100
AcDbLine
 10
-1779.806380461151
 20
260.5905385797148
 30
0.0
 11
-1703.204380658674
 21
260.5905385797148
 31
0.0
  0
LINE
  5
10B5
330
1010
100
AcDbEntity
  8
2
100
AcDbLine
 10
-1707.924221815568
 20
198.7869065559328
 30
0.0
 11
-1694.742427613373
 21
218.1439803824062
 31
0.0
  0
LINE
  5
10B6
330
1010
100
AcDbEntity
  8
2
100
AcDbLine
 10
-1707.924221815568
 20
198.7869065559328
 30
0.0
 11
-1694.742427613373
 21
218.1439803824062
 31
0.0
  0
LINE
  5
10B7
330
1010
100
AcDbEntity
  8
2
100
AcDbLine
 10
-1707.924221815568
 20
198.7869065559328
 30
0.0
 11
-1681.560633411179
 21
198.7869065559328
 31
0.0
  0
LINE
  5
10B8
330
1010
100
AcDbEntity
  8
2
100
AcDbLine
 10
-1681.560633411179
 20
198.7869065559328
 30
0.0
 11
-1707.924221815568
 21
198.7869065559328
 31
0.0
  0
LINE
  5
10B9
330
1010
100
AcDbEntity
  8
2
100
AcDbLine
 10
-1753.976098930482
 20
173.6076490647623
 30
0.0
 11
-1635.508756296265
 21
173.6076490647623
 31
0.0
  0
LINE
  5
10BA
330
1010
100
AcDbEntity
  8
2
100
AcDbLine
 10
-1753.976098930482
 20
173.6076490647623
 30
0.0
 11
-1635.508756296265
 21
173.6076490647623
 31
0.0
  0
LINE
  5
10BB
330
1010
100
AcDbEntity
  8
2
100
AcDbLine
 10
-1728.302492691153
 20
223.7347054460961
 30
0.0
 11
-1703.204380658674
 21
260.5905385797148
 31
0.0
  0
LINE
  5
10BC
330
1010
100
AcDbEntity
  8
2
100
AcDbLine
 10
-1728.302492691153
 20
223.7347054460961
 30
0.0
 11
-1703.204380658674
 21
260.5905385797148
 31
0.0
  0
LINE
  5
10BD
330
1010
100
AcDbEntity
  8
2
100
AcDbLine
 10
-1753.976098930482
 20
173.6076490647623
 30
0.0
 11
-1694.742427613373
 21
260.5905385797148
 31
0.0
  0
LINE
  5
10BE
330
1010
100
AcDbEntity
  8
2
100
AcDbLine
 10
-1694.742427613373
 20
260.5905385797148
 30
0.0
 11
-1753.976098930482
 21
173.6076490647623
 31
0.0
  0
LINE
  5
10BF
330
1010
100
AcDbEntity
  8
2
100
AcDbLine
 10
-2001.972480139826
 20
497.552410440057
 30
0.0
 11
-1514.305813473159
 21
497.552410440057
 31
0.0
  0
LINE
  5
10C0
330
1010
100
AcDbEntity
  8
2
100
AcDbLine
 10
-1992.219146806492
 20
282.9790771067236
 30
0.0
 11
-1524.059146806493
 21
282.9790771067236
 31
0.0
  0
LINE
  5
10C1
330
1010
100
AcDbEntity
  8
2
100
AcDbLine
 10
-1992.219146806492
 20
97.66574377339027
 30
0.0
 11
-1524.059146806493
 21
97.66574377339027
 31
0.0
  0
TEXT
  5
10C2
330
1010
100
AcDbEntity
  8
2
100
AcDbText
 10
-1907.690257917604
 20
112.2957437733902
 30
0.0
 40
19.50666666666666
  1
BOLOGNA - ITALY
  7
_STYLE
 72
     1
 11
-1767.892480139826
 21
112.2957437733902
 31
0.0
100
AcDbText
  0
TRACE
  5
10C3
330
1010
100
AcDbEntity
  8
2
100
AcDbTrace
 10
-2003.923146806493
 20
704.3230771067236
 30
0.0
 11
-2000.021813473159
 21
700.4217437733902
 31
0.0
 12
-1512.355146806493
 22
704.3230771067236
 32
0.0
 13
-1516.256480139826
 23
700.4217437733902
 33
0.0
  0
LINE
  5
10C4
330
1010
100
AcDbEntity
  8
2
100
AcDbLine
 10
-2001.972480139826
 20
702.372410440057
 30
0.0
 11
-1514.305813473159
 21
702.372410440057
 31
0.0
  0
LINE
  5
10C5
330
1010
100
AcDbEntity
  8
2
100
AcDbLine
 10
-2001.972480139826
 20
599.9624104400569
 30
0.0
 11
-1514.305813473159
 21
599.9624104400569
 31
0.0
  0
TRACE
  5
10C6
330
1010
100
AcDbEntity
  8
2
100
AcDbTrace
 10
-2003.923146806493
 20
85.96174377339027
 30
0.0
 11
-2000.021813473159
 21
89.86307710672361
 31
0.0
 12
-2003.923146806493
 22
704.3230771067236
 32
0.0
 13
-2000.021813473159
 23
700.4217437733902
 33
0.0
  0
LINE
  5
10C7
330
1010
100
AcDbEntity
  8
2
100
AcDbLine
 10
-2001.972480139826
 20
87.91241044005694
 30
0.0
 11
-2001.972480139826
 21
702.372410440057
 31
0.0
  0
LINE
  5
10C8
330
1010
100
AcDbEntity
  8
2
100
AcDbLine
 10
-1897.829300700601
 20
260.5905385797148
 30
0.0
 11
-1838.595629383493
 21
260.5905385797148
 31
0.0
  0
LINE
  5
10C9
330
1010
100
AcDbEntity
  8
2
100
AcDbLine
 10
-1897.829300700601
 20
260.5905385797148
 30
0.0
 11
-1838.595629383493
 21
260.5905385797148
 31
0.0
  0
LINE
  5
10CA
330
1010
100
AcDbEntity
  8
2
100
AcDbLine
 10
-1889.3673476553
 20
173.6076490647623
 30
0.0
 11
-1830.133676338192
 21
260.5905385797148
 31
0.0
  0
LINE
  5
10CB
330
1010
100
AcDbEntity
  8
2
100
AcDbLine
 10
-1897.829300700601
 20
173.6076490647623
 30
0.0
 11
-1838.595629383493
 21
260.5905385797148
 31
0.0
  0
LINE
  5
10CC
330
1010
100
AcDbEntity
  8
2
100
AcDbLine
 10
-1889.3673476553
 20
173.6076490647623
 30
0.0
 11
-1830.133676338192
 21
260.5905385797148
 31
0.0
  0
LINE
  5
10CD
330
1010
100
AcDbEntity
  8
2
100
AcDbLine
 10
-1838.595629383493
 20
260.5905385797148
 30
0.0
 11
-1897.829300700601
 21
173.6076490647623
 31
0.0
  0
TEXT
  5
10CE
330
1010
100
AcDbEntity
  8
2
100
AcDbText
 10
-1977.589146806493
 20
463.4157437733903
 30
0.0
 40
19.50666666666666
  1
DATA CONSEGNA
  7
SCRIPTS
100
AcDbText
  0
TEXT
  5
10CF
330
1010
100
AcDbEntity
  8
2
100
AcDbText
 10
-1977.589146806493
 20
361.0057437733903
 30
0.0
 40
19.50666666666666
  1
SOSTITUISCE IL
  7
SCRIPTS
100
AcDbText
  0
LINE
  5
10D0
330
1010
100
AcDbEntity
  8
2
100
AcDbLine
 10
-1889.3673476553
 20
173.6076490647623
 30
0.0
 11
-1770.900005021084
 21
173.6076490647623
 31
0.0
  0
LINE
  5
10D1
330
1010
100
AcDbEntity
  8
2
100
AcDbLine
 10
-1770.900005021084
 20
173.6076490647623
 30
0.0
 11
-1889.3673476553
 21
173.6076490647623
 31
0.0
  0
LINE
  5
10D2
330
1010
100
AcDbEntity
  8
2
100
AcDbLine
 10
-1978.217854630962
 20
260.5905385797148
 30
0.0
 11
-1942.254554188432
 21
260.5905385797148
 31
0.0
  0
LINE
  5
10D3
330
1010
100
AcDbEntity
  8
2
100
AcDbLine
 10
-1978.217854630962
 20
173.6076490647623
 30
0.0
 11
-1942.254554188432
 21
173.6076490647623
 31
0.0
  0
LINE
  5
10D4
330
1010
100
AcDbEntity
  8
2
100
AcDbLine
 10
-1942.254554188432
 20
173.6076490647623
 30
0.0
 11
-1978.217854630962
 21
173.6076490647623
 31
0.0
  0
LINE
  5
10D5
330
1010
100
AcDbEntity
  8
2
100
AcDbLine
 10
-1978.217854630962
 20
260.5905385797148
 30
0.0
 11
-1942.254554188432
 21
260.5905385797148
 31
0.0
  0
LINE
  5
10D6
330
1010
100
AcDbEntity
  8
2
100
AcDbLine
 10
-1978.217854630962
 20
173.6076490647623
 30
0.0
 11
-1978.217854630962
 21
260.5905385797148
 31
0.0
  0
LINE
  5
10D7
330
1010
100
AcDbEntity
  8
2
100
AcDbLine
 10
-1978.217854630962
 20
173.6076490647623
 30
0.0
 11
-1978.217854630962
 21
260.5905385797148
 31
0.0
  0
LINE
  5
10D8
330
1010
100
AcDbEntity
  8
2
100
AcDbLine
 10
-1992.219146806492
 20
97.66574377339027
 30
0.0
 11
-1992.219146806492
 21
282.9790771067236
 31
0.0
  0
LINE
  5
10D9
330
1010
100
AcDbEntity
  8
2
100
AcDbLine
 10
-1897.829300700601
 20
210.2320235973739
 30
0.0
 11
-1920.041927444517
 21
173.6076490647623
 31
0.0
  0
LINE
  5
10DA
330
1010
100
AcDbEntity
  8
2
100
AcDbLine
 10
-1897.829300700601
 20
210.2320235973739
 30
0.0
 11
-1897.829300700601
 21
173.6076490647623
 31
0.0
  0
LINE
  5
10DB
330
1010
100
AcDbEntity
  8
2
100
AcDbLine
 10
-1897.829300700601
 20
210.2320235973739
 30
0.0
 11
-1920.041927444517
 21
173.6076490647623
 31
0.0
  0
LINE
  5
10DC
330
1010
100
AcDbEntity
  8
2
100
AcDbLine
 10
-1897.829300700601
 20
173.6076490647623
 30
0.0
 11
-1897.829300700601
 21
210.2320235973739
 31
0.0
  0
LINE
  5
10DD
330
1010
100
AcDbEntity
  8
2
100
AcDbLine
 10
-1942.254554188432
 20
173.6076490647623
 30
0.0
 11
-1942.254554188432
 21
210.2320235973739
 31
0.0
  0
LINE
  5
10DE
330
1010
100
AcDbEntity
  8
2
100
AcDbLine
 10
-1942.254554188432
 20
210.2320235973739
 30
0.0
 11
-1942.254554188432
 21
173.6076490647623
 31
0.0
  0
LINE
  5
10DF
330
1010
100
AcDbEntity
  8
2
100
AcDbLine
 10
-1942.254554188432
 20
210.2320235973739
 30
0.0
 11
-1920.041927444517
 21
173.6076490647623
 31
0.0
  0
LINE
  5
10E0
330
1010
100
AcDbEntity
  8
2
100
AcDbLine
 10
-1920.041927444517
 20
173.6076490647623
 30
0.0
 11
-1942.254554188432
 21
210.2320235973739
 31
0.0
  0
LINE
  5
10E1
330
1010
100
AcDbEntity
  8
2
100
AcDbLine
 10
-1897.829300700601
 20
260.5905385797148
 30
0.0
 11
-1920.041927444517
 21
223.9661640471032
 31
0.0
  0
LINE
  5
10E2
330
1010
100
AcDbEntity
  8
2
100
AcDbLine
 10
-1920.041927444517
 20
223.9661640471032
 30
0.0
 11
-1897.829300700601
 21
260.5905385797148
 31
0.0
  0
LINE
  5
10E3
330
1010
100
AcDbEntity
  8
2
100
AcDbLine
 10
-1942.254554188432
 20
260.5905385797148
 30
0.0
 11
-1920.041927444517
 21
223.9661640471032
 31
0.0
  0
LINE
  5
10E4
330
1010
100
AcDbEntity
  8
2
100
AcDbLine
 10
-1942.254554188432
 20
260.5905385797148
 30
0.0
 11
-1920.041927444517
 21
223.9661640471032
 31
0.0
  0
ELLIPSE
  5
10E5
330
1010
100
AcDbEntity
  8
2
100
AcDbEllipse
 10
-1779.806380461151
 20
237.7003044968326
 30
0.0
 11
-0.0000000000004426
 21
22.89023408288222
 31
0.0
210
0.0
220
0.0
230
-1.0
 40
0.9241881291669729
 41
4.077362244994374
 42
6.283185307179586
  0
LINE
  5
10E6
330
1010
100
AcDbEntity
  8
2
100
AcDbLine
 10
-1770.900005021084
 20
173.6076490647623
 30
0.0
 11
-1830.133676338192
 21
260.5905385797148
 31
0.0
  0
LINE
  5
10E7
330
1010
100
AcDbEntity
  8
2
100
AcDbLine
 10
-1830.133676338192
 20
260.5905385797148
 30
0.0
 11
-1770.900005021084
 21
173.6076490647623
 31
0.0
  0
ELLIPSE
  5
10E8
330
1010
100
AcDbEntity
  8
2
100
AcDbEllipse
 10
-1779.806380461151
 20
237.7003044968326
 30
0.0
 11
0.0000000000001163
 21
22.89023408288222
 31
0.0
210
0.0
220
0.0
230
1.0
 40
0.9241881291669608
 41
0.0000000000000056
 42
2.205823062185215
  0
LINE
  5
10E9
330
1010
100
AcDbEntity
  8
2
100
AcDbLine
 10
-1762.438051975783
 20
173.6076490647623
 30
0.0
 11
-1796.837242197475
 21
224.1218396581309
 31
0.0
  0
LINE
  5
10EA
330
1010
100
AcDbEntity
  8
2
100
AcDbLine
 10
-1796.837242197475
 20
224.1218396581309
 30
0.0
 11
-1762.438051975783
 21
173.6076490647623
 31
0.0
  0
LINE
  5
10EB
330
1010
100
AcDbEntity
  8
2
100
AcDbLine
 10
-1816.951882135997
 20
198.7869065559328
 30
0.0
 11
-1830.133676338192
 21
218.1439803824062
 31
0.0
  0
LINE
  5
10EC
330
1010
100
AcDbEntity
  8
2
100
AcDbLine
 10
-1830.133676338192
 20
218.1439803824062
 30
0.0
 11
-1816.951882135997
 21
198.7869065559328
 31
0.0
  0
LINE
  5
10ED
330
1010
100
AcDbEntity
  8
2
100
AcDbLine
 10
-1843.315470540386
 20
198.7869065559328
 30
0.0
 11
-1830.133676338192
 21
218.1439803824062
 31
0.0
  0
LINE
  5
10EE
330
1010
100
AcDbEntity
  8
2
100
AcDbLine
 10
-1843.315470540386
 20
198.7869065559328
 30
0.0
 11
-1830.133676338192
 21
218.1439803824062
 31
0.0
  0
LINE
  5
10EF
330
1010
100
AcDbEntity
  8
2
100
AcDbLine
 10
-1843.315470540386
 20
198.7869065559328
 30
0.0
 11
-1816.951882135997
 21
198.7869065559328
 31
0.0
  0
LINE
  5
10F0
330
1010
100
AcDbEntity
  8
2
100
AcDbLine
 10
-1816.951882135997
 20
198.7869065559328
 30
0.0
 11
-1843.315470540386
 21
198.7869065559328
 31
0.0
  0
LINE
  5
10F1
330
1010
100
AcDbEntity
  8
2
100
AcDbLine
 10
-1762.438051975783
 20
173.6076490647623
 30
0.0
 11
-1737.339939943304
 21
210.463482198381
 31
0.0
  0
LINE
  5
10F2
330
1010
100
AcDbEntity
  8
2
100
AcDbLine
 10
-1762.438051975783
 20
173.6076490647623
 30
0.0
 11
-1737.339939943304
 21
210.463482198381
 31
0.0
  0
LINE
  5
10F3
330
1010
100
AcDbEntity
  8
2
100
AcDbLine
 10
-1737.339939943304
 20
210.463482198381
 30
0.0
 11
-1753.688351827056
 21
210.463482198381
 31
0.0
  0
LINE
  5
10F4
330
1010
100
AcDbEntity
  8
2
100
AcDbLine
 10
-1753.688351827056
 20
223.7347054460961
 30
0.0
 11
-1728.302492691153
 21
223.7347054460961
 31
0.0
  0
LINE
  5
10F5
330
1010
100
AcDbEntity
  8
2
100
AcDbLine
 10
-1737.339939943304
 20
210.463482198381
 30
0.0
 11
-1753.688351827056
 21
210.463482198381
 31
0.0
  0
LINE
  5
10F6
330
1010
100
AcDbEntity
  8
2
100
AcDbLine
 10
-1728.302492691153
 20
223.7347054460961
 30
0.0
 11
-1753.688351827056
 21
223.7347054460961
 31
0.0
  0
ELLIPSE
  5
10F7
330
1010
100
AcDbEntity
  8
2
100
AcDbEllipse
 10
-1753.688351827056
 20
217.0990938222386
 30
0.0
 11
0.0000000000000257
 21
6.635611623857529
 31
0.0
210
0.0
220
0.0
230
-1.0
 40
0.9241881291669779
 41
3.141592653589793
 42
6.283185307179586
  0
ELLIPSE
  5
10F8
330
1010
100
AcDbEntity
  8
2
100
AcDbEllipse
 10
-1753.688351827056
 20
217.0990938222386
 30
0.0
 11
-0.0000000000003219
 21
6.635611623857528
 31
0.0
210
0.0
220
0.0
230
1.0
 40
0.9241881291669438
 41
-0.0000000000000524
 42
3.14159265358974
  0
TEXT
  5
10F9
330
1010
100
AcDbEntity
  8
2
100
AcDbText
 10
-1977.589146806493
 20
565.8257437733903
 30
0.0
 40
19.50666666666666
  1
N.PEZZI
  7
SCRIPTS
100
AcDbText
  0
TEXT
  5
10FA
330
1010
100
AcDbEntity
  8
2
100
AcDbText
 10
-1977.589146806493
 20
668.2357437733903
 30
0.0
 40
19.50666666666666
  1
COMMESSA
  7
SCRIPTS
100
AcDbText
  0
TEXT
  5
10FB
330
1010
100
AcDbEntity
  8
2
100
AcDbText
 10
-1463.913591250937
 20
523.9020275214294
 30
0.0
 40
39.01333333333333
  1
2
  7
_STYLE
 72
     1
 11
-1450.909146806493
 21
523.9020275214294
 31
0.0
100
AcDbText
  0
TRACE
  5
10FC
330
1010
100
AcDbEntity
  8
2
100
AcDbTrace
 10
-1512.355146806493
 20
704.3230771067236
 30
0.0
 11
-1516.256480139826
 21
700.4217437733902
 31
0.0
 12
-1512.355146806493
 22
395.142410440057
 32
0.0
 13
-1516.256480139826
 23
395.142410440057
 33
0.0
  0
LINE
  5
10FD
330
1010
100
AcDbEntity
  8
2
100
AcDbLine
 10
-1392.389146806493
 20
704.3230771067237
 30
0.0
 11
-1392.389146806493
 21
395.142410440057
 31
0.0
  0
LINE
  5
10FE
330
1010
100
AcDbEntity
  8
2
100
AcDbLine
 10
-1514.305813473159
 20
702.372410440057
 30
0.0
 11
-1514.305813473159
 21
87.91241044005694
 31
0.0
  0
TEXT
  5
10FF
330
1010
100
AcDbEntity
  8
2
100
AcDbText
 10
-1489.922480139826
 20
156.1857437733903
 30
0.0
 40
19.50666666666666
  1
DENOMINAZIONE
  7
SCRIPTS
100
AcDbText
  0
ATTDEF
  5
1100
330
1010
100
AcDbEntity
  8
2
100
AcDbText
 10
-1495.326700292607
 20
311.7478008581219
 30
0.0
 40
25.0
  1
ALESSIO
  7
SQUOTA
100
AcDbAttributeDefinition
  3
DISEGN.
  2
DISEGN.
 70
     0
  0
TEXT
  5
1101
330
1010
100
AcDbEntity
  8
2
100
AcDbText
 10
-1489.922480139826
 20
258.5957437733902
 30
0.0
 40
19.50666666666666
  1
CLIENTE
  7
SCRIPTS
100
AcDbText
  0
TEXT
  5
1102
330
1010
100
AcDbEntity
  8
2
100
AcDbText
 10
-1610.241570117534
 20
173.6076490647623
 30
0.0
 40
22.54247999308674
  1
S.R.L.
 41
0.9384452207450728
 51
9.255523436706408
  7
ITALICT
100
AcDbText
  0
ELLIPSE
  5
1103
330
1010
100
AcDbEntity
  8
2
100
AcDbEllipse
 10
-1627.046803250965
 20
233.1222576802561
 30
0.0
 11
-0.0000000000017061
 21
10.07170299646819
 31
0.0
210
0.0
220
0.0
230
1.0
 40
0.9241881291669697
 41
3.141592653589633
 42
6.283185307179426
  0
ELLIPSE
  5
1104
330
1010
100
AcDbEntity
  8
2
100
AcDbEllipse
 10
-1627.046803250964
 20
233.1222576802561
 30
0.0
 11
0.0000000000003434
 21
10.07170299646818
 31
0.0
210
0.0
220
0.0
230
-1.0
 40
0.9241881291669697
 41
0.0
 42
3.141592653589793
  0
ELLIPSE
  5
1105
330
1010
100
AcDbEntity
  8
2
100
AcDbEllipse
 10
-1627.046803250964
 20
233.1222576802561
 30
0.0
 11
0.0000000000003435
 21
27.4682808994587
 31
0.0
210
0.0
220
0.0
230
1.0
 40
0.9241881291669681
 41
3.141592653589806
 42
6.283185307179599
  0
ELLIPSE
  5
1106
330
1010
100
AcDbEntity
  8
2
100
AcDbEllipse
 10
-1627.046803250964
 20
233.1222576802561
 30
0.0
 11
0.0000000000000284
 21
27.46828089945868
 31
0.0
210
0.0
220
0.0
230
-1.0
 40
0.9241881291669688
 41
0.0
 42
3.141592653589793
  0
LINE
  5
1107
330
1010
100
AcDbEntity
  8
2
100
AcDbLine
 10
-1694.742427613373
 20
218.1439803824062
 30
0.0
 11
-1681.560633411179
 21
198.7869065559328
 31
0.0
  0
LINE
  5
1108
330
1010
100
AcDbEntity
  8
2
100
AcDbLine
 10
-1681.560633411179
 20
198.7869065559328
 30
0.0
 11
-1694.742427613373
 21
218.1439803824062
 31
0.0
  0
LINE
  5
1109
330
1010
100
AcDbEntity
  8
2
100
AcDbLine
 10
-1635.508756296265
 20
173.6076490647623
 30
0.0
 11
-1694.742427613373
 21
260.5905385797148
 31
0.0
  0
LINE
  5
110A
330
1010
100
AcDbEntity
  8
2
100
AcDbLine
 10
-1627.046803250964
 20
173.6076490647623
 30
0.0
 11
-1686.280474568072
 21
260.5905385797148
 31
0.0
  0
LINE
  5
110B
330
1010
100
AcDbEntity
  8
2
100
AcDbLine
 10
-1627.046803250964
 20
173.6076490647623
 30
0.0
 11
-1686.280474568072
 21
260.5905385797148
 31
0.0
  0
LINE
  5
110C
330
1010
100
AcDbEntity
  8
2
100
AcDbLine
 10
-1635.508756296265
 20
173.6076490647623
 30
0.0
 11
-1694.742427613373
 21
260.5905385797148
 31
0.0
  0
LINE
  5
110D
330
1010
100
AcDbEntity
  8
2
100
AcDbLine
 10
-1627.046803250964
 20
173.6076490647623
 30
0.0
 11
-1627.046803250964
 21
205.6539767807974
 31
0.0
  0
LINE
  5
110E
330
1010
100
AcDbEntity
  8
2
100
AcDbLine
 10
-1627.046803250964
 20
205.6539767807974
 30
0.0
 11
-1627.046803250964
 21
173.6076490647623
 31
0.0
  0
LINE
  5
110F
330
1010
100
AcDbEntity
  8
2
100
AcDbLine
 10
-1686.280474568072
 20
260.5905385797148
 30
0.0
 11
-1627.046803250964
 21
260.5905385797148
 31
0.0
  0
LINE
  5
1110
330
1010
100
AcDbEntity
  8
2
100
AcDbLine
 10
-1686.280474568072
 20
260.5905385797148
 30
0.0
 11
-1627.046803250964
 21
260.5905385797148
 31
0.0
  0
LINE
  5
1111
330
1010
100
AcDbEntity
  8
2
100
AcDbLine
 10
-1627.046803250964
 20
243.1939606767245
 30
0.0
 11
-1640.764074503347
 21
243.1939606767245
 31
0.0
  0
LINE
  5
1112
330
1010
100
AcDbEntity
  8
2
100
AcDbLine
 10
-1640.764074503347
 20
243.1939606767244
 30
0.0
 11
-1627.046803250964
 21
243.1939606767243
 31
0.0
  0
LINE
  5
1113
330
1010
100
AcDbEntity
  8
2
100
AcDbLine
 10
-1627.046803250964
 20
223.0505546837878
 30
0.0
 11
-1640.764074503347
 21
243.1939606767244
 31
0.0
  0
LINE
  5
1114
330
1010
100
AcDbEntity
  8
2
100
AcDbLine
 10
-1627.046803250964
 20
223.0505546837878
 30
0.0
 11
-1640.764074503347
 21
243.1939606767244
 31
0.0
  0
LINE
  5
1115
330
1010
100
AcDbEntity
  8
2
100
AcDbLine
 10
-1524.059146806493
 20
282.9790771067236
 30
0.0
 11
-1524.059146806493
 21
97.66574377339027
 31
0.0
  0
TEXT
  5
1116
330
1010
100
AcDbEntity
  8
2
100
AcDbText
 10
-1489.922480139826
 20
361.0057437733903
 30
0.0
 40
19.50666666666666
  1
DIS.
  7
SCRIPTS
100
AcDbText
  0
TEXT
  5
1117
330
1010
100
AcDbEntity
  8
2
100
AcDbText
 10
-1480.854177009091
 20
410.9966653836736
 30
0.0
 40
19.50666666666666
  1
POS.
 51
10.0
  7
ITALICT
 72
     1
 11
-1451.59417700909
 21
410.9966653836736
 31
0.0
100
AcDbText
  0
TEXT
  5
1118
330
1010
100
AcDbEntity
  8
2
100
AcDbText
 10
-1457.411369028715
 20
457.5761280865841
 30
0.0
 40
39.01333333333333
  1
1
  7
_STYLE
 72
     1
 11
-1450.909146806493
 21
457.5761280865841
 31
0.0
100
AcDbText
  0
TEXT
  5
1119
330
1010
100
AcDbEntity
  8
2
100
AcDbText
 10
-1259.778621453535
 20
410.9966653836736
 30
0.0
 40
19.50666666666666
  1
CODICE
 51
10.0
  7
ITALICT
 72
     1
 11
-1207.760843675757
 21
410.9966653836736
 31
0.0
100
AcDbText
  0
ATTDEF
  5
111A
330
1010
100
AcDbEntity
  8
2
100
AcDbText
 10
-1182.698336209558
 20
212.6591778102327
 30
0.0
 40
25.0
  1

  7
SQUOTA
 72
     1
 11
-1182.698336209558
 21
212.6591778102327
 31
0.0
100
AcDbAttributeDefinition
  3
CLIENTE
  2
CLIENTE
 70
     0
  0
INSERT
  5
111B
330
1010
100
AcDbEntity
  8
2
100
AcDbBlockReference
  2
COD
 10
-1352.205413473159
 20
523.6180523140765
 30
0.0
 41
9.753333333333333
 42
9.753333333333333
 43
9.753333333333333
  0
INSERT
  5
111C
330
1010
100
AcDbEntity
  8
2
100
AcDbBlockReference
  2
COD
 10
-1352.205413473159
 20
458.8230523140765
 30
0.0
 41
9.753333333333333
 42
9.753333333333333
 43
9.753333333333333
  0
TEXT
  5
111D
330
1010
100
AcDbEntity
  8
2
100
AcDbText
 10
-1243.650813473159
 20
361.0057437733903
 30
0.0
 40
19.50666666666666
  1
Pos. Mag.
  7
SCRIPTS
100
AcDbText
  0
LINE
  5
111E
330
1010
100
AcDbEntity
  8
2
100
AcDbLine
 10
-1268.034146806492
 20
292.7324104400569
 30
0.0
 11
-1268.034146806492
 21
395.142410440057
 31
0.0
  0
TEXT
  5
111F
330
1010
100
AcDbEntity
  8
2
100
AcDbText
 10
-1463.913591250937
 20
656.553819545899
 30
0.0
 40
39.01333333333333
  1
4
  7
_STYLE
 72
     1
 11
-1450.909146806493
 21
656.553819545899
 31
0.0
100
AcDbText
  0
TEXT
  5
1120
330
1010
100
AcDbEntity
  8
2
100
AcDbText
 10
-1463.913591250937
 20
588.6970275214294
 30
0.0
 40
39.01333333333333
  1
3
  7
_STYLE
 72
     1
 11
-1450.909146806493
 21
588.6970275214294
 31
0.0
100
AcDbText
  0
INSERT
  5
1121
330
1010
100
AcDbEntity
  8
2
100
AcDbBlockReference
  2
COD
 10
-1352.205413473159
 20
653.2080523140765
 30
0.0
 41
9.753333333333333
 42
9.753333333333333
 43
9.753333333333333
  0
INSERT
  5
1122
330
1010
100
AcDbEntity
  8
2
100
AcDbBlockReference
  2
COD
 10
-1352.205413473159
 20
588.4130523140765
 30
0.0
 41
9.753333333333333
 42
9.753333333333333
 43
9.753333333333333
  0
TEXT
  5
1123
330
1010
100
AcDbEntity
  8
2
100
AcDbText
 10
-548.7258134731594
 20
361.0057437733903
 30
0.0
 40
19.50666666666666
  1
TRATT.SUPERF.
  7
SCRIPTS
100
AcDbText
  0
LINE
  5
1124
330
1010
100
AcDbEntity
  8
2
100
AcDbLine
 10
-1021.762480139826
 20
704.3230771067237
 30
0.0
 11
-1021.762480139826
 21
292.7324104400569
 31
0.0
  0
LINE
  5
1125
330
1010
100
AcDbEntity
  8
2
100
AcDbLine
 10
-573.1091468064926
 20
702.372410440057
 30
0.0
 11
-573.1091468064926
 21
292.7324104400569
 31
0.0
  0
ATTDEF
  5
1126
330
1010
100
AcDbEntity
  8
2
100
AcDbText
 10
-780.1357990232515
 20
313.2617925972701
 30
0.0
 40
25.0
  1

  7
SQUOTA
100
AcDbAttributeDefinition
  3
DATA
  2
DATA
 70
     0
  0
TEXT
  5
1127
330
1010
100
AcDbEntity
  8
2
100
AcDbText
 10
-773.0524801398262
 20
258.5957437733902
 30
0.0
 40
19.50666666666666
  1
MACCHINA
  7
SCRIPTS
100
AcDbText
  0
TEXT
  5
1128
330
1010
100
AcDbEntity
  8
2
100
AcDbText
 10
-879.3986214535349
 20
410.9966653836736
 30
0.0
 40
19.50666666666666
  1
MATERIALE
 51
10.0
  7
ITALICT
 72
     1
 11
-798.1208436757571
 21
410.9966653836736
 31
0.0
100
AcDbText
  0
TEXT
  5
1129
330
1010
100
AcDbEntity
  8
2
100
AcDbText
 10
-773.0524801398262
 20
361.0057437733903
 30
0.0
 40
19.50666666666666
  1
DATA
  7
SCRIPTS
100
AcDbText
  0
ATTDEF
  5
112A
330
1010
100
AcDbEntity
  8
2
100
AcDbText
 10
-1011.160109276371
 20
522.6907306827298
 30
0.0
 40
25.0
  1
TUB. Q30
  7
SQUOTA
100
AcDbAttributeDefinition
  3
DEFINIZIONE TUBOLARE
  2
TUBOLARE
 70
     0
  0
ATTDEF
  5
112B
330
1010
100
AcDbEntity
  8
2
100
AcDbText
 10
-984.0545061656928
 20
314.1232066077776
 30
0.0
 40
25.0
  1
1:10
  7
SQUOTA
100
AcDbAttributeDefinition
  3
SCALA
  2
SCALA
 70
     0
  0
ATTDEF
  5
112C
330
1010
100
AcDbEntity
  8
2
100
AcDbText
 10
-1011.160109276371
 20
458.2171597684345
 30
0.0
 40
25.0
  1
METACRIL.TRASP.
  7
SQUOTA
100
AcDbAttributeDefinition
  3
DEFINIZIONE LASTRE
  2
LASTRE
 70
     0
  0
TEXT
  5
112D
330
1010
100
AcDbEntity
  8
2
100
AcDbText
 10
-997.3791468064929
 20
361.0057437733903
 30
0.0
 40
19.50666666666666
  1
SCALA
  7
SCRIPTS
100
AcDbText
  0
LINE
  5
112E
330
1010
100
AcDbEntity
  8
2
100
AcDbLine
 10
-797.4358134731592
 20
190.3224104400569
 30
0.0
 11
-797.4358134731594
 21
395.142410440057
 31
0.0
  0
LINE
  5
112F
330
1010
100
AcDbEntity
  8
2
100
AcDbLine
 10
-573.1091468064926
 20
190.3224104400569
 30
0.0
 11
-573.1091468064926
 21
87.91241044005694
 31
0.0
  0
ATTDEF
  5
1130
330
1010
100
AcDbEntity
  8
2
100
AcDbText
 10
-625.4928625360851
 20
210.2054513244385
 30
0.0
 40
25.0
  1

  7
SQUOTA
100
AcDbAttributeDefinition
  3
MACCHINA
  2
MACCHINA
 70
     0
  0
TEXT
  5
1131
330
1010
100
AcDbEntity
  8
2
100
AcDbText
 10
-548.7258134731594
 20
156.1857437733903
 30
0.0
 40
19.50666666666666
  1
CODICE
  7
SCRIPTS
100
AcDbText
  0
TEXT
  5
1132
330
1010
100
AcDbEntity
  8
2
100
AcDbText
 10
-549.4108436757572
 20
410.9966653836736
 30
0.0
 40
19.50666666666666
  1
TAGLIO 1
 51
10.0
  7
ITALICT
 72
     1
 11
-481.1375103424238
 21
410.9966653836736
 31
0.0
100
AcDbText
  0
ATTDEF
  5
1133
330
1010
100
AcDbEntity
  8
2
100
AcDbText
 10
-1011.160109276371
 20
587.4857306827299
 30
0.0
 40
25.0
  1
RAL 7039
  7
SQUOTA
100
AcDbAttributeDefinition
  3
DEFINIZIONE COMPONENTI
  2
COMPONENTI
 70
     0
  0
ATTDEF
  5
1134
330
1010
100
AcDbEntity
  8
2
100
AcDbText
 10
-1011.160109276371
 20
653.4026715178043
 30
0.0
 40
25.0
  1
SENZA MICRO
  7
SQUOTA
100
AcDbAttributeDefinition
  3
DEFINIZIONE MICRO
  2
MICRO
 70
     0
  0
TRACE
  5
1135
330
1010
100
AcDbEntity
  8
2
100
AcDbTrace
 10
-88.36848013982603
 20
702.372410440057
 30
0.0
 11
-92.26981347315927
 21
702.372410440057
 31
0.0
 12
-88.36848013982603
 22
85.96174377339027
 32
0.0
 13
-92.26981347315927
 23
89.86307710672361
 33
0.0
  0
LINE
  5
1136
330
1010
100
AcDbEntity
  8
2
100
AcDbLine
 10
-182.9758134731594
 20
704.3230771067237
 30
0.0
 11
-182.9758134731594
 21
395.142410440057
 31
0.0
  0
LINE
  5
1137
330
1010
100
AcDbEntity
  8
2
100
AcDbLine
 10
-378.042480139826
 20
704.3230771067237
 30
0.0
 11
-378.042480139826
 21
395.142410440057
 31
0.0
  0
LINE
  5
1138
330
1010
100
AcDbEntity
  8
2
100
AcDbLine
 10
-90.31914680649265
 20
702.372410440057
 30
0.0
 11
-90.31914680649265
 21
87.91241044005694
 31
0.0
  0
ATTDEF
  5
1139
330
1010
100
AcDbEntity
  8
2
100
AcDbText
 10
-387.3918405589762
 20
114.5102813599168
 30
0.0
 40
34.0
  1

  7
SQUOTA
100
AcDbAttributeDefinition
  3
CODICE
  2
CODICE
 70
     0
  0
INSERT
  5
113A
330
1010
100
AcDbEntity
  8
2
100
AcDbBlockReference
  2
COD
 10
-392.6724801398261
 20
97.66574377339026
 30
0.0
 41
9.753333333333333
 42
9.753333333333333
 43
9.753333333333333
  0
TEXT
  5
113B
330
1010
100
AcDbEntity
  8
2
100
AcDbText
 10
-352.7186214535349
 20
410.9966653836736
 30
0.0
 40
19.50666666666666
  1
TAGLIO 2
 51
10.0
  7
ITALICT
 72
     1
 11
-281.1941770090905
 21
410.9966653836736
 31
0.0
100
AcDbText
  0
TEXT
  5
113C
330
1010
100
AcDbEntity
  8
2
100
AcDbText
 10
-159.2775103424235
 20
410.9966653836736
 30
0.0
 40
19.50666666666666
  1
QT:
 51
10.0
  7
ITALICT
 72
     1
 11
-139.7708436757568
 21
410.9966653836736
 31
0.0
100
AcDbText
  0
ENDBLK
  5
10A7
330
1010
100
AcDbEntity
  8
0
100
AcDbBlockEnd
  0
BLOCK
  5
162E
330
1624
100
AcDbEntity
  8
0
100
AcDbBlockBegin
  2
CART
 70
     2
 10
0.0
 20
0.0
 30
0.0
  3
CART
  1

  0
ATTDEF
  5
1625
330
1624
100
AcDbEntity
  8
2
100
AcDbText
 10
47.89912502166248
 20
21.56942661966184
 30
0.0
 40
25.0
  1
L
  7
SIMPLEX
100
AcDbAttributeDefinition
  3
—1o carattere
  2
1
 70
     0
  0
ATTDEF
  5
1626
330
1624
100
AcDbEntity
  8
2
100
AcDbText
 10
89.06526911650486
 20
21.56942661966184
 30
0.0
 40
25.0
  1
1
  7
SIMPLEX
100
AcDbAttributeDefinition
  3
2o carattere
  2
2
 70
     0
  0
ATTDEF
  5
1627
330
1624
100
AcDbEntity
  8
2
100
AcDbText
 10
125.6002211689142
 20
21.56942661966184
 30
0.0
 40
25.0
  1
0
  7
SIMPLEX
100
AcDbAttributeDefinition
  3
3o carattere
  2
3
 70
     0
  0
ATTDEF
  5
1628
330
1624
100
AcDbEntity
  8
2
100
AcDbText
 10
163.6789039021346
 20
21.56942661966184
 30
0.0
 40
25.0
  1
1
  7
SIMPLEX
100
AcDbAttributeDefinition
  3
4o carattere
  2
4
 70
     0
  0
ATTDEF
  5
1629
330
1624
100
AcDbEntity
  8
2
100
AcDbText
 10
196.0972481991668
 20
21.56942661966184
 30
0.0
 40
25.0
  1
0
  7
SIMPLEX
100
AcDbAttributeDefinition
  3
5o carattere
  2
5
 70
     0
  0
ATTDEF
  5
162A
330
1624
100
AcDbEntity
  8
2
100
AcDbText
 10
232.6322002515762
 20
22.08380422717358
 30
0.0
 40
25.0
  1
5
  7
SIMPLEX
100
AcDbAttributeDefinition
  3
6o carattere
  2
6
 70
     0
  0
ATTDEF
  5
162B
330
1624
100
AcDbEntity
  8
2
100
AcDbText
 10
853.0182106978317
 20
17.06417967959214
 30
0.0
 40
25.0
  1

  7
SIMPLEX
100
AcDbAttributeDefinition
  3
Dimensione 1
  2
DIM1
 70
     0
  0
ATTDEF
  5
162C
330
1624
100
AcDbEntity
  8
2
100
AcDbText
 10
1047.000084543826
 20
17.06417967959214
 30
0.0
 40
25.0
  1

  7
SIMPLEX
100
AcDbAttributeDefinition
  3
Dimensione 2
  2
DIM2
 70
     0
  0
ATTDEF
  5
162D
330
1624
100
AcDbEntity
  8
2
100
AcDbText
 10
1252.645912683947
 20
17.06417967959214
 30
0.0
 40
25.0
  1
1
  7
SIMPLEX
 72
     1
 11
1255.622103160138
 21
17.06417967959214
 31
0.0
100
AcDbAttributeDefinition
  3
Quantita'
  2
Q
 70
     0
  0
ENDBLK
  5
162F
330
1624
100
AcDbEntity
  8
0
100
AcDbBlockEnd
  0
BLOCK
  5
20D8
330
20D7
100
AcDbEntity
  8
0
100
AcDbBlockBegin
  2
_NONE
 70
     0
 10
0.0
 20
0.0
 30
0.0
  3
_NONE
  1

  0
CIRCLE
  5
20D9
330
20D7
100
AcDbEntity
  8
0
  6
ByBlock
 62
     0
100
AcDbCircle
 10
0.0
 20
0.0
 30
0.0
 40
0.25
  0
ENDBLK
  5
20DA
330
20D7
100
AcDbEntity
  8
0
100
AcDbBlockEnd
  0
BLOCK
  5
20DC
330
20DB
100
AcDbEntity
  8
0
100
AcDbBlockBegin
  2
A$C5B540C28
 70
     0
 10
0.0
 20
0.0
 30
0.0
  3
A$C5B540C28
  1

  0
LINE
  5
20DD
330
20DB
100
AcDbEntity
  8
2
 62
     0
100
AcDbLine
 10
100.3343557759194
 20
82.8028901070238
 30
0.0
 11
-0.0000000053145186
 21
82.8028901070238
 31
0.0
1001
TOP
1070
     4
  0
LINE
  5
20DE
330
20DB
100
AcDbEntity
  8
2
 62
     0
100
AcDbLine
 10
50.75052522242685
 20
0.0000000683198778
 30
0.0
 11
-0.0000000053145186
 21
82.8028901070238
 31
0.0
1001
TOP
1070
     4
  0
LINE
  5
20DF
330
20DB
100
AcDbEntity
  8
2
 62
     0
100
AcDbLine
 10
50.75052522242685
 20
0.0000000683198778
 30
0.0
 11
100.3343557759194
 21
82.8028901070238
 31
0.0
1001
TOP
1070
     4
  0
ENDBLK
  5
20E0
330
20DB
100
AcDbEntity
  8
0
100
AcDbBlockEnd
  0
BLOCK
  5
2141
330
2140
100
AcDbEntity
  8
0
 62
     3
100
AcDbBlockBegin
  2
*D5
 70
     1
 10
0.0
 20
0.0
 30
0.0
  3
*D5
  1

  0
LINE
  5
23A2
330
2140
100
AcDbEntity
  8
P-0000
  6
Continuous
 62
     2
370
    -2
100
AcDbLine
 10
951.5729421382216
 20
1593.758420737664
 30
0.0
 11
951.5729421382216
 21
1565.253448164931
 31
0.0
  0
LINE
  5
23A3
330
2140
100
AcDbEntity
  8
P-0000
  6
Continuous
 62
     2
370
    -2
100
AcDbLine
 10
871.5729421387704
 20
1592.758420737116
 30
0.0
 11
871.5729421387704
 21
1565.253448164931
 31
0.0
  0
LINE
  5
23A4
330
2140
100
AcDbEntity
  8
P-0000
  6
Continuous
 62
     2
370
    -2
100
AcDbLine
 10
949.5729421382216
 20
1566.753448164931
 30
0.0
 11
873.5729421387704
 21
1566.753448164931
 31
0.0
  0
SOLID
  5
23A5
330
2140
100
AcDbEntity
  8
P-0000
  6
Continuous
 62
     2
100
AcDbTrace
 10
949.5729421382216
 20
1567.086781498265
 30
0.0
 11
949.5729421382216
 21
1566.420114831598
 31
0.0
 12
951.5729421382216
 22
1566.753448164931
 32
0.0
 13
951.5729421382216
 23
1566.753448164931
 33
0.0
  0
SOLID
  5
23A6
330
2140
100
AcDbEntity
  8
P-0000
  6
Continuous
 62
     2
100
AcDbTrace
 10
873.5729421387704
 20
1567.086781498265
 30
0.0
 11
873.5729421387704
 21
1566.420114831598
 31
0.0
 12
871.5729421387704
 22
1566.753448164931
 32
0.0
 13
871.5729421387704
 23
1566.753448164931
 33
0.0
  0
MTEXT
  5
23A7
330
2140
100
AcDbEntity
  8
P-0000
  6
Continuous
 62
     1
100
AcDbMText
 10
911.572942138496
 20
1568.776042917118
 30
0.0
 40
2.0
 41
0.0
 71
     5
 72
     1
  1
\A1;80
  7
Stile_Quota
 73
     1
 44
1.0
1001
ACAD
1000
MTEXTBEGIN
1070
    73
1070
     1
1070
    44
1040
1.0
1070
    74
1070
     0
1000
MTEXTEND
  0
POINT
  5
23A8
330
2140
100
AcDbEntity
  8
DEFPOINTS
  6
Continuous
 62
     0
100
AcDbPoint
 10
951.5729421382216
 20
1594.758420737664
 30
0.0
  0
POINT
  5
23A9
330
2140
100
AcDbEntity
  8
DEFPOINTS
  6
Continuous
 62
     0
100
AcDbPoint
 10
871.5729421387704
 20
1593.758420737116
 30
0.0
  0
POINT
  5
23AA
330
2140
100
AcDbEntity
  8
DEFPOINTS
  6
Continuous
 62
     0
100
AcDbPoint
 10
871.5729421387704
 20
1566.753448164931
 30
0.0
  0
ENDBLK
  5
2142
330
2140
100
AcDbEntity
  8
0
 62
     3
100
AcDbBlockEnd
  0
BLOCK
  5
214E
330
214D
100
AcDbEntity
  8
0
 62
     3
100
AcDbBlockBegin
  2
*D6
 70
     1
 10
0.0
 20
0.0
 30
0.0
  3
*D6
  1

  0
LINE
  5
23AB
330
214D
100
AcDbEntity
  8
P-0000
  6
Continuous
 62
     2
370
    -2
100
AcDbLine
 10
951.5729421382216
 20
1593.758420737116
 30
0.0
 11
980.0779147078092
 21
1593.758420737116
 31
0.0
  0
LINE
  5
23AC
330
214D
100
AcDbEntity
  8
P-0000
  6
Continuous
 62
     2
370
    -2
100
AcDbLine
 10
952.5729420949428
 20
1673.758420737115
 30
0.0
 11
980.0779147078092
 21
1673.758420737115
 31
0.0
  0
LINE
  5
23AD
330
214D
100
AcDbEntity
  8
P-0000
  6
Continuous
 62
     2
370
    -2
100
AcDbLine
 10
978.5779147078091
 20
1595.758420737116
 30
0.0
 11
978.5779147078091
 21
1671.758420737116
 31
0.0
  0
SOLID
  5
23AE
330
214D
100
AcDbEntity
  8
P-0000
  6
Continuous
 62
     2
100
AcDbTrace
 10
978.2445813744757
 20
1595.758420737116
 30
0.0
 11
978.9112480411425
 21
1595.758420737116
 31
0.0
 12
978.5779147078091
 22
1593.758420737116
 32
0.0
 13
978.5779147078091
 23
1593.758420737116
 33
0.0
  0
SOLID
  5
23AF
330
214D
100
AcDbEntity
  8
P-0000
  6
Continuous
 62
     2
100
AcDbTrace
 10
978.2445813744757
 20
1671.758420737116
 30
0.0
 11
978.9112480411425
 21
1671.758420737116
 31
0.0
 12
978.5779147078091
 22
1673.758420737115
 32
0.0
 13
978.5779147078091
 23
1673.758420737115
 33
0.0
  0
MTEXT
  5
23B0
330
214D
100
AcDbEntity
  8
P-0000
  6
Continuous
 62
     1
100
AcDbMText
 10
976.5553199556224
 20
1633.758420737116
 30
0.0
 40
2.0
 41
0.0
 71
     5
 72
     1
  1
\A1;80
  7
Stile_Quota
 11
0.0000000000000001
 21
1.0
 31
0.0
 73
     1
 44
1.0
1001
ACAD
1000
MTEXTBEGIN
1070
    73
1070
     1
1070
    44
1040
1.0
1070
    74
1070
     0
1000
MTEXTEND
  0
POINT
  5
23B1
330
214D
100
AcDbEntity
  8
DEFPOINTS
  6
Continuous
 62
     0
100
AcDbPoint
 10
950.5729421382216
 20
1593.758420737116
 30
0.0
  0
POINT
  5
23B2
330
214D
100
AcDbEntity
  8
DEFPOINTS
  6
Continuous
 62
     0
100
AcDbPoint
 10
951.5729420949428
 20
1673.758420737115
 30
0.0
  0
POINT
  5
23B3
330
214D
100
AcDbEntity
  8
DEFPOINTS
  6
Continuous
 62
     0
100
AcDbPoint
 10
978.5779147078091
 20
1673.758420737115
 30
0.0
  0
ENDBLK
  5
214F
330
214D
100
AcDbEntity
  8
0
 62
     3
100
AcDbBlockEnd
  0
BLOCK
  5
215B
330
215A
100
AcDbEntity
  8
0
 62
     3
100
AcDbBlockBegin
  2
*D7
 70
     1
 10
0.0
 20
0.0
 30
0.0
  3
*D7
  1

  0
LINE
  5
234B
330
215A
100
AcDbEntity
  8
P-0000
  6
Continuous
 62
     2
370
    -2
100
AcDbLine
 10
1005.489254032108
 20
1592.758420737132
 30
0.0
 11
1005.489254032108
 21
1564.099021040146
 31
0.0
  0
LINE
  5
234C
330
215A
100
AcDbEntity
  8
P-0000
  6
Continuous
 62
     2
370
    -2
100
AcDbLine
 10
1027.489254032108
 20
1592.758420737129
 30
0.0
 11
1027.489254032108
 21
1564.099021040146
 31
0.0
  0
LINE
  5
234D
330
215A
100
AcDbEntity
  8
P-0000
  6
Continuous
 62
     2
370
    -2
100
AcDbLine
 10
1007.489254032108
 20
1565.599021040146
 30
0.0
 11
1025.489254032108
 21
1565.599021040146
 31
0.0
  0
SOLID
  5
234E
330
215A
100
AcDbEntity
  8
P-0000
  6
Continuous
 62
     2
100
AcDbTrace
 10
1007.489254032108
 20
1565.932354373479
 30
0.0
 11
1007.489254032108
 21
1565.265687706812
 31
0.0
 12
1005.489254032108
 22
1565.599021040146
 32
0.0
 13
1005.489254032108
 23
1565.599021040146
 33
0.0
  0
SOLID
  5
234F
330
215A
100
AcDbEntity
  8
P-0000
  6
Continuous
 62
     2
100
AcDbTrace
 10
1025.489254032108
 20
1565.932354373479
 30
0.0
 11
1025.489254032108
 21
1565.265687706812
 31
0.0
 12
1027.489254032108
 22
1565.599021040146
 32
0.0
 13
1027.489254032108
 23
1565.599021040146
 33
0.0
  0
MTEXT
  5
2350
330
215A
100
AcDbEntity
  8
P-0000
  6
Continuous
 62
     1
100
AcDbMText
 10
1016.489254032108
 20
1567.599021040146
 30
0.0
 40
2.0
 41
0.0
 71
     5
 72
     1
  1
\A1;22
  7
Stile_Quota
 73
     1
 44
1.0
1001
ACAD
1000
MTEXTBEGIN
1070
    73
1070
     1
1070
    44
1040
1.0
1070
    74
1070
     0
1000
MTEXTEND
  0
POINT
  5
2351
330
215A
100
AcDbEntity
  8
DEFPOINTS
  6
Continuous
 62
     0
100
AcDbPoint
 10
1005.489254032108
 20
1593.758420737132
 30
0.0
  0
POINT
  5
2352
330
215A
100
AcDbEntity
  8
DEFPOINTS
  6
Continuous
 62
     0
100
AcDbPoint
 10
1027.489254032108
 20
1593.758420737129
 30
0.0
  0
POINT
  5
2353
330
215A
100
AcDbEntity
  8
DEFPOINTS
  6
Continuous
 62
     0
100
AcDbPoint
 10
1027.489254032108
 20
1565.599021040146
 30
0.0
  0
ENDBLK
  5
215C
330
215A
100
AcDbEntity
  8
0
 62
     3
100
AcDbBlockEnd
  0
BLOCK
  5
2168
330
2167
100
AcDbEntity
  8
0
 62
     3
100
AcDbBlockBegin
  2
*D8
 70
     1
 10
0.0
 20
0.0
 30
0.0
  3
*D8
  1

  0
LINE
  5
23BD
330
2167
100
AcDbEntity
  8
P-0000
  6
Continuous
 62
     2
370
    -2
100
AcDbLine
 10
951.5729421382216
 20
1593.758420737116
 30
0.0
 11
975.2398972953354
 21
1593.758420737116
 31
0.0
  0
LINE
  5
23BE
330
2167
100
AcDbEntity
  8
P-0000
  6
Continuous
 62
     2
370
    -2
100
AcDbLine
 10
957.480854254123
 20
1618.758420737117
 30
0.0
 11
975.2398972953354
 21
1618.758420737117
 31
0.0
  0
LINE
  5
23BF
330
2167
100
AcDbEntity
  8
P-0000
  6
Continuous
 62
     2
370
    -2
100
AcDbLine
 10
973.7398972953355
 20
1595.758420737116
 30
0.0
 11
973.7398972953355
 21
1616.758420737116
 31
0.0
  0
SOLID
  5
23C0
330
2167
100
AcDbEntity
  8
P-0000
  6
Continuous
 62
     2
100
AcDbTrace
 10
973.4065639620022
 20
1595.758420737116
 30
0.0
 11
974.0732306286687
 21
1595.758420737116
 31
0.0
 12
973.7398972953355
 22
1593.758420737116
 32
0.0
 13
973.7398972953355
 23
1593.758420737116
 33
0.0
  0
SOLID
  5
23C1
330
2167
100
AcDbEntity
  8
P-0000
  6
Continuous
 62
     2
100
AcDbTrace
 10
973.4065639620022
 20
1616.758420737116
 30
0.0
 11
974.0732306286687
 21
1616.758420737116
 31
0.0
 12
973.7398972953355
 22
1618.758420737117
 32
0.0
 13
973.7398972953355
 23
1618.758420737117
 33
0.0
  0
MTEXT
  5
23C2
330
2167
100
AcDbEntity
  8
P-0000
  6
Continuous
 62
     1
100
AcDbMText
 10
971.7173025431486
 20
1606.258420737116
 30
0.0
 40
2.0
 41
0.0
 71
     5
 72
     1
  1
\A1;25
  7
Stile_Quota
 11
0.0000000000000001
 21
1.0
 31
0.0
 73
     1
 44
1.0
1001
ACAD
1000
MTEXTBEGIN
1070
    73
1070
     1
1070
    44
1040
1.0
1070
    74
1070
     0
1000
MTEXTEND
  0
POINT
  5
23C3
330
2167
100
AcDbEntity
  8
DEFPOINTS
  6
Continuous
 62
     0
100
AcDbPoint
 10
950.5729421382216
 20
1593.758420737116
 30
0.0
  0
POINT
  5
23C4
330
2167
100
AcDbEntity
  8
DEFPOINTS
  6
Continuous
 62
     0
100
AcDbPoint
 10
956.4808542541229
 20
1618.758420737117
 30
0.0
  0
POINT
  5
23C5
330
2167
100
AcDbEntity
  8
DEFPOINTS
  6
Continuous
 62
     0
100
AcDbPoint
 10
973.7398972953355
 20
1618.758420737117
 30
0.0
  0
ENDBLK
  5
2169
330
2167
100
AcDbEntity
  8
0
 62
     3
100
AcDbBlockEnd
  0
BLOCK
  5
2175
330
2174
100
AcDbEntity
  8
0
 62
     3
100
AcDbBlockBegin
  2
*D9
 70
     1
 10
0.0
 20
0.0
 30
0.0
  3
*D9
  1

  0
LINE
  5
23B4
330
2174
100
AcDbEntity
  8
P-0000
  6
Continuous
 62
     2
370
    -2
100
AcDbLine
 10
957.4808542102903
 20
1658.758420737117
 30
0.0
 11
975.2398972953354
 21
1658.758420737117
 31
0.0
  0
LINE
  5
23B5
330
2174
100
AcDbEntity
  8
P-0000
  6
Continuous
 62
     2
370
    -2
100
AcDbLine
 10
957.4808542541228
 20
1618.758420737117
 30
0.0
 11
975.2398972953354
 21
1618.758420737117
 31
0.0
  0
LINE
  5
23B6
330
2174
100
AcDbEntity
  8
P-0000
  6
Continuous
 62
     2
370
    -2
100
AcDbLine
 10
973.7398972953355
 20
1656.758420737117
 30
0.0
 11
973.7398972953355
 21
1620.758420737116
 31
0.0
  0
SOLID
  5
23B7
330
2174
100
AcDbEntity
  8
P-0000
  6
Continuous
 62
     2
100
AcDbTrace
 10
973.4065639620022
 20
1656.758420737117
 30
0.0
 11
974.0732306286687
 21
1656.758420737117
 31
0.0
 12
973.7398972953355
 22
1658.758420737117
 32
0.0
 13
973.7398972953355
 23
1658.758420737117
 33
0.0
  0
SOLID
  5
23B8
330
2174
100
AcDbEntity
  8
P-0000
  6
Continuous
 62
     2
100
AcDbTrace
 10
973.4065639620022
 20
1620.758420737116
 30
0.0
 11
974.0732306286687
 21
1620.758420737116
 31
0.0
 12
973.7398972953355
 22
1618.758420737117
 32
0.0
 13
973.7398972953355
 23
1618.758420737117
 33
0.0
  0
MTEXT
  5
23B9
330
2174
100
AcDbEntity
  8
P-0000
  6
Continuous
 62
     1
100
AcDbMText
 10
971.7173025431486
 20
1638.758420737117
 30
0.0
 40
2.0
 41
0.0
 71
     5
 72
     1
  1
\A1;40
  7
Stile_Quota
 11
0.0000000000000001
 21
1.0
 31
0.0
 73
     1
 44
1.0
1001
ACAD
1000
MTEXTBEGIN
1070
    73
1070
     1
1070
    44
1040
1.0
1070
    74
1070
     0
1000
MTEXTEND
  0
POINT
  5
23BA
330
2174
100
AcDbEntity
  8
DEFPOINTS
  6
Continuous
 62
     0
100
AcDbPoint
 10
956.4808542102904
 20
1658.758420737117
 30
0.0
  0
POINT
  5
23BB
330
2174
100
AcDbEntity
  8
DEFPOINTS
  6
Continuous
 62
     0
100
AcDbPoint
 10
956.4808542541229
 20
1618.758420737117
 30
0.0
  0
POINT
  5
23BC
330
2174
100
AcDbEntity
  8
DEFPOINTS
  6
Continuous
 62
     0
100
AcDbPoint
 10
973.7398972953355
 20
1618.758420737117
 30
0.0
  0
ENDBLK
  5
2176
330
2174
100
AcDbEntity
  8
0
 62
     3
100
AcDbBlockEnd
  0
BLOCK
  5
2182
330
2181
100
AcDbEntity
  8
0
 62
     3
100
AcDbBlockBegin
  2
*D10
 70
     1
 10
0.0
 20
0.0
 30
0.0
  3
*D10
  1

  0
LINE
  5
23C6
330
2181
100
AcDbEntity
  8
P-0000
  6
Continuous
 62
     2
370
    -2
100
AcDbLine
 10
952.5729421048039
 20
1655.758420737116
 30
0.0
 11
970.3462242276113
 21
1655.758420737116
 31
0.0
  0
LINE
  5
23C7
330
2181
100
AcDbEntity
  8
P-0000
  6
Continuous
 62
     2
370
    -2
100
AcDbLine
 10
952.5729421015169
 20
1661.758420737116
 30
0.0
 11
970.3462242276113
 21
1661.758420737116
 31
0.0
  0
LINE
  5
23C8
330
2181
100
AcDbEntity
  8
P-0000
  6
Continuous
 62
     2
370
    -2
100
AcDbLine
 10
968.8462242276113
 20
1653.758420737116
 30
0.0
 11
968.8462242276113
 21
1651.758420737116
 31
0.0
  0
LINE
  5
23C9
330
2181
100
AcDbEntity
  8
P-0000
  6
Continuous
 62
     2
370
    -2
100
AcDbLine
 10
968.8462242276113
 20
1663.758420737116
 30
0.0
 11
968.8462242276113
 21
1670.946467384346
 31
0.0
  0
LINE
  5
23CA
330
2181
100
AcDbEntity
  8
P-0000
  6
Continuous
 62
     2
370
    -2
100
AcDbLine
 10
968.8462242276113
 20
1655.758420737116
 30
0.0
 11
968.8462242276113
 21
1661.758420737116
 31
0.0
  0
SOLID
  5
23CB
330
2181
100
AcDbEntity
  8
P-0000
  6
Continuous
 62
     2
100
AcDbTrace
 10
968.5128908942779
 20
1653.758420737116
 30
0.0
 11
969.1795575609447
 21
1653.758420737116
 31
0.0
 12
968.8462242276113
 22
1655.758420737116
 32
0.0
 13
968.8462242276113
 23
1655.758420737116
 33
0.0
  0
SOLID
  5
23CC
330
2181
100
AcDbEntity
  8
P-0000
  6
Continuous
 62
     2
100
AcDbTrace
 10
968.5128908942779
 20
1663.758420737116
 30
0.0
 11
969.1795575609447
 21
1663.758420737116
 31
0.0
 12
968.8462242276113
 22
1661.758420737116
 32
0.0
 13
968.8462242276113
 23
1661.758420737116
 33
0.0
  0
MTEXT
  5
23CD
330
2181
100
AcDbEntity
  8
P-0000
  6
Continuous
 62
     1
100
AcDbMText
 10
966.8032213121591
 20
1668.352444060731
 30
0.0
 40
2.0
 41
0.0
 71
     5
 72
     1
  1
\A1;%%C6
  7
Stile_Quota
 11
0.0000000000000001
 21
1.0
 31
0.0
 73
     1
 44
1.0
1001
ACAD
1000
MTEXTBEGIN
1070
    73
1070
     1
1070
    44
1040
1.0
1070
    74
1070
     0
1000
MTEXTEND
  0
POINT
  5
23CE
330
2181
100
AcDbEntity
  8
DEFPOINTS
  6
Continuous
 62
     0
100
AcDbPoint
 10
951.5729421048037
 20
1655.758420737116
 30
0.0
  0
POINT
  5
23CF
330
2181
100
AcDbEntity
  8
DEFPOINTS
  6
Continuous
 62
     0
100
AcDbPoint
 10
951.5729421015169
 20
1661.758420737116
 30
0.0
  0
POINT
  5
23D0
330
2181
100
AcDbEntity
  8
DEFPOINTS
  6
Continuous
 62
     0
100
AcDbPoint
 10
968.8462242276113
 20
1661.758420737116
 30
0.0
  0
ENDBLK
  5
2183
330
2181
100
AcDbEntity
  8
0
 62
     3
100
AcDbBlockEnd
  0
BLOCK
  5
21B9
330
21B8
100
AcDbEntity
  8
0
 62
     3
100
AcDbBlockBegin
  2
*D11
 70
     1
 10
0.0
 20
0.0
 30
0.0
  3
*D11
  1

  0
LINE
  5
21C4
330
21B8
100
AcDbEntity
  8
P-0000
  6
Continuous
 62
     2
370
    -2
100
AcDbLine
 10
941.1658696557978
 20
1653.508420737115
 30
0.0
 11
926.0189653017844
 21
1653.508420737115
 31
0.0
  0
LINE
  5
21C5
330
21B8
100
AcDbEntity
  8
P-0000
  6
Continuous
 62
     2
370
    -2
100
AcDbLine
 10
941.1658696557967
 20
1664.008420737115
 30
0.0
 11
926.0189653017844
 21
1664.008420737115
 31
0.0
  0
LINE
  5
21C6
330
21B8
100
AcDbEntity
  8
P-0000
  6
Continuous
 62
     2
370
    -2
100
AcDbLine
 10
927.5189653017845
 20
1655.508420737115
 30
0.0
 11
927.5189653017845
 21
1662.008420737115
 31
0.0
  0
SOLID
  5
21C7
330
21B8
100
AcDbEntity
  8
P-0000
  6
Continuous
 62
     2
100
AcDbTrace
 10
927.1856319684511
 20
1655.508420737115
 30
0.0
 11
927.8522986351179
 21
1655.508420737115
 31
0.0
 12
927.5189653017845
 22
1653.508420737115
 32
0.0
 13
927.5189653017845
 23
1653.508420737115
 33
0.0
  0
SOLID
  5
21C8
330
21B8
100
AcDbEntity
  8
P-0000
  6
Continuous
 62
     2
100
AcDbTrace
 10
927.1856319684511
 20
1662.008420737115
 30
0.0
 11
927.8522986351179
 21
1662.008420737115
 31
0.0
 12
927.5189653017845
 22
1664.008420737115
 32
0.0
 13
927.5189653017845
 23
1664.008420737115
 33
0.0
  0
MTEXT
  5
21C9
330
21B8
100
AcDbEntity
  8
P-0000
  6
Continuous
 62
     1
100
AcDbMText
 10
925.4759623863323
 20
1658.758420737115
 30
0.0
 40
2.0
 41
0.0
 71
     5
 72
     1
  1
\A1;%%C10.5
  7
Stile_Quota
 11
0.0000000000000001
 21
1.0
 31
0.0
 73
     1
 44
1.0
1001
ACAD
1000
MTEXTBEGIN
1070
    73
1070
     1
1070
    44
1040
1.0
1070
    74
1070
     0
1000
MTEXTEND
  0
POINT
  5
21CA
330
21B8
100
AcDbEntity
  8
DEFPOINTS
  6
Continuous
 62
     0
100
AcDbPoint
 10
942.165869655798
 20
1653.508420737115
 30
0.0
  0
POINT
  5
21CB
330
21B8
100
AcDbEntity
  8
DEFPOINTS
  6
Continuous
 62
     0
100
AcDbPoint
 10
942.1658696557967
 20
1664.008420737115
 30
0.0
  0
POINT
  5
21CC
330
21B8
100
AcDbEntity
  8
DEFPOINTS
  6
Continuous
 62
     0
100
AcDbPoint
 10
927.5189653017845
 20
1664.008420737115
 30
0.0
  0
ENDBLK
  5
21BA
330
21B8
100
AcDbEntity
  8
0
 62
     3
100
AcDbBlockEnd
  0
BLOCK
  5
2330
330
2214
100
AcDbEntity
  8
0
 62
     2
100
AcDbBlockBegin
  2
TAB-A3
 70
     2
 10
0.0
 20
0.0
 30
0.0
  3
TAB-A3
  1

  0
LINE
  5
2215
330
2214
100
AcDbEntity
  8
0
  6
Continuous
 62
     0
100
AcDbLine
 10
205.0
 20
143.5
 30
0.0
 11
-205.0
 21
143.5
 31
0.0
1001
TOP
1070
     7
  0
LINE
  5
2216
330
2214
100
AcDbEntity
  8
0
  6
Continuous
 62
     0
100
AcDbLine
 10
-205.0
 20
-143.5
 30
0.0
 11
205.0
 21
-143.5
 31
0.0
1001
TOP
1070
     7
  0
LINE
  5
2217
330
2214
100
AcDbEntity
  8
0
  6
Continuous
 62
     0
100
AcDbLine
 10
205.0
 20
-143.5
 30
0.0
 11
205.0
 21
143.5
 31
0.0
1001
TOP
1070
     7
  0
LINE
  5
2218
330
2214
100
AcDbEntity
  8
0
  6
Continuous
 62
     0
100
AcDbLine
 10
210.0
 20
148.5
 30
0.0
 11
-210.0
 21
148.5
 31
0.0
1001
TOP
1070
     3
  0
LINE
  5
2219
330
2214
100
AcDbEntity
  8
0
  6
Continuous
 62
     0
100
AcDbLine
 10
-210.0
 20
-148.5
 30
0.0
 11
210.0
 21
-148.5
 31
0.0
1001
TOP
1070
     3
  0
LINE
  5
221A
330
2214
100
AcDbEntity
  8
0
  6
Continuous
 62
     0
100
AcDbLine
 10
210.0
 20
-148.5
 30
0.0
 11
210.0
 21
148.5
 31
0.0
1001
TOP
1070
     3
  0
LINE
  5
221B
330
2214
100
AcDbEntity
  8
0
  6
Continuous
 62
     0
100
AcDbLine
 10
-210.0
 20
-148.5
 30
0.0
 11
-210.0
 21
148.5
 31
0.0
1001
TOP
1070
     3
  0
LINE
  5
221C
330
2214
100
AcDbEntity
  8
0
  6
Continuous
 62
     0
100
AcDbLine
 10
-205.0
 20
-143.5
 30
0.0
 11
-205.0
 21
143.5
 31
0.0
1001
TOP
1070
     7
  0
LINE
  5
221D
330
2214
100
AcDbEntity
  8
0
  6
Continuous
 62
     0
100
AcDbLine
 10
0.0
 20
-148.5
 30
0.0
 11
-0.0000000000000071
 21
-143.5
 31
0.0
1001
TOP
1070
     3
  0
LINE
  5
221E
330
2214
100
AcDbEntity
  8
0
  6
Continuous
 62
     0
100
AcDbLine
 10
-0.0000000000000071
 20
143.5
 30
0.0
 11
0.0
 21
148.5
 31
0.0
1001
TOP
1070
     3
  0
ATTDEF
  5
221F
330
2214
100
AcDbEntity
  8
0
 62
     0
 48
35.0
100
AcDbText
 10
28.74010102232296
 20
-84.74999999999999
 30
0.0
 40
2.5
  1

  7
Stile_Cart
 11
28.74010102232296
 21
-83.49999999999999
 31
0.0
100
AcDbAttributeDefinition
  3

  2
DESCRIZIONE
 70
     4
 74
     2
1001
TOP
1070
     7
  0
LINE
  5
2220
330
2214
100
AcDbEntity
  8
0
 62
     0
 48
35.0
100
AcDbLine
 10
205.0
 20
-138.5
 30
0.0
 11
5.0
 21
-138.5
 31
0.0
1001
TOP
1070
     3
  0
MTEXT
  5
2221
330
2214
100
AcDbEntity
  8
0
 62
     0
 48
35.0
100
AcDbMText
 10
105.0
 20
-141.0
 30
0.0
 40
1.499624999999999
 41
190.3973187722231
 71
     5
 72
     1
  1
{\C256;SI VIETA L'USO E LA RIPRODUZIONE O LA VISIONE A TERZI DEL PRESENTE DISEGNO SENZA ESPLICITA AUTORIZZAZIONE, \H1.333x;Dierre \H0.75x;TUTELERA' I PROPRI DIRITTI A NORMA DI LEGGE}
  7
Stile_Cart
 73
     1
 44
1.0
1001
TOP
1070
     3
1001
ACAD
1000
MTEXTBEGIN
1070
    73
1070
     1
1070
    44
1040
1.0
1070
    74
1070
     0
1000
MTEXTEND
  0
LINE
  5
2222
330
2214
100
AcDbEntity
  8
0
 62
     0
 48
35.0
100
AcDbLine
 10
5.0
 20
-78.5
 30
0.0
 11
205.0
 21
-78.49999999999988
 31
0.0
1001
TOP
1070
     3
  0
LINE
  5
2223
330
2214
100
AcDbEntity
  8
0
 62
     0
 48
35.0
100
AcDbLine
 10
140.0
 20
-78.5
 30
0.0
 11
140.0
 21
-138.5
 31
0.0
1001
TOP
1070
     3
  0
LINE
  5
2224
330
2214
100
AcDbEntity
  8
0
 62
     0
 48
35.0
100
AcDbLine
 10
5.0
 20
-130.5
 30
0.0
 11
140.0
 21
-130.5
 31
0.0
1001
TOP
1070
     1
  0
LINE
  5
2225
330
2214
100
AcDbEntity
  8
0
 62
     0
 48
35.0
100
AcDbLine
 10
5.0
 20
-108.5
 30
0.0
 11
140.0
 21
-108.5
 31
0.0
1001
TOP
1070
     1
  0
LINE
  5
2226
330
2214
100
AcDbEntity
  8
0
 62
     0
 48
35.0
100
AcDbLine
 10
38.75
 20
-130.5
 30
0.0
 11
38.75
 21
-138.5
 31
0.0
1001
TOP
1070
     7
  0
LINE
  5
2227
330
2214
100
AcDbEntity
  8
0
  6
Continuous
 62
     0
100
AcDbLine
 10
20.375
 20
-135.2853677388285
 30
0.0
 11
21.875
 21
-138.2853677388285
 31
0.0
1001
TOP
1070
     2
  0
LINE
  5
2228
330
2214
100
AcDbEntity
  8
0
  6
Continuous
 62
     0
100
AcDbLine
 10
62.81883755106941
 20
-138.3397943988076
 30
0.0
 11
65.8188375510694
 21
-132.3397943988076
 31
0.0
1001
TOP
1070
     2
  0
LINE
  5
2229
330
2214
100
AcDbEntity
  8
0
  6
Continuous
 62
     0
100
AcDbLine
 10
46.93116244893059
 20
-135.3397943988076
 30
0.0
 11
48.43116244893059
 21
-138.3397943988076
 31
0.0
1001
TOP
1070
     2
  0
LINE
  5
222A
330
2214
100
AcDbEntity
  8
0
  6
Continuous
 62
     0
100
AcDbLine
 10
21.875
 20
-138.2853677388285
 30
0.0
 11
24.875
 21
-132.2853677388285
 31
0.0
1001
TOP
1070
     2
  0
LINE
  5
222B
330
2214
100
AcDbEntity
  8
0
  6
Continuous
 62
     0
100
AcDbLine
 10
49.93116244893059
 20
-135.3397943988076
 30
0.0
 11
46.93116244893059
 21
-135.3397943988076
 31
0.0
1001
TOP
1070
     2
  0
LINE
  5
222C
330
2214
100
AcDbEntity
  8
0
  6
Continuous
 62
     0
100
AcDbLine
 10
48.43116244893059
 20
-138.3397943988076
 30
0.0
 11
49.93116244893059
 21
-135.3397943988076
 31
0.0
1001
TOP
1070
     2
  0
LINE
  5
222D
330
2214
100
AcDbEntity
  8
0
  6
Continuous
 62
     0
100
AcDbLine
 10
83.34407416882067
 20
-135.2999430320282
 30
0.0
 11
84.84407416882067
 21
-138.2999430320282
 31
0.0
1001
TOP
1070
     2
  0
CIRCLE
  5
222E
330
2214
100
AcDbEntity
  8
0
  6
Continuous
 62
     0
100
AcDbCircle
 10
21.875
 20
-136.1513931426129
 30
0.0
 40
0.8660254037843873
1001
TOP
1070
     2
  0
TEXT
  5
222F
330
2214
100
AcDbEntity
  8
0
 62
     0
 48
35.0
100
AcDbText
 10
78.25666370485942
 20
-102.25
 30
0.0
 40
1.6
  1
COD. CLIENTE:
  7
STYLE1
100
AcDbText
1001
TOP
1070
     1
  0
LINE
  5
2230
330
2214
100
AcDbEntity
  8
0
  6
Continuous
 62
     0
100
AcDbLine
 10
84.84407416882067
 20
-138.2999430320282
 30
0.0
 11
86.34407416882067
 21
-135.2999430320282
 31
0.0
1001
TOP
1070
     2
  0
LINE
  5
2231
330
2214
100
AcDbEntity
  8
0
  6
Continuous
 62
     0
100
AcDbLine
 10
86.34407416882067
 20
-135.2999430320282
 30
0.0
 11
83.34407416882067
 21
-135.2999430320282
 31
0.0
1001
TOP
1070
     2
  0
TEXT
  5
2232
330
2214
100
AcDbEntity
  8
0
 62
     0
 48
35.0
100
AcDbText
 10
78.25666370485942
 20
-107.25
 30
0.0
 40
1.6
  1
CC CLIENTE:
  7
STYLE1
100
AcDbText
1001
TOP
1070
     1
  0
LINE
  5
2233
330
2214
100
AcDbEntity
  8
0
  6
Continuous
 62
     0
100
AcDbLine
 10
83.34407416882067
 20
-135.2999430320282
 30
0.0
 11
81.84407416882066
 21
-138.2999430320282
 31
0.0
1001
TOP
1070
     2
  0
LINE
  5
2234
330
2214
100
AcDbEntity
  8
0
  6
Continuous
 62
     0
100
AcDbLine
 10
81.84407416882066
 20
-138.2999430320282
 30
0.0
 11
80.34407416882066
 21
-135.2999430320282
 31
0.0
1001
TOP
1070
     2
  0
LINE
  5
2235
330
2214
100
AcDbEntity
  8
0
  6
Continuous
 62
     0
100
AcDbLine
 10
80.34407416882066
 20
-135.2999430320282
 30
0.0
 11
83.34407416882067
 21
-135.2999430320282
 31
0.0
1001
TOP
1070
     2
  0
LINE
  5
2236
330
2214
100
AcDbEntity
  8
0
  6
Continuous
 62
     0
100
AcDbLine
 10
93.90592583117934
 20
-135.2999430320282
 30
0.0
 11
95.40592583117932
 21
-138.2999430320282
 31
0.0
1001
TOP
1070
     2
  0
LINE
  5
2237
330
2214
100
AcDbEntity
  8
0
  6
Continuous
 62
     0
100
AcDbLine
 10
95.40592583117932
 20
-138.2999430320282
 30
0.0
 11
98.40592583117933
 21
-132.2999430320282
 31
0.0
1001
TOP
1070
     2
  0
TEXT
  5
2238
330
2214
100
AcDbEntity
  8
0
  6
Continuous
 62
     0
100
AcDbText
 10
93.06706327193763
 20
-134.7999430320282
 30
0.0
 40
2.0
  1
1,6
  7
seansi_ttf
 11
93.06706327193763
 21
-132.7999430320282
 31
0.0
100
AcDbText
 73
     3
1001
TOP
1070
     2
  0
LINE
  5
2239
330
2214
100
AcDbEntity
  8
0
  6
Continuous
 62
     0
100
AcDbLine
 10
119.1863026710819
 20
-135.2559419652411
 30
0.0
 11
120.6863026710819
 21
-138.2559419652411
 31
0.0
1001
TOP
1070
     2
  0
LINE
  5
223A
330
2214
100
AcDbEntity
  8
0
  6
Continuous
 62
     0
100
AcDbLine
 10
120.6863026710819
 20
-138.2559419652411
 30
0.0
 11
122.1863026710819
 21
-135.2559419652411
 31
0.0
1001
TOP
1070
     2
  0
LINE
  5
223B
330
2214
100
AcDbEntity
  8
0
  6
Continuous
 62
     0
100
AcDbLine
 10
122.1863026710819
 20
-135.2559419652411
 30
0.0
 11
119.1863026710819
 21
-135.2559419652411
 31
0.0
1001
TOP
1070
     2
  0
LINE
  5
223C
330
2214
100
AcDbEntity
  8
0
  6
Continuous
 62
     0
100
AcDbLine
 10
119.1863026710819
 20
-135.2559419652411
 30
0.0
 11
117.6863026710819
 21
-138.2559419652411
 31
0.0
1001
TOP
1070
     2
  0
LINE
  5
223D
330
2214
100
AcDbEntity
  8
0
  6
Continuous
 62
     0
100
AcDbLine
 10
117.6863026710819
 20
-138.2559419652411
 30
0.0
 11
116.1863026710819
 21
-135.2559419652411
 31
0.0
1001
TOP
1070
     2
  0
LINE
  5
223E
330
2214
100
AcDbEntity
  8
0
  6
Continuous
 62
     0
100
AcDbLine
 10
116.1863026710819
 20
-135.2559419652411
 30
0.0
 11
119.1863026710819
 21
-135.2559419652411
 31
0.0
1001
TOP
1070
     2
  0
LINE
  5
223F
330
2214
100
AcDbEntity
  8
0
  6
Continuous
 62
     0
100
AcDbLine
 10
116.1863026710819
 20
-135.2559419652411
 30
0.0
 11
114.6863026710819
 21
-138.2559419652411
 31
0.0
1001
TOP
1070
     2
  0
LINE
  5
2240
330
2214
100
AcDbEntity
  8
0
  6
Continuous
 62
     0
100
AcDbLine
 10
114.6863026710819
 20
-138.2559419652411
 30
0.0
 11
113.1863026710819
 21
-135.2559419652411
 31
0.0
1001
TOP
1070
     2
  0
LINE
  5
2241
330
2214
100
AcDbEntity
  8
0
  6
Continuous
 62
     0
100
AcDbLine
 10
113.1863026710819
 20
-135.2559419652411
 30
0.0
 11
116.1863026710819
 21
-135.2559419652411
 31
0.0
1001
TOP
1070
     2
  0
LINE
  5
2242
330
2214
100
AcDbEntity
  8
0
  6
Continuous
 62
     0
100
AcDbLine
 10
127.0491049055133
 20
-135.2267571184318
 30
0.0
 11
128.5491049055133
 21
-138.2267571184318
 31
0.0
1001
TOP
1070
     2
  0
LINE
  5
2243
330
2214
100
AcDbEntity
  8
0
  6
Continuous
 62
     0
100
AcDbLine
 10
128.5491049055133
 20
-138.2267571184318
 30
0.0
 11
131.5491049055133
 21
-132.2267571184318
 31
0.0
1001
TOP
1070
     2
  0
TEXT
  5
2244
330
2214
100
AcDbEntity
  8
0
  6
Continuous
 62
     0
100
AcDbText
 10
126.2102423462716
 20
-134.7267571184318
 30
0.0
 40
2.0
  1
0,8
  7
seansi_ttf
 11
126.2102423462716
 21
-132.7267571184318
 31
0.0
100
AcDbText
 73
     3
1001
TOP
1070
     2
  0
LINE
  5
2245
330
2214
100
AcDbEntity
  8
0
 62
     0
 48
35.0
100
AcDbLine
 10
5.0
 20
-98.50000000000001
 30
0.0
 11
140.0
 21
-98.50000000000001
 31
0.0
1001
TOP
1070
     1
  0
LINE
  5
2246
330
2214
100
AcDbEntity
  8
0
 62
     0
 48
35.0
100
AcDbLine
 10
77.5
 20
-98.50000000000001
 30
0.0
 11
77.5
 21
-108.5
 31
0.0
1001
TOP
1070
     1
  0
TEXT
  5
2247
330
2214
100
AcDbEntity
  8
0
 62
     0
 48
35.0
100
AcDbText
 10
5.75666370485942
 20
-84.74999999999999
 30
0.0
 40
1.6
  1
DENOMINAZIONE:
  7
STYLE1
100
AcDbText
1001
TOP
1070
     1
  0
TEXT
  5
2248
330
2214
100
AcDbEntity
  8
0
 62
     0
 48
35.0
100
AcDbText
 10
5.75666370485942
 20
-105.5
 30
0.0
 40
1.6
  1
CLIENTE:
  7
STYLE1
100
AcDbText
1001
TOP
1070
     1
  0
LINE
  5
2249
330
2214
100
AcDbEntity
  8
0
 62
     0
 48
35.0
100
AcDbLine
 10
77.5
 20
-103.5
 30
0.0
 11
140.0000000000009
 21
-103.5
 31
0.0
1001
TOP
1070
     1
  0
LINE
  5
224A
330
2214
100
AcDbEntity
  8
0
 62
     0
 48
35.0
100
AcDbLine
 10
140.0
 20
-93.49999999999988
 30
0.0
 11
205.0
 21
-93.49999999999988
 31
0.0
1001
TOP
1070
     7
  0
LINE
  5
224B
330
2214
100
AcDbEntity
  8
0
 62
     0
 48
35.0
100
AcDbLine
 10
140.0
 20
-85.99999999999988
 30
0.0
 11
205.0
 21
-85.99999999999988
 31
0.0
1001
TOP
1070
     7
  0
LINE
  5
224C
330
2214
100
AcDbEntity
  8
0
 62
     0
 48
35.0
100
AcDbLine
 10
140.0
 20
-100.9999999999999
 30
0.0
 11
205.0
 21
-100.9999999999999
 31
0.0
1001
TOP
1070
     7
  0
TEXT
  5
224D
330
2214
100
AcDbEntity
  8
0
 62
     0
 48
35.0
100
AcDbText
 10
140.7566637048594
 20
-90.74999999999988
 30
0.0
 40
1.6
  1
Diseg.:        
  7
STYLE1
100
AcDbText
1001
TOP
1070
     1
  0
TEXT
  5
224E
330
2214
100
AcDbEntity
  8
0
 62
     0
 48
35.0
100
AcDbText
 10
140.7566637048594
 20
-83.99999999999989
 30
0.0
 40
1.6
  1
Data:
  7
STYLE1
100
AcDbText
1001
TOP
1070
     1
  0
TEXT
  5
224F
330
2214
100
AcDbEntity
  8
0
 62
     0
 48
35.0
100
AcDbText
 10
140.7566637048594
 20
-98.49999999999988
 30
0.0
 40
1.6
  1
Rifer. ordine:
  7
STYLE1
100
AcDbText
1001
TOP
1070
     1
  0
LINE
  5
2250
330
2214
100
AcDbEntity
  8
0
 62
     0
 48
35.0
100
AcDbLine
 10
177.0
 20
-78.49999999999988
 30
0.0
 11
177.0
 21
-93.49999999999999
 31
0.0
  0
TEXT
  5
2251
330
2214
100
AcDbEntity
  8
0
 62
     0
 48
35.0
100
AcDbText
 10
177.7566637048594
 20
-83.99999999999989
 30
0.0
 40
1.6
  1
Scala:
  7
STYLE1
100
AcDbText
1001
TOP
1070
     1
  0
TEXT
  5
2252
330
2214
100
AcDbEntity
  8
0
 62
     0
 48
35.0
100
AcDbText
 10
140.8581923512756
 20
-110.1249999999999
 30
0.0
 40
1.76
  1
Codice N
  7
STYLE1
100
AcDbText
1001
TOP
1070
     1
  0
TEXT
  5
2253
330
2214
100
AcDbEntity
  8
0
 62
     0
 48
35.0
100
AcDbText
 10
177.7566637048594
 20
-91.49999999999989
 30
0.0
 40
1.6
  1
Q.ta:
  7
STYLE1
100
AcDbText
1001
TOP
1070
     1
  0
LINE
  5
2254
330
2214
100
AcDbEntity
  8
0
 62
     0
 48
35.0
100
AcDbLine
 10
140.0
 20
-114.7499999999999
 30
0.0
 11
205.0
 21
-114.7499999999999
 31
0.0
1001
TOP
1070
     7
  0
LINE
  5
2255
330
2214
100
AcDbEntity
  8
0
 62
     0
 48
35.0
100
AcDbLine
 10
140.0
 20
-124.7499999999999
 30
0.0
 11
205.0
 21
-124.7499999999999
 31
0.0
1001
TOP
1070
     7
  0
LINE
  5
2256
330
2214
100
AcDbEntity
  8
0
 62
     0
 48
35.0
100
AcDbLine
 10
140.0
 20
-130.5
 30
0.0
 11
205.0
 21
-130.5
 31
0.0
1001
TOP
1070
     7
  0
CIRCLE
  5
2257
330
2214
100
AcDbEntity
  8
0
  6
Continuous
 62
     0
100
AcDbCircle
 10
199.1449550471707
 20
-134.5409172698267
 30
0.0
 40
3.0
1001
TOP
1070
     2
  0
LINE
  5
2258
330
2214
100
AcDbEntity
  8
0
  6
DASHDOT2
 62
     0
100
AcDbLine
 10
199.1449550471707
 20
-131.5409172698267
 30
0.0
 11
199.1449550471707
 21
-137.5409172698267
 31
0.0
1001
TOP
1070
     2
  0
CIRCLE
  5
2259
330
2214
100
AcDbEntity
  8
0
  6
Continuous
 62
     0
100
AcDbCircle
 10
199.1449550471707
 20
-134.5409172698267
 30
0.0
 40
1.5
1001
TOP
1070
     2
  0
LINE
  5
225A
330
2214
100
AcDbEntity
  8
0
  6
DASHDOT2
 62
     0
100
AcDbLine
 10
186.3571688111378
 20
-134.5409172698267
 30
0.0
 11
202.1449550471707
 21
-134.5409172698267
 31
0.0
1001
TOP
1070
     2
  0
LINE
  5
225B
330
2214
100
AcDbEntity
  8
0
  6
Continuous
 62
     0
100
AcDbLine
 10
193.5117378886862
 20
-131.5409172698267
 30
0.0
 11
193.5117378886862
 21
-137.8298833532369
 31
0.0
1001
TOP
1070
     2
  0
LINE
  5
225C
330
2214
100
AcDbEntity
  8
0
  6
Continuous
 62
     0
100
AcDbLine
 10
186.3571688111378
 20
-133.0409172698267
 30
0.0
 11
186.3571688111378
 21
-136.0409172698267
 31
0.0
1001
TOP
1070
     2
  0
TEXT
  5
225D
330
2214
100
AcDbEntity
  8
0
  6
Continuous
 62
     0
100
AcDbText
 10
141.7015961023471
 20
-133.4356811538553
 30
0.0
 40
1.5
  1
Negli spigoli non quotati smussi 0,5 x 45°
  7
Stile_Cart
100
AcDbText
1001
TOP
1070
     7
  0
LINE
  5
225E
330
2214
100
AcDbEntity
  8
0
  6
Continuous
 62
     0
100
AcDbLine
 10
186.3571688111378
 20
-136.0409172698267
 30
0.0
 11
193.5117378886862
 21
-137.8298833532369
 31
0.0
1001
TOP
1070
     2
  0
TEXT
  5
225F
330
2214
100
AcDbEntity
  8
0
  6
Continuous
 62
     0
100
AcDbText
 10
141.6572557995353
 20
-127.6856811538551
 30
0.0
 40
1.5
  1
Le QUOTE senza tolleranze si intendono h 11 / H 11
  7
Stile_Cart
100
AcDbText
1001
TOP
1070
     7
  0
TEXT
  5
2260
330
2214
100
AcDbEntity
  8
0
  6
Continuous
 62
     0
100
AcDbText
 10
141.5631678399102
 20
-136.7809056532263
 30
0.0
 40
1.5
  1
Smussi e raggi non quotati = 1 mm
  7
Stile_Cart
100
AcDbText
1001
TOP
1070
     7
  0
LINE
  5
2261
330
2214
100
AcDbEntity
  8
0
  6
Continuous
 62
     0
100
AcDbLine
 10
193.5117378886862
 20
-131.5409172698267
 30
0.0
 11
186.3571688111378
 21
-133.0409172698267
 31
0.0
1001
TOP
1070
     2
  0
LINE
  5
2262
330
2214
100
AcDbEntity
  8
0
 62
     0
 48
35.0
100
AcDbLine
 10
183.5
 20
-138.5
 30
0.0
 11
183.5
 21
-130.5
 31
0.0
  0
MTEXT
  5
2263
330
2214
100
AcDbEntity
  8
0
 62
     0
 48
35.0
100
AcDbMText
 10
141.7015961023471
 20
-116.147829675845
 30
0.0
 40
2.0
 41
187.0802
 71
     1
 72
     5
  1
{\C256;LE TOLLERANZE SI INTENDONO SU PEZZO\PFINITO COMPLETO DI ZINCATURA}
  7
Stile_Cart
 73
     1
 44
1.0
1001
TOP
1070
     3
1001
ACAD
1000
MTEXTBEGIN
1070
    73
1070
     1
1070
    44
1040
1.0
1070
    74
1070
     0
1000
MTEXTEND
  0
LINE
  5
2264
330
2214
100
AcDbEntity
  8
0
 62
     0
100
AcDbLine
 10
5.0
 20
-71.0
 30
0.0
 11
204.9999999999991
 21
-71.00000000000012
 31
0.0
1001
TOP
1070
     3
  0
LINE
  5
2265
330
2214
100
AcDbEntity
  8
0
 62
     0
100
AcDbLine
 10
5.0
 20
-67.0
 30
0.0
 11
204.9999999999991
 21
-67.0
 31
0.0
1001
TOP
1070
     3
  0
LINE
  5
2266
330
2214
100
AcDbEntity
  8
0
 62
     0
100
AcDbLine
 10
5.0
 20
-62.0
 30
0.0
 11
204.9999999999991
 21
-61.99999999999988
 31
0.0
1001
TOP
1070
     3
  0
LINE
  5
2267
330
2214
100
AcDbEntity
  8
0
 62
     0
 48
35.0
100
AcDbLine
 10
20.0
 20
-62.0
 30
0.0
 11
20.0
 21
-78.5
 31
0.0
1001
TOP
1070
     1
  0
TEXT
  5
2268
330
2214
100
AcDbEntity
  8
0
 62
     0
 48
35.0
100
AcDbText
 10
5.75666370485851
 20
-76.0
 30
0.0
 40
1.6
  1
POS.
  7
STYLE1
100
AcDbText
1001
TOP
1070
     1
  0
TEXT
  5
2269
330
2214
100
AcDbEntity
  8
0
 62
     0
 48
35.0
100
AcDbText
 10
20.7566637048576
 20
-76.0
 30
0.0
 40
1.6
  1
MATERIALE:
  7
STYLE1
100
AcDbText
1001
TOP
1070
     1
  0
LINE
  5
226A
330
2214
100
AcDbEntity
  8
0
 62
     0
 48
35.0
100
AcDbLine
 10
119.9999999999991
 20
-71.00000000000022
 30
0.0
 11
120.0
 21
-78.5
 31
0.0
1001
TOP
1070
     1
  0
TEXT
  5
226B
330
2214
100
AcDbEntity
  8
0
 62
     0
 48
35.0
100
AcDbText
 10
120.7566637048567
 20
-76.0
 30
0.0
 40
1.6
  1
TRATTAMENTI:
  7
STYLE1
100
AcDbText
1001
TOP
1070
     1
  0
TEXT
  5
226C
330
2214
100
AcDbEntity
  8
0
 62
     0
 48
35.0
100
AcDbText
 10
10.05702163057413
 20
-69.79763860700177
 30
0.0
 40
1.6
  1
Rev.
  7
STYLE1
100
AcDbText
1001
TOP
1070
     1
  0
LINE
  5
226D
330
2214
100
AcDbEntity
  8
0
 62
     0
 48
35.0
100
AcDbLine
 10
185.0
 20
-61.9999999999999
 30
0.0
 11
185.0000000000009
 21
-71.00000000000012
 31
0.0
1001
TOP
1070
     1
  0
LINE
  5
226E
330
2214
100
AcDbEntity
  8
0
 62
     0
 48
35.0
100
AcDbLine
 10
170.0000000000003
 20
-61.99999999999992
 30
0.0
 11
170.0000000000009
 21
-71.00000000000114
 31
0.0
1001
TOP
1070
     1
  0
TEXT
  5
226F
330
2214
100
AcDbEntity
  8
0
 62
     0
 48
35.0
100
AcDbText
 10
175.057021630575
 20
-69.79763860700177
 30
0.0
 40
1.6
  1
Data
  7
STYLE1
100
AcDbText
1001
TOP
1070
     1
  0
TEXT
  5
2270
330
2214
100
AcDbEntity
  8
0
 62
     0
 48
35.0
100
AcDbText
 10
192.7924043056964
 20
-69.79763860700177
 30
0.0
 40
1.6
  1
Diseg.
  7
STYLE1
100
AcDbText
1001
TOP
1070
     1
  0
LINE
  5
2271
330
2214
100
AcDbEntity
  8
0
  6
Continuous
 62
     0
100
AcDbLine
 10
61.3188375510694
 20
-135.3397943988076
 30
0.0
 11
62.81883755106941
 21
-138.3397943988076
 31
0.0
1001
TOP
1070
     2
  0
LINE
  5
2272
330
2214
100
AcDbEntity
  8
0
 62
     0
 48
35.0
100
AcDbLine
 10
72.5
 20
-130.5
 30
0.0
 11
72.5
 21
-138.5
 31
0.0
1001
TOP
1070
     7
  0
LINE
  5
2273
330
2214
100
AcDbEntity
  8
0
 62
     0
 48
35.0
100
AcDbLine
 10
106.25
 20
-130.5
 30
0.0
 11
106.25
 21
-138.5
 31
0.0
1001
TOP
1070
     7
  0
TEXT
  5
2274
330
2214
100
AcDbEntity
  8
0
  6
Continuous
 62
     0
100
AcDbText
 10
60.4799749918277
 20
-134.8397943988076
 30
0.0
 40
2.0
  1
6,3
  7
seansi_ttf
 11
60.4799749918277
 21
-132.8397943988076
 31
0.0
100
AcDbText
 73
     3
1001
TOP
1070
     2
  0
ATTDEF
  5
2275
330
2214
100
AcDbEntity
  8
0
 62
     0
 48
35.0
100
AcDbText
 10
28.74010102232296
 20
-89.74999999999999
 30
0.0
 40
2.5
  1

  7
Stile_Cart
 11
28.74010102232296
 21
-88.49999999999999
 31
0.0
100
AcDbAttributeDefinition
  3

  2
DESCRIZIONE2
 70
     4
 74
     2
1001
TOP
1070
     7
  0
ATTDEF
  5
2276
330
2214
100
AcDbEntity
  8
0
 62
     0
 48
35.0
100
AcDbText
 10
28.74010102232296
 20
-94.74999999999999
 30
0.0
 40
2.5
  1

  7
Stile_Cart
 11
28.74010102232296
 21
-93.49999999999999
 31
0.0
100
AcDbAttributeDefinition
  3

  2
DESCRIZIONE3
 70
     4
 74
     2
1001
TOP
1070
     7
  0
ATTDEF
  5
2277
330
2214
100
AcDbEntity
  8
0
 62
     0
 48
35.0
100
AcDbText
 10
147.7682984236189
 20
-83.99999999999989
 30
0.0
 40
3.5
  1

  7
Stile_Cart
 11
147.7682984236189
 21
-82.2499999999999
 31
0.0
100
AcDbAttributeDefinition
  3

  2
DATA
 70
     4
 74
     2
1001
TOP
1070
     7
  0
ATTDEF
  5
2278
330
2214
100
AcDbEntity
  8
0
 62
     0
 48
35.0
100
AcDbText
 10
184.1532157512365
 20
-83.99999999999989
 30
0.0
 40
3.5
  1

  7
Stile_Cart
 11
184.1532157512365
 21
-82.24999999999988
 31
0.0
100
AcDbAttributeDefinition
  3

  2
SCALA
 70
     4
 74
     2
1001
TOP
1070
     7
  0
ATTDEF
  5
2279
330
2214
100
AcDbEntity
  8
0
 62
     0
 48
35.0
100
AcDbText
 10
184.1532157512365
 20
-91.49999999999989
 30
0.0
 40
3.5
  1

  7
Stile_Cart
 11
184.1532157512365
 21
-89.74999999999988
 31
0.0
100
AcDbAttributeDefinition
  3

  2
QTA
 70
     4
 74
     2
1001
TOP
1070
     7
  0
ATTDEF
  5
227A
330
2214
100
AcDbEntity
  8
0
 62
     0
 48
35.0
100
AcDbText
 10
147.7682984236189
 20
-90.74999999999988
 30
0.0
 40
2.0
  1

  7
Stile_Cart
 11
147.7682984236189
 21
-89.74999999999988
 31
0.0
100
AcDbAttributeDefinition
  3

  2
DISEGNATORE
 70
     4
 74
     2
1001
TOP
1070
     7
  0
ATTDEF
  5
227B
330
2214
100
AcDbEntity
  8
0
 62
     0
 48
35.0
100
AcDbText
 10
156.6477659240454
 20
-98.49999999999988
 30
0.0
 40
2.5
  1

  7
Stile_Cart
 11
156.6477659240454
 21
-97.24999999999988
 31
0.0
100
AcDbAttributeDefinition
  3

  2
RIF_ORDINE
 70
     4
 74
     2
1001
TOP
1070
     7
  0
ATTDEF
  5
227C
330
2214
100
AcDbEntity
  8
0
 62
     0
 48
35.0
100
AcDbText
 10
155.290076571523
 20
-110.1249999999999
 30
0.0
 40
4.5
  1

  7
Stile_Cart
 11
155.290076571523
 21
-107.8749999999999
 31
0.0
100
AcDbAttributeDefinition
  3

  2
CODICE
 70
     4
 74
     2
1001
TOP
1070
     7
  0
ATTDEF
  5
227D
330
2214
100
AcDbEntity
  8
0
 62
     0
 48
35.0
100
AcDbText
 10
94.8016206352022
 20
-102.25
 30
0.0
 40
2.5
  1

  7
Stile_Cart
 11
94.8016206352022
 21
-101.0
 31
0.0
100
AcDbAttributeDefinition
  3

  2
COD_CLIENTE
 70
     4
 74
     2
1001
TOP
1070
     7
  0
ATTDEF
  5
227E
330
2214
100
AcDbEntity
  8
0
 62
     0
 48
35.0
100
AcDbText
 10
94.81214291417655
 20
-107.25
 30
0.0
 40
2.5
  1

  7
Stile_Cart
 11
94.81214291417655
 21
-106.0
 31
0.0
100
AcDbAttributeDefinition
  3

  2
COMMESSA
 70
     4
 74
     2
1001
TOP
1070
     7
  0
ATTDEF
  5
227F
330
2214
100
AcDbEntity
  8
0
 62
     0
 48
35.0
100
AcDbText
 10
17.76035154006968
 20
-105.5
 30
0.0
 40
4.0
  1

  7
Stile_Cart
 11
17.76035154006968
 21
-103.5
 31
0.0
100
AcDbAttributeDefinition
  3

  2
CLIENTE
 70
     4
 74
     2
1001
TOP
1070
     7
  0
ATTDEF
  5
2280
330
2214
100
AcDbEntity
  8
0
 62
     0
 48
35.0
100
AcDbText
 10
37.04547401447201
 20
-76.0
 30
0.0
 40
2.5
  1

  7
Stile_Cart
 11
37.04547401447201
 21
-74.75
 31
0.0
100
AcDbAttributeDefinition
  3

  2
MATERIALE
 70
     4
 74
     2
1001
TOP
1070
     7
  0
ATTDEF
  5
2281
330
2214
100
AcDbEntity
  8
0
 62
     0
 48
35.0
100
AcDbText
 10
140.5628059283587
 20
-76.0
 30
0.0
 40
2.5
  1

  7
Stile_Cart
 11
140.5628059283587
 21
-74.75
 31
0.0
100
AcDbAttributeDefinition
  3

  2
TRATTAMENTI
 70
     4
 74
     2
1001
TOP
1070
     7
  0
ATTDEF
  5
2282
330
2214
100
AcDbEntity
  8
0
 62
     0
 48
35.0
100
AcDbText
 10
15.03077917957932
 20
-76.0
 30
0.0
 40
2.5
  1

  7
Stile_Cart
 72
     1
 11
15.03077917957932
 21
-74.75
 31
0.0
100
AcDbAttributeDefinition
  3

  2
POS.
 70
     4
 74
     2
1001
TOP
1070
     7
  0
ATTDEF
  5
2283
330
2214
100
AcDbEntity
  8
0
 62
     0
 48
35.0
100
AcDbText
 10
12.5
 20
-65.75
 30
0.0
 40
2.5
  1

  7
Stile_Cart
 72
     1
 11
12.5
 21
-64.5
 31
0.0
100
AcDbAttributeDefinition
  3

  2
REV
 70
     4
 74
     2
1001
TOP
1070
     7
  0
ATTDEF
  5
2284
330
2214
100
AcDbEntity
  8
0
 62
     0
 48
35.0
100
AcDbText
 10
22.0
 20
-65.75
 30
0.0
 40
2.5
  1

  7
Stile_Cart
 11
22.0
 21
-64.5
 31
0.0
100
AcDbAttributeDefinition
  3

  2
MOD_REV
 70
     4
 74
     2
1001
TOP
1070
     7
  0
ATTDEF
  5
2285
330
2214
100
AcDbEntity
  8
0
 62
     0
 48
35.0
100
AcDbText
 10
177.5000000000003
 20
-65.74999999999994
 30
0.0
 40
2.5
  1

  7
Stile_Cart
 72
     1
 11
177.5000000000003
 21
-64.49999999999994
 31
0.0
100
AcDbAttributeDefinition
  3

  2
DATA_REV
 70
     4
 74
     2
1001
TOP
1070
     7
  0
ATTDEF
  5
2286
330
2214
100
AcDbEntity
  8
0
 62
     0
 48
35.0
100
AcDbText
 10
194.9602314460564
 20
-65.49999999999994
 30
0.0
 40
2.0
  1

 41
0.8
  7
Stile_Cart
 72
     1
 11
194.9602314460564
 21
-64.49999999999994
 31
0.0
100
AcDbAttributeDefinition
  3

  2
DISEGN_REV
 70
     4
 74
     2
1001
TOP
1070
     7
  0
LINE
  5
2287
330
2214
100
AcDbEntity
  8
0
  6
Continuous
 62
     0
100
AcDbLine
 10
5.0
 20
-62.0
 30
0.0
 11
5.0
 21
-143.5
 31
0.0
1001
TOP
1070
     3
  0
TEXT
  5
2288
330
2214
100
AcDbEntity
  8
P-0000
  6
Continuous
 62
     0
 48
35.0
100
AcDbText
 10
58.71864832338975
 20
-113.3527525052883
 30
0.0
 40
1.846799999999999
  1
Sedi operative: Fiorano Circ.le S. Giovanni Ev.,23   41042 Spezzano (MO)
  7
STYLE1
100
AcDbText
1001
TOP
1070
     7
  0
TEXT
  5
2289
330
2214
100
AcDbEntity
  8
P-0000
  6
Continuous
 62
     0
 48
35.0
100
AcDbText
 10
98.65908137351675
 20
-117.0692022869476
 30
0.0
 40
1.846799999999999
  1
Tel. 0536 921322  Fax 0536 921218
  7
STYLE1
100
AcDbText
1001
TOP
1070
     7
  0
TEXT
  5
228A
330
2214
100
AcDbEntity
  8
P-0000
  6
Continuous
 62
     0
 48
35.0
100
AcDbText
 10
75.24509204959509
 20
-120.7856520686069
 30
0.0
 40
1.846799999999999
  1
Bologna Via Del Selciatore, 12   40127 (BO) 
  7
STYLE1
100
AcDbText
1001
TOP
1070
     7
  0
TEXT
  5
228B
330
2214
100
AcDbEntity
  8
P-0000
  6
Continuous
 62
     0
 48
35.0
100
AcDbText
 10
101.2297752414451
 20
-124.5021018502664
 30
0.0
 40
1.846799999999999
  1
Tel. 051 535318  Fax 051 531297
  7
STYLE1
100
AcDbText
1001
TOP
1070
     7
  0
TEXT
  5
228C
330
2214
100
AcDbEntity
  8
P-0000
  6
Continuous
 62
     0
 48
35.0
100
AcDbText
 10
75.24546965484001
 20
-128.1147363829751
 30
0.0
 40
1.5
  1
www.dierremacap.com . tecnico@dierreprotezioni.com  
  7
STYLE1
100
AcDbText
1001
TOP
1070
     7
  0
ARC
  5
228D
102
{ACAD_REACTORS
330
22D1
102
}
330
2214
100
AcDbEntity
  8
P-0000
  6
Continuous
 62
     0
370
     0
100
AcDbCircle
 10
17.44412459906672
 20
-119.8343908033039
 30
0.0
 40
7.264056604142308
100
AcDbArc
 50
54.62314853322836
 51
125.3768514667716
1001
TOP
1070
    85
  0
ARC
  5
228E
102
{ACAD_REACTORS
330
22D1
102
}
330
2214
100
AcDbEntity
  8
P-0000
  6
Continuous
 62
     0
370
     0
100
AcDbCircle
 10
16.62227853183705
 20
-119.8661633216503
 30
0.0
 40
7.793069759999999
100
AcDbArc
 50
49.82610094250764
 51
223.4287517252227
1001
TOP
1070
    85
  0
ARC
  5
228F
102
{ACAD_REACTORS
330
22D1
102
}
330
2214
100
AcDbEntity
  8
P-0000
  6
Continuous
 62
     0
370
     0
100
AcDbCircle
 10
17.22616137325187
 20
-119.1102130429075
 30
0.0
 40
4.056769053873
100
AcDbArc
 50
51.09712919102808
 51
223.6094645412326
1001
TOP
1070
    85
  0
ARC
  5
2290
102
{ACAD_REACTORS
330
22D1
102
}
330
2214
100
AcDbEntity
  8
P-0000
  6
Continuous
 62
     0
370
     0
100
AcDbCircle
 10
16.57733836623376
 20
-119.4851385567151
 30
0.0
 40
4.763630338834137
100
AcDbArc
 50
47.85430720588695
 51
226.8522865263433
1001
TOP
1070
    85
  0
ARC
  5
2291
102
{ACAD_REACTORS
330
22D1
102
}
330
2214
100
AcDbEntity
  8
P-0000
  6
Continuous
 62
     0
370
     0
100
AcDbCircle
 10
16.17002821100252
 20
-120.0817487520743
 30
0.0
 40
4.056769053873
100
AcDbArc
 50
231.0971291910286
 51
43.60946454123257
1001
TOP
1070
    85
  0
ARC
  5
2292
102
{ACAD_REACTORS
330
22D1
102
}
330
2214
100
AcDbEntity
  8
P-0000
  6
Continuous
 62
     0
370
     0
100
AcDbCircle
 10
16.81885121802244
 20
-119.7068232382669
 30
0.0
 40
4.763630338834137
100
AcDbArc
 50
227.8543072058867
 51
46.85228652634269
1001
TOP
1070
    85
  0
ARC
  5
2293
102
{ACAD_REACTORS
330
22D1
102
}
330
2214
100
AcDbEntity
  8
P-0000
  6
Continuous
 62
     0
370
     0
100
AcDbCircle
 10
16.62227853183705
 20
-119.8661633216503
 30
0.0
 40
7.793069759999999
100
AcDbArc
 50
230.1466606584018
 51
45.36258570986113
1001
TOP
1070
    85
  0
ARC
  5
2294
102
{ACAD_REACTORS
330
22D1
102
}
330
2214
100
AcDbEntity
  8
P-0000
  6
Continuous
 62
     0
370
     0
100
AcDbCircle
 10
15.47406206409434
 20
-119.7374591014474
 30
0.0
 40
7.220700683144739
100
AcDbArc
 50
237.8184274609863
 51
321.1976420062348
1001
TOP
1070
    85
  0
ARC
  5
2295
102
{ACAD_REACTORS
330
22D1
102
}
330
2214
100
AcDbEntity
  8
P-0000
  6
Continuous
 62
     0
370
     0
100
AcDbCircle
 10
16.49783519669401
 20
-119.1656258049447
 30
0.0
 40
5.663278842528495
100
AcDbArc
 50
171.3036725542784
 51
228.0269063594487
1001
TOP
1070
    85
  0
LINE
  5
2296
102
{ACAD_REACTORS
330
22D1
102
}
330
2214
100
AcDbEntity
  8
P-0000
  6
Continuous
 62
     0
370
     0
100
AcDbLine
 10
12.71033880342222
 20
-123.3760412617837
 30
0.0
 11
10.96271911221012
 21
-125.2235249353502
 31
0.0
1001
TOP
1070
    85
  0
LINE
  5
2297
102
{ACAD_REACTORS
330
22D1
102
}
330
2214
100
AcDbEntity
  8
P-0000
  6
Continuous
 62
     0
370
     0
100
AcDbLine
 10
14.28882554895264
 20
-121.9083255159412
 30
0.0
 11
13.31957930169594
 21
-122.9606500129607
 31
0.0
1001
TOP
1070
    85
  0
ARC
  5
2298
102
{ACAD_REACTORS
330
22D1
102
}
330
2214
100
AcDbEntity
  8
P-0000
  6
Continuous
 62
     0
370
     0
100
AcDbCircle
 10
16.45690671951999
 20
-118.4440510223681
 30
0.0
 40
5.558875133404746
100
AcDbArc
 50
125.3768514667716
 51
178.611514748478
1001
TOP
1070
    85
  0
LINE
  5
2299
330
2214
100
AcDbEntity
  8
P-0000
  6
Continuous
 62
     0
370
     0
100
AcDbLine
 10
51.34561986762887
 20
-115.6426918998433
 30
0.0
 11
52.48697619624445
 21
-115.6426918998433
 31
0.0
1001
TOP
1070
     7
  0
ARC
  5
229A
330
2214
100
AcDbEntity
  8
P-0000
  6
Continuous
 62
     0
370
     0
100
AcDbCircle
 10
50.16215002765402
 20
-114.9033114623533
 30
0.0
 40
2.439569664000001
100
AcDbArc
 50
354.0835439993975
 51
342.3574175336751
1001
TOP
1070
     7
  0
LINE
  5
229B
330
2214
100
AcDbEntity
  8
P-0000
  6
Continuous
 62
     0
370
     0
100
AcDbLine
 10
48.746848330698
 20
-115.1547779670432
 30
0.0
 11
52.60170813361193
 21
-115.1547779670432
 31
0.0
1001
TOP
1070
     7
  0
ARC
  5
229C
330
2214
100
AcDbEntity
  8
P-0000
  6
Continuous
 62
     0
370
     0
100
AcDbCircle
 10
37.8667189210941
 20
-114.9033114623533
 30
0.0
 40
2.439569664000001
100
AcDbArc
 50
354.0835439993975
 51
342.3574175336751
1001
TOP
1070
     7
  0
LINE
  5
229D
330
2214
100
AcDbEntity
  8
P-0000
  6
Continuous
 62
     0
370
     0
100
AcDbLine
 10
27.4976504081958
 20
-117.3428811263533
 30
0.0
 11
30.42513400499494
 21
-117.3428811263533
 31
0.0
1001
TOP
1070
     7
  0
LINE
  5
229E
330
2214
100
AcDbEntity
  8
P-0000
  6
Continuous
 62
     0
370
     0
100
AcDbLine
 10
30.42513400499494
 20
-110.9999999999532
 30
0.0
 11
27.4976504081958
 21
-110.9999999999532
 31
0.0
1001
TOP
1070
     7
  0
LINE
  5
229F
102
{ACAD_REACTORS
330
22D1
102
}
330
2214
100
AcDbEntity
  8
P-0000
  6
Continuous
 62
     0
370
     0
100
AcDbLine
 10
22.09782851449584
 20
-114.320869039862
 30
0.0
 11
20.5196942813029
 21
-115.9543842828061
 31
0.0
1001
TOP
1070
    85
  0
ARC
  5
22A0
102
{ACAD_REACTORS
330
22D1
102
}
330
2214
100
AcDbEntity
  8
P-0000
  6
Continuous
 62
     0
370
     0
100
AcDbCircle
 10
15.9727702478842
 20
-120.4469356245717
 30
0.0
 40
6.391989965892938
100
AcDbArc
 50
323.352977406186
 51
44.65536847523573
1001
TOP
1070
    85
  0
LINE
  5
22A1
102
{ACAD_REACTORS
330
22D1
102
}
330
2214
100
AcDbEntity
  8
P-0000
  6
Continuous
 62
     0
370
     0
100
AcDbLine
 10
19.10736403530447
 20
-117.283636279041
 30
0.0
 11
20.07661028255846
 21
-116.2313117820216
 31
0.0
1001
TOP
1070
    85
  0
LINE
  5
22A2
330
2214
100
AcDbEntity
  8
P-0000
  6
Continuous
 62
     0
370
     0
100
AcDbLine
 10
27.4976504081958
 20
-110.9999999999532
 30
0.0
 11
27.4976504081958
 21
-117.3428811263533
 31
0.0
1001
TOP
1070
     7
  0
ARC
  5
22A3
330
2214
100
AcDbEntity
  8
P-0000
  6
Continuous
 62
     0
370
     0
100
AcDbCircle
 10
30.18117703859566
 20
-113.6835266303536
 30
0.0
 40
1.5857202816
100
AcDbArc
 50
0.0
 51
90.0
1001
TOP
1070
     7
  0
ARC
  5
22A4
330
2214
100
AcDbEntity
  8
P-0000
  6
Continuous
 62
     0
370
     0
100
AcDbCircle
 10
30.18117703859566
 20
-114.6593544959532
 30
0.0
 40
1.5857202816
100
AcDbArc
 50
270.0
 51
0.0
1001
TOP
1070
     7
  0
ARC
  5
22A5
330
2214
100
AcDbEntity
  8
P-0000
  6
Continuous
 62
     0
370
     0
100
AcDbCircle
 10
30.42513400499494
 20
-114.9033114623533
 30
0.0
 40
2.439569663999999
100
AcDbArc
 50
270.0
 51
0.0
1001
TOP
1070
     7
  0
ARC
  5
22A6
330
2214
100
AcDbEntity
  8
P-0000
  6
Continuous
 62
     0
370
     0
100
AcDbCircle
 10
30.42513400499494
 20
-113.4395696639535
 30
0.0
 40
2.439569663999999
100
AcDbArc
 50
0.0
 51
90.0
1001
TOP
1070
     7
  0
LINE
  5
22A7
330
2214
100
AcDbEntity
  8
P-0000
  6
Continuous
 62
     0
370
     0
100
AcDbLine
 10
28.59545675699515
 20
-112.0978063487534
 30
0.0
 11
28.59545675699515
 21
-116.2450747775533
 31
0.0
1001
TOP
1070
     7
  0
LINE
  5
22A8
330
2214
100
AcDbEntity
  8
P-0000
  6
Continuous
 62
     0
370
     0
100
AcDbLine
 10
28.59545675699515
 20
-116.2450747775533
 30
0.0
 11
30.18117703859566
 21
-116.2450747775533
 31
0.0
1001
TOP
1070
     7
  0
LINE
  5
22A9
330
2214
100
AcDbEntity
  8
P-0000
  6
Continuous
 62
     0
370
     0
100
AcDbLine
 10
30.18117703859566
 20
-112.0978063487534
 30
0.0
 11
28.59545675699515
 21
-112.0978063487534
 31
0.0
1001
TOP
1070
     7
  0
LINE
  5
22AA
330
2214
100
AcDbEntity
  8
P-0000
  6
Continuous
 62
     0
370
     0
100
AcDbLine
 10
34.69527835789438
 20
-117.3428811263533
 30
0.0
 11
34.69527835789438
 21
-112.4637417983535
 31
0.0
1001
TOP
1070
     7
  0
LINE
  5
22AB
330
2214
100
AcDbEntity
  8
P-0000
  6
Continuous
 62
     0
370
     0
100
AcDbLine
 10
33.59747200909242
 20
-112.4637417983535
 30
0.0
 11
33.59747200909242
 21
-117.3428811263533
 31
0.0
1001
TOP
1070
     7
  0
LINE
  5
22AC
330
2214
100
AcDbEntity
  8
P-0000
  6
Continuous
 62
     0
370
     0
100
AcDbLine
 10
33.59747200909242
 20
-117.3428811263533
 30
0.0
 11
34.69527835789438
 21
-117.3428811263533
 31
0.0
1001
TOP
1070
     7
  0
LINE
  5
22AD
330
2214
100
AcDbEntity
  8
P-0000
  6
Continuous
 62
     0
370
     0
100
AcDbLine
 10
33.59747200909242
 20
-111.9758278655534
 30
0.0
 11
34.69527835789438
 21
-111.9758278655534
 31
0.0
1001
TOP
1070
     7
  0
LINE
  5
22AE
330
2214
100
AcDbEntity
  8
P-0000
  6
Continuous
 62
     0
370
     0
100
AcDbLine
 10
34.69527835789438
 20
-110.9999999999532
 30
0.0
 11
33.59747200909242
 21
-110.9999999999532
 31
0.0
1001
TOP
1070
     7
  0
HATCH
  5
22AF
330
2214
100
AcDbEntity
  8
P-0000
  6
Continuous
 62
     0
100
AcDbHatch
 10
0.0
 20
0.0
 30
0.0
210
0.0
220
0.0
230
1.0
  2
SOLID
 70
     1
 71
     0
 91
        1
 92
        1
 93
        4
 72
     1
 10
34.69527835789373
 20
-110.9999999999534
 11
33.59747200909307
 21
-110.9999999999534
 72
     1
 10
33.59747200909438
 20
-110.9999999999534
 11
33.59747200909438
 21
-111.9758278655534
 72
     1
 10
33.59747200909438
 20
-111.9758278655535
 11
34.69527835789504
 21
-111.9758278655535
 72
     1
 10
34.69527835789373
 20
-111.9758278655535
 11
34.69527835789373
 21
-110.9999999999535
 97
        0
 75
     0
 76
     1
 98
        1
 10
-31.48390878038737
 20
-204.8924935638848
1001
TOP
1070
     3
  0
LINE
  5
22B0
330
2214
100
AcDbEntity
  8
P-0000
  6
Continuous
 62
     0
370
     0
100
AcDbLine
 10
34.69527835789438
 20
-112.4637417983535
 30
0.0
 11
33.59747200909242
 21
-112.4637417983535
 31
0.0
1001
TOP
1070
     7
  0
LINE
  5
22B1
330
2214
100
AcDbEntity
  8
P-0000
  6
Continuous
 62
     0
370
     0
100
AcDbLine
 10
31.76689732019684
 20
-114.6593544959532
 30
0.0
 11
31.76689732019684
 21
-113.6835266303536
 31
0.0
1001
TOP
1070
     7
  0
LINE
  5
22B2
330
2214
100
AcDbEntity
  8
P-0000
  6
Continuous
 62
     0
370
     0
100
AcDbLine
 10
32.86470366899553
 20
-114.9033114623533
 30
0.0
 11
32.86470366899553
 21
-113.4395696639535
 31
0.0
1001
TOP
1070
     7
  0
LINE
  5
22B3
330
2214
100
AcDbEntity
  8
P-0000
  6
Continuous
 62
     0
370
     0
100
AcDbLine
 10
33.59747200909242
 20
-110.9999999999532
 30
0.0
 11
33.59747200909242
 21
-111.9758278655534
 31
0.0
1001
TOP
1070
     7
  0
LINE
  5
22B4
330
2214
100
AcDbEntity
  8
P-0000
  6
Continuous
 62
     0
370
     0
100
AcDbLine
 10
34.69527835789438
 20
-111.9758278655534
 30
0.0
 11
34.69527835789438
 21
-110.9999999999532
 31
0.0
1001
TOP
1070
     7
  0
LINE
  5
22B5
330
2214
100
AcDbEntity
  8
P-0000
  6
Continuous
 62
     0
370
     0
100
AcDbLine
 10
43.32027844350591
 20
-112.4637417983535
 30
0.0
 11
43.7763710533296
 21
-112.4637417983535
 31
0.0
1001
TOP
1070
     7
  0
ARC
  5
22B6
330
2214
100
AcDbEntity
  8
P-0000
  6
Continuous
 62
     0
370
     0
100
AcDbCircle
 10
43.77544761583408
 20
-115.745089341616
 30
0.0
 40
2.30551986259622
100
AcDbArc
 50
89.97705113130741
 51
144.7782320142388
1001
TOP
1070
     7
  0
LINE
  5
22B7
330
2214
100
AcDbEntity
  8
P-0000
  6
Continuous
 62
     0
370
     0
100
AcDbLine
 10
39.05018876106896
 20
-115.6426918998433
 30
0.0
 11
40.19154508968519
 21
-115.6426918998433
 31
0.0
1001
TOP
1070
     7
  0
LINE
  5
22B8
330
2214
100
AcDbEntity
  8
P-0000
  6
Continuous
 62
     0
370
     0
100
AcDbLine
 10
36.45141722414005
 20
-115.1547779670432
 30
0.0
 11
40.30627702705135
 21
-115.1547779670432
 31
0.0
1001
TOP
1070
     7
  0
ARC
  5
22B9
330
2214
100
AcDbEntity
  8
P-0000
  6
Continuous
 62
     0
370
     0
100
AcDbCircle
 10
37.8667189210941
 20
-114.7813329791534
 30
0.0
 40
1.463741798400002
100
AcDbArc
 50
194.7813103722914
 51
323.9519363800095
1001
TOP
1070
     7
  0
ARC
  5
22BA
330
2214
100
AcDbEntity
  8
P-0000
  6
Continuous
 62
     0
370
     0
100
AcDbCircle
 10
37.86684605018566
 20
-114.7246775057507
 30
0.0
 40
1.309503544180366
100
AcDbArc
 50
23.46032899247153
 51
156.5396710075285
1001
TOP
1070
     7
  0
LINE
  5
22BB
330
2214
100
AcDbEntity
  8
P-0000
  6
Continuous
 62
     0
370
     0
100
AcDbLine
 10
36.66559137993357
 20
-114.2033457980831
 30
0.0
 11
39.06810072043775
 21
-114.2033457980831
 31
0.0
1001
TOP
1070
     7
  0
LINE
  5
22BC
330
2214
100
AcDbEntity
  8
P-0000
  6
Continuous
 62
     0
370
     0
100
AcDbLine
 10
41.89200886669389
 20
-117.3428811263533
 30
0.0
 11
41.89200886669389
 21
-114.4153975295534
 31
0.0
1001
TOP
1070
     7
  0
LINE
  5
22BD
330
2214
100
AcDbEntity
  8
P-0000
  6
Continuous
 62
     0
370
     0
100
AcDbLine
 10
40.79420251789389
 20
-112.4637417983535
 30
0.0
 11
40.79420251789389
 21
-117.3428811263533
 31
0.0
1001
TOP
1070
     7
  0
LINE
  5
22BE
330
2214
100
AcDbEntity
  8
P-0000
  6
Continuous
 62
     0
370
     0
100
AcDbLine
 10
40.79420251789389
 20
-117.3428811263533
 30
0.0
 11
41.89200886669389
 21
-117.3428811263533
 31
0.0
1001
TOP
1070
     7
  0
LINE
  5
22BF
330
2214
100
AcDbEntity
  8
P-0000
  6
Continuous
 62
     0
370
     0
100
AcDbLine
 10
41.89200886669389
 20
-112.4637417983535
 30
0.0
 11
40.79420251789389
 21
-112.4637417983535
 31
0.0
1001
TOP
1070
     7
  0
ARC
  5
22C0
330
2214
100
AcDbEntity
  8
P-0000
  6
Continuous
 62
     0
370
     0
100
AcDbCircle
 10
43.43211012991381
 20
-114.1605808182825
 30
0.0
 40
1.700520210299701
100
AcDbArc
 50
93.77067625261986
 51
154.9129671807329
1001
TOP
1070
     7
  0
LINE
  5
22C1
330
2214
100
AcDbEntity
  8
P-0000
  6
Continuous
 62
     0
370
     0
100
AcDbLine
 10
41.89200886669389
 20
-113.4395696639535
 30
0.0
 11
41.89200886669389
 21
-112.4637417983535
 31
0.0
1001
TOP
1070
     7
  0
LINE
  5
22C2
330
2214
100
AcDbEntity
  8
P-0000
  6
Continuous
 62
     0
370
     0
100
AcDbLine
 10
41.89200886669389
 20
-112.4637417983535
 30
0.0
 11
41.89200886669389
 21
-113.4395696639535
 31
0.0
1001
TOP
1070
     7
  0
LINE
  5
22C3
330
2214
100
AcDbEntity
  8
P-0000
  6
Continuous
 62
     0
370
     0
100
AcDbLine
 10
45.60503389530265
 20
-117.3428811263533
 30
0.0
 11
45.60503389530265
 21
-114.4153975295534
 31
0.0
1001
TOP
1070
     7
  0
LINE
  5
22C4
330
2214
100
AcDbEntity
  8
P-0000
  6
Continuous
 62
     0
370
     0
100
AcDbLine
 10
44.50722754650199
 20
-112.4637417983535
 30
0.0
 11
44.50722754650199
 21
-117.3428811263533
 31
0.0
1001
TOP
1070
     7
  0
LINE
  5
22C5
330
2214
100
AcDbEntity
  8
P-0000
  6
Continuous
 62
     0
370
     0
100
AcDbLine
 10
44.50722754650199
 20
-117.3428811263533
 30
0.0
 11
45.60503389530265
 21
-117.3428811263533
 31
0.0
1001
TOP
1070
     7
  0
ARC
  5
22C6
330
2214
100
AcDbEntity
  8
P-0000
  6
Continuous
 62
     0
370
     0
100
AcDbCircle
 10
47.14513515852191
 20
-114.1605808182825
 30
0.0
 40
1.700520210299701
100
AcDbArc
 50
93.77067625261986
 51
154.9129671807329
1001
TOP
1070
     7
  0
ARC
  5
22C7
330
2214
100
AcDbEntity
  8
P-0000
  6
Continuous
 62
     0
370
     0
100
AcDbCircle
 10
47.48847264444087
 20
-115.745089341616
 30
0.0
 40
2.30551986259622
100
AcDbArc
 50
89.97705113130741
 51
144.7782320142388
1001
TOP
1070
     7
  0
LINE
  5
22C8
330
2214
100
AcDbEntity
  8
P-0000
  6
Continuous
 62
     0
370
     0
100
AcDbLine
 10
45.60503389530265
 20
-113.4395696639535
 30
0.0
 11
45.60503389530265
 21
-112.4637417983535
 31
0.0
1001
TOP
1070
     7
  0
LINE
  5
22C9
330
2214
100
AcDbEntity
  8
P-0000
  6
Continuous
 62
     0
370
     0
100
AcDbLine
 10
43.7763710533296
 20
-113.4395696639535
 30
0.0
 11
43.7763710533296
 21
-112.4637417983535
 31
0.0
1001
TOP
1070
     7
  0
LINE
  5
22CA
330
2214
100
AcDbEntity
  8
P-0000
  6
Continuous
 62
     0
370
     0
100
AcDbLine
 10
45.60503389530265
 20
-112.4637417983535
 30
0.0
 11
45.60503389530265
 21
-113.4395696639535
 31
0.0
1001
TOP
1070
     7
  0
LINE
  5
22CB
330
2214
100
AcDbEntity
  8
P-0000
  6
Continuous
 62
     0
370
     0
100
AcDbLine
 10
45.60503389530265
 20
-112.4637417983535
 30
0.0
 11
44.50722754650199
 21
-112.4637417983535
 31
0.0
1001
TOP
1070
     7
  0
LINE
  5
22CC
330
2214
100
AcDbEntity
  8
P-0000
  6
Continuous
 62
     0
370
     0
100
AcDbLine
 10
47.4893960819377
 20
-113.4395696639535
 30
0.0
 11
47.4893960819377
 21
-112.4637417983535
 31
0.0
1001
TOP
1070
     7
  0
LINE
  5
22CD
330
2214
100
AcDbEntity
  8
P-0000
  6
Continuous
 62
     0
370
     0
100
AcDbLine
 10
47.03330347211401
 20
-112.4637417983535
 30
0.0
 11
47.4893960819377
 21
-112.4637417983535
 31
0.0
1001
TOP
1070
     7
  0
ARC
  5
22CE
330
2214
100
AcDbEntity
  8
P-0000
  6
Continuous
 62
     0
370
     0
100
AcDbCircle
 10
50.16215002765402
 20
-114.7813329791534
 30
0.0
 40
1.463741798400002
100
AcDbArc
 50
194.7813103722914
 51
323.9519363800095
1001
TOP
1070
     7
  0
ARC
  5
22CF
330
2214
100
AcDbEntity
  8
P-0000
  6
Continuous
 62
     0
370
     0
100
AcDbCircle
 10
50.16227715674557
 20
-114.7246775057507
 30
0.0
 40
1.309503544180366
100
AcDbArc
 50
23.46032899247153
 51
156.5396710075285
1001
TOP
1070
     7
  0
LINE
  5
22D0
330
2214
100
AcDbEntity
  8
P-0000
  6
Continuous
 62
     0
370
     0
100
AcDbLine
 10
48.96102248649414
 20
-114.2033457980831
 30
0.0
 11
51.36353182699832
 21
-114.2033457980831
 31
0.0
1001
TOP
1070
     7
  0
HATCH
  5
22D1
330
2214
100
AcDbEntity
  8
P-0000
  6
Continuous
 62
     0
 48
35.0
100
AcDbHatch
 10
0.0
 20
0.0
 30
0.0
210
0.0
220
0.0
230
1.0
  2
SOLID
 70
     1
 71
     1
 91
        4
 92
        7
 72
     1
 73
     1
 93
        5
 10
10.96271911221012
 20
-125.2235249353502
 42
0.0
 10
12.71033880342222
 20
-123.3760412617837
 42
-0.2526825286644719
 10
10.89966378450944
 20
-118.3093524326913
 42
-0.2365499652620154
 10
13.2385907309231
 20
-113.9115533724705
 42
-0.3189179181344602
 10
21.64966323569252
 20
-113.9115567583528
 42
0.9456749006874234
 97
        5
330
228D
330
228E
330
2296
330
2295
330
2298
 92
       23
 72
     1
 73
     1
 93
        3
 10
13.31957930169594
 20
-122.9606500129607
 42
0.0
 10
14.28882554895264
 20
-121.9083255159412
 42
-0.9367032511192485
 10
19.7738206586555
 20
-115.9531879682591
 42
0.9912937295562375
 97
        3
330
2290
330
2297
330
228F
 92
       23
 72
     1
 73
     1
 93
        3
 10
20.07661028255846
 20
-116.2313117820216
 42
0.0
 10
19.10736403530447
 20
-117.283636279041
 42
-0.9367032511219292
 10
13.62236892559891
 20
-123.2387738267226
 42
0.9912937295511522
 97
        3
330
22A1
330
2291
330
2292
 92
        7
 72
     1
 73
     1
 93
        4
 10
21.10124202964909
 20
-124.2622092592823
 42
-0.3807594385329741
 10
11.62828730439362
 20
-125.8488038677993
 42
0.9590989174885637
 10
22.09782851449584
 20
-114.320869039862
 42
0.0
 10
20.5196942813029
 20
-115.9543842828061
 42
-0.3704192144445646
 97
        4
330
229F
330
22A0
330
2294
330
2293
 75
     0
 76
     1
 47
0.0537802133905057
 98
        4
 10
9.71100091586706
 20
-117.9121948253558
 10
12.48188425561622
 20
-119.1148667670212
 10
20.46640404268985
 20
-120.3175387086872
 10
22.79977970737239
 20
-118.4953086011877
1001
TOP
1070
     3
  0
HATCH
  5
22D2
330
2214
100
AcDbEntity
  8
P-0000
  6
Continuous
 62
     0
 48
35.0
100
AcDbHatch
 10
0.0
 20
0.0
 30
0.0
210
0.0
220
0.0
230
1.0
  2
SOLID
 70
     1
 71
     0
 91
        9
 92
        7
 72
     1
 73
     1
 93
        6
 10
30.42513400499429
 20
-110.9999999999531
 42
0.0
 10
27.4976504081958
 20
-110.9999999999531
 42
0.0
 10
27.49765040819515
 20
-117.3428811263532
 42
0.0
 10
30.42513400499429
 20
-117.3428811263532
 42
0.4142135623732426
 10
32.86470366899553
 20
-114.9033114623533
 42
0.0
 10
32.86470366899553
 20
-113.4395696639534
 42
0.4142135623732917
 97
        0
 92
       22
 72
     1
 73
     1
 93
        6
 10
28.59545675699515
 20
-112.0978063487534
 42
0.0
 10
30.18117703859566
 20
-112.0978063487534
 42
-0.4142135623733217
 10
31.76689732019684
 20
-113.6835266303533
 42
0.0
 10
31.76689732019684
 20
-114.6593544959533
 42
-0.4142135623732008
 10
30.18117703859632
 20
-116.2450747775532
 42
0.0
 10
28.59545675699515
 20
-116.2450747775532
 42
0.0
 97
        0
 92
        7
 72
     0
 73
     1
 93
        4
 10
33.59747200909176
 20
-117.3428811263532
 10
34.69527835789438
 20
-117.3428811263534
 10
34.69527835789438
 20
-112.4637417983535
 10
33.59747200909242
 20
-112.4637417983534
 97
        0
 92
        7
 72
     1
 73
     1
 93
        4
 10
36.4514172241394
 20
-115.1547779670432
 42
0.0
 10
40.29329361446925
 20
-115.1547779670432
 42
19.52759892169242
 10
40.19154508968454
 20
-115.6426918998433
 42
0.0
 10
39.05018876107027
 20
-115.6426918998433
 42
-0.6319943824460191
 97
        0
 92
       22
 72
     1
 73
     1
 93
        2
 10
36.66559137993488
 20
-114.2033457980811
 42
-0.6561238478654379
 10
39.06810072043645
 20
-114.2033457980831
 42
0.0
 97
        0
 92
        7
 72
     1
 73
     1
 93
        9
 10
41.89200886669389
 20
-114.415397529555
 42
-0.2437791817823871
 10
43.7763710533296
 20
-113.4395696639536
 42
0.0
 10
43.7763710533296
 20
-112.4637417983535
 42
0.0
 10
43.3202784435105
 20
-112.4637417983534
 42
0.2732984134248683
 10
41.89200886669389
 20
-113.4395696639525
 42
0.0
 10
41.89200886669389
 20
-112.4637417983534
 42
0.0
 10
40.79420251789454
 20
-112.4637417983534
 42
0.0
 10
40.79420251789389
 20
-117.3428811263532
 42
0.0
 10
41.89200886669325
 20
-117.3428811263532
 42
0.0
 97
        0
 92
        7
 72
     1
 73
     1
 93
        9
 10
44.50722754650264
 20
-117.3428811263532
 42
0.0
 10
45.60503389530331
 20
-117.3428811263534
 42
0.0
 10
45.60503389530265
 20
-114.4153975295523
 42
-0.2437791817821463
 10
47.4893960819377
 20
-113.4395696639536
 42
0.0
 10
47.4893960819377
 20
-112.4637417983535
 42
0.0
 10
47.0333034721186
 20
-112.4637417983534
 42
0.2732984134246251
 10
45.60503389530265
 20
-113.4395696639511
 42
0.0
 10
45.60503389530265
 20
-112.4637417983534
 42
0.0
 10
44.50722754650199
 20
-112.4637417983535
 42
0.0
 97
        0
 92
        7
 72
     1
 73
     1
 93
        4
 10
52.58872472102916
 20
-115.1547779670432
 42
19.52759892169242
 10
52.48697619624445
 20
-115.6426918998433
 42
0.0
 10
51.34561986762953
 20
-115.6426918998433
 42
-0.631994382445661
 10
48.74684833069931
 20
-115.1547779670432
 42
0.0
 97
        0
 92
       22
 72
     1
 73
     1
 93
        2
 10
48.96102248649414
 20
-114.2033457980832
 42
-0.6561238478663365
 10
51.36353182699702
 20
-114.2033457980831
 42
0.0
 97
        0
 75
     0
 76
     1
 47
0.1054092179442032
 98
        9
 10
27.69490638549392
 20
-111.652214293695
 10
27.69490638549392
 20
-111.652214293695
 10
34.07482229139972
 20
-114.0180230722182
 10
36.02995736459688
 20
-114.9952049659171
 10
36.02995736459688
 20
-114.9952049659171
 10
41.58665818505385
 20
-115.2523580455926
 10
44.87951802368876
 20
-115.1494968773671
 10
49.09849458187363
 20
-114.429468063343
 10
49.09849458187363
 20
-114.429468063343
1001
TOP
1070
     5
  0
MTEXT
  5
22D3
330
2214
100
AcDbEntity
  8
P-0000
  6
Continuous
 62
     0
100
AcDbMText
 10
27.49247090377088
 20
-125.390962447158
 30
0.0
 40
1.5
 41
15.89275572328779
 71
     1
 72
     5
  1
{\f@Arial Unicode MS|b0|i0|c0|p34;\H2x;Group\H0.5x; srl}
  7
ROMANS
 73
     1
 44
1.0
1001
TOP
1070
     7
1001
ACAD
1000
MTEXTBEGIN
1070
    73
1070
     1
1070
    44
1040
1.0
1070
    74
1070
     0
1000
MTEXTEND
  0
LINE
  5
22D4
330
2214
100
AcDbEntity
  8
P-0000
  6
Continuous
 62
     0
100
AcDbLine
 10
44.68599253146374
 20
-118.6190131723036
 30
0.0
 11
39.89836754380895
 21
-118.6190131723036
 31
0.0
1001
TOP
1070
     7
  0
LINE
  5
22D5
330
2214
100
AcDbEntity
  8
P-0000
  6
Continuous
 62
     0
100
AcDbLine
 10
39.89836754380895
 20
-118.6190131723036
 30
0.0
 11
44.68599253146374
 21
-118.6190131723036
 31
0.0
1001
TOP
1070
     7
  0
LINE
  5
22D6
330
2214
100
AcDbEntity
  8
P-0000
  6
Continuous
 62
     0
100
AcDbLine
 10
44.3910024591579
 20
-122.4817401737898
 30
0.0
 11
45.21486459679505
 21
-121.2719230596353
 31
0.0
1001
TOP
1070
     7
  0
LINE
  5
22D7
330
2214
100
AcDbEntity
  8
P-0000
  6
Continuous
 62
     0
100
AcDbLine
 10
44.3910024591579
 20
-122.4817401737898
 30
0.0
 11
45.21486459679505
 21
-121.2719230596353
 31
0.0
1001
TOP
1070
     7
  0
LINE
  5
22D8
330
2214
100
AcDbEntity
  8
P-0000
  6
Continuous
 62
     0
100
AcDbLine
 10
44.3910024591579
 20
-122.4817401737898
 30
0.0
 11
46.0387267344322
 21
-122.4817401737898
 31
0.0
1001
TOP
1070
     7
  0
LINE
  5
22D9
330
2214
100
AcDbEntity
  8
P-0000
  6
Continuous
 62
     0
100
AcDbLine
 10
46.0387267344322
 20
-122.4817401737898
 30
0.0
 11
44.3910024591579
 21
-122.4817401737898
 31
0.0
1001
TOP
1070
     7
  0
LINE
  5
22DA
330
2214
100
AcDbEntity
  8
P-0000
  6
Continuous
 62
     0
100
AcDbLine
 10
41.5127601394758
 20
-124.055443766988
 30
0.0
 11
48.9169690541143
 21
-124.055443766988
 31
0.0
1001
TOP
1070
     7
  0
LINE
  5
22DB
330
2214
100
AcDbEntity
  8
P-0000
  6
Continuous
 62
     0
100
AcDbLine
 10
41.5127601394758
 20
-124.055443766988
 30
0.0
 11
48.9169690541143
 21
-124.055443766988
 31
0.0
1001
TOP
1070
     7
  0
LINE
  5
22DC
330
2214
100
AcDbEntity
  8
P-0000
  6
Continuous
 62
     0
100
AcDbLine
 10
43.11736052943385
 20
-120.9225027431547
 30
0.0
 11
44.68599253146374
 21
-118.6190131723036
 31
0.0
1001
TOP
1070
     7
  0
LINE
  5
22DD
330
2214
100
AcDbEntity
  8
P-0000
  6
Continuous
 62
     0
100
AcDbLine
 10
43.11736052943385
 20
-120.9225027431547
 30
0.0
 11
44.68599253146374
 21
-118.6190131723036
 31
0.0
1001
TOP
1070
     7
  0
LINE
  5
22DE
330
2214
100
AcDbEntity
  8
P-0000
  6
Continuous
 62
     0
100
AcDbLine
 10
41.5127601394758
 20
-124.055443766988
 30
0.0
 11
45.21486459679505
 21
-118.6190131723036
 31
0.0
1001
TOP
1070
     7
  0
LINE
  5
22DF
330
2214
100
AcDbEntity
  8
P-0000
  6
Continuous
 62
     0
100
AcDbLine
 10
45.21486459679505
 20
-118.6190131723036
 30
0.0
 11
41.5127601394758
 21
-124.055443766988
 31
0.0
1001
TOP
1070
     7
  0
LINE
  5
22E0
330
2214
100
AcDbEntity
  8
P-0000
  6
Continuous
 62
     0
100
AcDbLine
 10
32.52193502884333
 20
-118.6190131723036
 30
0.0
 11
36.22403948616258
 21
-118.6190131723036
 31
0.0
1001
TOP
1070
     7
  0
LINE
  5
22E1
330
2214
100
AcDbEntity
  8
P-0000
  6
Continuous
 62
     0
100
AcDbLine
 10
32.52193502884333
 20
-118.6190131723036
 30
0.0
 11
36.22403948616258
 21
-118.6190131723036
 31
0.0
1001
TOP
1070
     7
  0
LINE
  5
22E2
330
2214
100
AcDbEntity
  8
P-0000
  6
Continuous
 62
     0
100
AcDbLine
 10
33.05080709417467
 20
-124.055443766988
 30
0.0
 11
36.75291155149392
 21
-118.6190131723036
 31
0.0
1001
TOP
1070
     7
  0
LINE
  5
22E3
330
2214
100
AcDbEntity
  8
P-0000
  6
Continuous
 62
     0
100
AcDbLine
 10
32.52193502884333
 20
-124.055443766988
 30
0.0
 11
36.22403948616258
 21
-118.6190131723036
 31
0.0
1001
TOP
1070
     7
  0
LINE
  5
22E4
330
2214
100
AcDbEntity
  8
P-0000
  6
Continuous
 62
     0
100
AcDbLine
 10
33.05080709417467
 20
-124.055443766988
 30
0.0
 11
36.75291155149392
 21
-118.6190131723036
 31
0.0
1001
TOP
1070
     7
  0
LINE
  5
22E5
330
2214
100
AcDbEntity
  8
P-0000
  6
Continuous
 62
     0
100
AcDbLine
 10
36.22403948616258
 20
-118.6190131723036
 30
0.0
 11
32.52193502884333
 21
-124.055443766988
 31
0.0
1001
TOP
1070
     7
  0
LINE
  5
22E6
330
2214
100
AcDbEntity
  8
P-0000
  6
Continuous
 62
     0
100
AcDbLine
 10
33.05080709417467
 20
-124.055443766988
 30
0.0
 11
40.45501600881317
 21
-124.055443766988
 31
0.0
1001
TOP
1070
     7
  0
LINE
  5
22E7
330
2214
100
AcDbEntity
  8
P-0000
  6
Continuous
 62
     0
100
AcDbLine
 10
40.45501600881317
 20
-124.055443766988
 30
0.0
 11
33.05080709417467
 21
-124.055443766988
 31
0.0
1001
TOP
1070
     7
  0
LINE
  5
22E8
330
2214
100
AcDbEntity
  8
P-0000
  6
Continuous
 62
     0
100
AcDbLine
 10
27.4976504081958
 20
-118.6190131723036
 30
0.0
 11
29.74535668585389
 21
-118.6190131723036
 31
0.0
1001
TOP
1070
     7
  0
LINE
  5
22E9
330
2214
100
AcDbEntity
  8
P-0000
  6
Continuous
 62
     0
100
AcDbLine
 10
27.4976504081958
 20
-124.055443766988
 30
0.0
 11
29.74535668585389
 21
-124.055443766988
 31
0.0
1001
TOP
1070
     7
  0
LINE
  5
22EA
330
2214
100
AcDbEntity
  8
P-0000
  6
Continuous
 62
     0
100
AcDbLine
 10
29.74535668585389
 20
-124.055443766988
 30
0.0
 11
27.4976504081958
 21
-124.055443766988
 31
0.0
1001
TOP
1070
     7
  0
LINE
  5
22EB
330
2214
100
AcDbEntity
  8
P-0000
  6
Continuous
 62
     0
100
AcDbLine
 10
27.4976504081958
 20
-118.6190131723036
 30
0.0
 11
29.74535668585389
 21
-118.6190131723036
 31
0.0
1001
TOP
1070
     7
  0
LINE
  5
22EC
330
2214
100
AcDbEntity
  8
P-0000
  6
Continuous
 62
     0
100
AcDbLine
 10
27.4976504081958
 20
-124.055443766988
 30
0.0
 11
27.4976504081958
 21
-118.6190131723036
 31
0.0
1001
TOP
1070
     7
  0
LINE
  5
22ED
330
2214
100
AcDbEntity
  8
P-0000
  6
Continuous
 62
     0
100
AcDbLine
 10
27.4976504081958
 20
-124.055443766988
 30
0.0
 11
27.4976504081958
 21
-118.6190131723036
 31
0.0
1001
TOP
1070
     7
  0
LINE
  5
22EE
330
2214
100
AcDbEntity
  8
P-0000
  6
Continuous
 62
     0
100
AcDbLine
 10
32.52193502884333
 20
-121.7664203586998
 30
0.0
 11
31.1336458573486
 21
-124.055443766988
 31
0.0
1001
TOP
1070
     7
  0
LINE
  5
22EF
330
2214
100
AcDbEntity
  8
P-0000
  6
Continuous
 62
     0
100
AcDbLine
 10
32.52193502884333
 20
-121.7664203586998
 30
0.0
 11
32.52193502884333
 21
-124.055443766988
 31
0.0
1001
TOP
1070
     7
  0
LINE
  5
22F0
330
2214
100
AcDbEntity
  8
P-0000
  6
Continuous
 62
     0
100
AcDbLine
 10
32.52193502884333
 20
-121.7664203586998
 30
0.0
 11
31.1336458573486
 21
-124.055443766988
 31
0.0
1001
TOP
1070
     7
  0
LINE
  5
22F1
330
2214
100
AcDbEntity
  8
P-0000
  6
Continuous
 62
     0
100
AcDbLine
 10
32.52193502884333
 20
-124.055443766988
 30
0.0
 11
32.52193502884333
 21
-121.7664203586998
 31
0.0
1001
TOP
1070
     7
  0
LINE
  5
22F2
330
2214
100
AcDbEntity
  8
P-0000
  6
Continuous
 62
     0
100
AcDbLine
 10
29.74535668585389
 20
-124.055443766988
 30
0.0
 11
29.74535668585389
 21
-121.7664203586998
 31
0.0
1001
TOP
1070
     7
  0
LINE
  5
22F3
330
2214
100
AcDbEntity
  8
P-0000
  6
Continuous
 62
     0
100
AcDbLine
 10
29.74535668585389
 20
-121.7664203586998
 30
0.0
 11
29.74535668585389
 21
-124.055443766988
 31
0.0
1001
TOP
1070
     7
  0
LINE
  5
22F4
330
2214
100
AcDbEntity
  8
P-0000
  6
Continuous
 62
     0
100
AcDbLine
 10
29.74535668585389
 20
-121.7664203586998
 30
0.0
 11
31.1336458573486
 21
-124.055443766988
 31
0.0
1001
TOP
1070
     7
  0
LINE
  5
22F5
330
2214
100
AcDbEntity
  8
P-0000
  6
Continuous
 62
     0
100
AcDbLine
 10
31.1336458573486
 20
-124.055443766988
 30
0.0
 11
29.74535668585389
 21
-121.7664203586998
 31
0.0
1001
TOP
1070
     7
  0
LINE
  5
22F6
330
2214
100
AcDbEntity
  8
P-0000
  6
Continuous
 62
     0
100
AcDbLine
 10
32.52193502884333
 20
-118.6190131723036
 30
0.0
 11
31.1336458573486
 21
-120.9080365805917
 31
0.0
1001
TOP
1070
     7
  0
LINE
  5
22F7
330
2214
100
AcDbEntity
  8
P-0000
  6
Continuous
 62
     0
100
AcDbLine
 10
31.1336458573486
 20
-120.9080365805917
 30
0.0
 11
32.52193502884333
 21
-118.6190131723036
 31
0.0
1001
TOP
1070
     7
  0
LINE
  5
22F8
330
2214
100
AcDbEntity
  8
P-0000
  6
Continuous
 62
     0
100
AcDbLine
 10
29.74535668585389
 20
-118.6190131723036
 30
0.0
 11
31.1336458573486
 21
-120.9080365805917
 31
0.0
1001
TOP
1070
     7
  0
LINE
  5
22F9
330
2214
100
AcDbEntity
  8
P-0000
  6
Continuous
 62
     0
100
AcDbLine
 10
29.74535668585389
 20
-118.6190131723036
 30
0.0
 11
31.1336458573486
 21
-120.9080365805917
 31
0.0
1001
TOP
1070
     7
  0
ELLIPSE
  5
22FA
330
2214
100
AcDbEntity
  8
P-0000
  6
Continuous
 62
     0
100
AcDbEllipse
 10
39.89836754380895
 20
-120.0496528024836
 30
0.0
 11
-0.0000000000000277
 21
1.430639630180138
 31
0.0
210
0.0
220
0.0
230
-1.0
 40
0.9241881291669729
 41
4.077362244994374
 42
6.283185307179586
1001
TOP
1070
     7
  0
LINE
  5
22FB
330
2214
100
AcDbEntity
  8
P-0000
  6
Continuous
 62
     0
100
AcDbLine
 10
40.45501600881317
 20
-124.055443766988
 30
0.0
 11
36.75291155149392
 21
-118.6190131723036
 31
0.0
1001
TOP
1070
     7
  0
LINE
  5
22FC
330
2214
100
AcDbEntity
  8
P-0000
  6
Continuous
 62
     0
100
AcDbLine
 10
36.75291155149392
 20
-118.6190131723036
 30
0.0
 11
40.45501600881317
 21
-124.055443766988
 31
0.0
1001
TOP
1070
     7
  0
ELLIPSE
  5
22FD
330
2214
100
AcDbEntity
  8
P-0000
  6
Continuous
 62
     0
100
AcDbEllipse
 10
39.89836754380895
 20
-120.0496528024836
 30
0.0
 11
0.0000000000000073
 21
1.430639630180138
 31
0.0
210
0.0
220
0.0
230
1.0
 40
0.9241881291669608
 41
0.0000000000000056
 42
2.205823062185215
1001
TOP
1070
     7
  0
LINE
  5
22FE
330
2214
100
AcDbEntity
  8
P-0000
  6
Continuous
 62
     0
100
AcDbLine
 10
40.98388807414448
 20
-124.055443766988
 30
0.0
 11
38.83393868528867
 21
-120.8983068549025
 31
0.0
1001
TOP
1070
     7
  0
LINE
  5
22FF
330
2214
100
AcDbEntity
  8
P-0000
  6
Continuous
 62
     0
100
AcDbLine
 10
38.83393868528867
 20
-120.8983068549025
 30
0.0
 11
40.98388807414448
 21
-124.055443766988
 31
0.0
1001
TOP
1070
     7
  0
LINE
  5
2300
330
2214
100
AcDbEntity
  8
P-0000
  6
Continuous
 62
     0
100
AcDbLine
 10
37.57677368913107
 20
-122.4817401737898
 30
0.0
 11
36.75291155149392
 21
-121.2719230596353
 31
0.0
1001
TOP
1070
     7
  0
LINE
  5
2301
330
2214
100
AcDbEntity
  8
P-0000
  6
Continuous
 62
     0
100
AcDbLine
 10
36.75291155149392
 20
-121.2719230596353
 30
0.0
 11
37.57677368913107
 21
-122.4817401737898
 31
0.0
1001
TOP
1070
     7
  0
LINE
  5
2302
330
2214
100
AcDbEntity
  8
P-0000
  6
Continuous
 62
     0
100
AcDbLine
 10
35.92904941385678
 20
-122.4817401737898
 30
0.0
 11
36.75291155149392
 21
-121.2719230596353
 31
0.0
1001
TOP
1070
     7
  0
LINE
  5
2303
330
2214
100
AcDbEntity
  8
P-0000
  6
Continuous
 62
     0
100
AcDbLine
 10
35.92904941385678
 20
-122.4817401737898
 30
0.0
 11
36.75291155149392
 21
-121.2719230596353
 31
0.0
1001
TOP
1070
     7
  0
LINE
  5
2304
330
2214
100
AcDbEntity
  8
P-0000
  6
Continuous
 62
     0
100
AcDbLine
 10
35.92904941385678
 20
-122.4817401737898
 30
0.0
 11
37.57677368913107
 21
-122.4817401737898
 31
0.0
1001
TOP
1070
     7
  0
LINE
  5
2305
330
2214
100
AcDbEntity
  8
P-0000
  6
Continuous
 62
     0
100
AcDbLine
 10
37.57677368913107
 20
-122.4817401737898
 30
0.0
 11
35.92904941385678
 21
-122.4817401737898
 31
0.0
1001
TOP
1070
     7
  0
LINE
  5
2306
330
2214
100
AcDbEntity
  8
P-0000
  6
Continuous
 62
     0
100
AcDbLine
 10
40.98388807414448
 20
-124.055443766988
 30
0.0
 11
42.55252007617437
 21
-121.7519541961368
 31
0.0
1001
TOP
1070
     7
  0
LINE
  5
2307
330
2214
100
AcDbEntity
  8
P-0000
  6
Continuous
 62
     0
100
AcDbLine
 10
40.98388807414448
 20
-124.055443766988
 30
0.0
 11
42.55252007617437
 21
-121.7519541961368
 31
0.0
1001
TOP
1070
     7
  0
LINE
  5
2308
330
2214
100
AcDbEntity
  8
P-0000
  6
Continuous
 62
     0
100
AcDbLine
 10
42.55252007617437
 20
-121.7519541961368
 30
0.0
 11
41.53074433343988
 21
-121.7519541961368
 31
0.0
1001
TOP
1070
     7
  0
LINE
  5
2309
330
2214
100
AcDbEntity
  8
P-0000
  6
Continuous
 62
     0
100
AcDbLine
 10
41.53074433343988
 20
-120.9225027431547
 30
0.0
 11
43.11736052943385
 21
-120.9225027431547
 31
0.0
1001
TOP
1070
     7
  0
LINE
  5
230A
330
2214
100
AcDbEntity
  8
P-0000
  6
Continuous
 62
     0
100
AcDbLine
 10
42.55252007617437
 20
-121.7519541961368
 30
0.0
 11
41.53074433343988
 21
-121.7519541961368
 31
0.0
1001
TOP
1070
     7
  0
LINE
  5
230B
330
2214
100
AcDbEntity
  8
P-0000
  6
Continuous
 62
     0
100
AcDbLine
 10
43.11736052943385
 20
-120.9225027431547
 30
0.0
 11
41.53074433343988
 21
-120.9225027431547
 31
0.0
1001
TOP
1070
     7
  0
ELLIPSE
  5
230C
330
2214
100
AcDbEntity
  8
P-0000
  6
Continuous
 62
     0
100
AcDbEllipse
 10
41.53074433343988
 20
-121.3372284696458
 30
0.0
 11
0.0000000000000016
 21
0.4147257264910956
 31
0.0
210
0.0
220
0.0
230
-1.0
 40
0.9241881291669779
 41
3.141592653589793
 42
6.283185307179586
1001
TOP
1070
     7
  0
ELLIPSE
  5
230D
330
2214
100
AcDbEntity
  8
P-0000
  6
Continuous
 62
     0
100
AcDbEllipse
 10
41.53074433343988
 20
-121.3372284696458
 30
0.0
 11
-0.0000000000000201
 21
0.4147257264910956
 31
0.0
210
0.0
220
0.0
230
1.0
 40
0.9241881291669438
 41
-0.0000000000000524
 42
3.14159265358974
1001
TOP
1070
     7
  0
ELLIPSE
  5
230E
330
2214
100
AcDbEntity
  8
P-0000
  6
Continuous
 62
     0
100
AcDbEllipse
 10
49.44584111944561
 20
-120.3357807285197
 30
0.0
 11
-0.0000000000001066
 21
0.6294814372792618
 31
0.0
210
0.0
220
0.0
230
1.0
 40
0.9241881291669697
 41
3.141592653589633
 42
6.283185307179426
1001
TOP
1070
     7
  0
ELLIPSE
  5
230F
330
2214
100
AcDbEntity
  8
P-0000
  6
Continuous
 62
     0
100
AcDbEllipse
 10
49.44584111944561
 20
-120.3357807285197
 30
0.0
 11
0.0000000000000215
 21
0.6294814372792617
 31
0.0
210
0.0
220
0.0
230
-1.0
 40
0.9241881291669697
 41
0.0
 42
3.141592653589793
1001
TOP
1070
     7
  0
ELLIPSE
  5
2310
330
2214
100
AcDbEntity
  8
P-0000
  6
Continuous
 62
     0
100
AcDbEllipse
 10
49.44584111944561
 20
-120.3357807285197
 30
0.0
 11
0.0000000000000215
 21
1.716767556216168
 31
0.0
210
0.0
220
0.0
230
1.0
 40
0.9241881291669681
 41
3.141592653589806
 42
6.283185307179599
1001
TOP
1070
     7
  0
ELLIPSE
  5
2311
330
2214
100
AcDbEntity
  8
P-0000
  6
Continuous
 62
     0
100
AcDbEllipse
 10
49.44584111944561
 20
-120.3357807285197
 30
0.0
 11
0.0000000000000018
 21
1.716767556216167
 31
0.0
210
0.0
220
0.0
230
-1.0
 40
0.9241881291669688
 41
0.0
 42
3.141592653589793
1001
TOP
1070
     7
  0
LINE
  5
2312
330
2214
100
AcDbEntity
  8
P-0000
  6
Continuous
 62
     0
100
AcDbLine
 10
45.21486459679505
 20
-121.2719230596353
 30
0.0
 11
46.0387267344322
 21
-122.4817401737898
 31
0.0
1001
TOP
1070
     7
  0
LINE
  5
2313
330
2214
100
AcDbEntity
  8
P-0000
  6
Continuous
 62
     0
100
AcDbLine
 10
46.0387267344322
 20
-122.4817401737898
 30
0.0
 11
45.21486459679505
 21
-121.2719230596353
 31
0.0
1001
TOP
1070
     7
  0
LINE
  5
2314
330
2214
100
AcDbEntity
  8
P-0000
  6
Continuous
 62
     0
100
AcDbLine
 10
48.9169690541143
 20
-124.055443766988
 30
0.0
 11
45.21486459679505
 21
-118.6190131723036
 31
0.0
1001
TOP
1070
     7
  0
LINE
  5
2315
330
2214
100
AcDbEntity
  8
P-0000
  6
Continuous
 62
     0
100
AcDbLine
 10
49.44584111944561
 20
-124.055443766988
 30
0.0
 11
45.74373666212636
 21
-118.6190131723036
 31
0.0
1001
TOP
1070
     7
  0
LINE
  5
2316
330
2214
100
AcDbEntity
  8
P-0000
  6
Continuous
 62
     0
100
AcDbLine
 10
49.44584111944561
 20
-124.055443766988
 30
0.0
 11
45.74373666212636
 21
-118.6190131723036
 31
0.0
1001
TOP
1070
     7
  0
LINE
  5
2317
330
2214
100
AcDbEntity
  8
P-0000
  6
Continuous
 62
     0
100
AcDbLine
 10
48.9169690541143
 20
-124.055443766988
 30
0.0
 11
45.21486459679505
 21
-118.6190131723036
 31
0.0
1001
TOP
1070
     7
  0
LINE
  5
2318
330
2214
100
AcDbEntity
  8
P-0000
  6
Continuous
 62
     0
100
AcDbLine
 10
49.44584111944561
 20
-124.055443766988
 30
0.0
 11
49.44584111944561
 21
-122.0525482847359
 31
0.0
1001
TOP
1070
     7
  0
LINE
  5
2319
330
2214
100
AcDbEntity
  8
P-0000
  6
Continuous
 62
     0
100
AcDbLine
 10
49.44584111944561
 20
-122.0525482847359
 30
0.0
 11
49.44584111944561
 21
-124.055443766988
 31
0.0
1001
TOP
1070
     7
  0
LINE
  5
231A
330
2214
100
AcDbEntity
  8
P-0000
  6
Continuous
 62
     0
100
AcDbLine
 10
45.74373666212636
 20
-118.6190131723036
 30
0.0
 11
49.44584111944561
 21
-118.6190131723036
 31
0.0
1001
TOP
1070
     7
  0
LINE
  5
231B
330
2214
100
AcDbEntity
  8
P-0000
  6
Continuous
 62
     0
100
AcDbLine
 10
45.74373666212636
 20
-118.6190131723036
 30
0.0
 11
49.44584111944561
 21
-118.6190131723036
 31
0.0
1001
TOP
1070
     7
  0
LINE
  5
231C
330
2214
100
AcDbEntity
  8
P-0000
  6
Continuous
 62
     0
100
AcDbLine
 10
49.44584111944561
 20
-119.7062992912404
 30
0.0
 11
48.58851166617168
 21
-119.7062992912404
 31
0.0
1001
TOP
1070
     7
  0
LINE
  5
231D
330
2214
100
AcDbEntity
  8
P-0000
  6
Continuous
 62
     0
100
AcDbLine
 10
48.58851166617168
 20
-119.7062992912404
 30
0.0
 11
49.44584111944561
 21
-119.7062992912404
 31
0.0
1001
TOP
1070
     7
  0
LINE
  5
231E
330
2214
100
AcDbEntity
  8
P-0000
  6
Continuous
 62
     0
100
AcDbLine
 10
49.44584111944561
 20
-120.9652621657989
 30
0.0
 11
48.58851166617168
 21
-119.7062992912404
 31
0.0
1001
TOP
1070
     7
  0
LINE
  5
231F
330
2214
100
AcDbEntity
  8
P-0000
  6
Continuous
 62
     0
100
AcDbLine
 10
49.44584111944561
 20
-120.9652621657989
 30
0.0
 11
48.58851166617168
 21
-119.7062992912404
 31
0.0
1001
TOP
1070
     7
  0
LINE
  5
2320
330
2214
100
AcDbEntity
  8
0
 62
     0
 48
35.0
100
AcDbLine
 10
112.0
 20
142.5
 30
0.0
 11
203.0
 21
142.5
 31
0.0
1001
TOP
1070
     1
  0
LINE
  5
2321
330
2214
100
AcDbEntity
  8
0
 62
     0
100
AcDbLine
 10
112.0
 20
143.5
 30
0.0
 11
205.0
 21
143.5
 31
0.0
1001
TOP
1070
   256
  0
ARC
  5
2322
330
2214
100
AcDbEntity
  8
0
 62
     0
 48
35.0
100
AcDbCircle
 10
203.0
 20
141.5
 30
0.0
 40
1.0
100
AcDbArc
 50
0.0
 51
90.0
1001
TOP
1070
     1
  0
LINE
  5
2323
330
2214
100
AcDbEntity
  8
0
 62
     0
 48
35.0
100
AcDbLine
 10
204.0
 20
141.5
 30
0.0
 11
204.0
 21
113.5
 31
0.0
1001
TOP
1070
     1
  0
LINE
  5
2324
330
2214
100
AcDbEntity
  8
0
 62
     0
100
AcDbLine
 10
205.0
 20
143.5
 30
0.0
 11
205.0000000000001
 21
113.5
 31
0.0
1001
TOP
1070
   256
  0
ARC
  5
2325
330
2214
100
AcDbEntity
  8
0
 62
     0
 48
35.0
100
AcDbCircle
 10
203.0000000000001
 20
113.5
 30
0.0
 40
1.0
100
AcDbArc
 50
270.0
 51
0.0
1001
TOP
1070
     1
  0
ARC
  5
2326
330
2214
100
AcDbEntity
  8
0
 62
     0
100
AcDbCircle
 10
203.0000000000001
 20
113.5
 30
0.0
 40
2.0
100
AcDbArc
 50
270.0
 51
0.0
1001
TOP
1070
   256
  0
LINE
  5
2327
330
2214
100
AcDbEntity
  8
0
 62
     0
 48
35.0
100
AcDbLine
 10
203.0000000000001
 20
112.5
 30
0.0
 11
112.0
 21
112.5
 31
0.0
1001
TOP
1070
     1
  0
LINE
  5
2328
330
2214
100
AcDbEntity
  8
0
 62
     0
100
AcDbLine
 10
203.0000000000001
 20
111.4999999999999
 30
0.0
 11
112.0
 21
111.5
 31
0.0
1001
TOP
1070
   256
  0
ARC
  5
2329
330
2214
100
AcDbEntity
  8
0
 62
     0
 48
35.0
100
AcDbCircle
 10
112.0
 20
113.5
 30
0.0
 40
1.0
100
AcDbArc
 50
180.0
 51
270.0
1001
TOP
1070
     1
  0
ARC
  5
232A
330
2214
100
AcDbEntity
  8
0
 62
     0
100
AcDbCircle
 10
112.0
 20
113.5
 30
0.0
 40
2.0
100
AcDbArc
 50
180.0
 51
270.0
1001
TOP
1070
   256
  0
LINE
  5
232B
330
2214
100
AcDbEntity
  8
0
 62
     0
 48
35.0
100
AcDbLine
 10
111.0
 20
113.5
 30
0.0
 11
111.0
 21
141.5
 31
0.0
1001
TOP
1070
     1
  0
LINE
  5
232C
330
2214
100
AcDbEntity
  8
0
 62
     0
100
AcDbLine
 10
110.0
 20
113.5
 30
0.0
 11
110.0
 21
141.5
 31
0.0
1001
TOP
1070
   256
  0
ARC
  5
232D
330
2214
100
AcDbEntity
  8
0
 62
     0
 48
35.0
100
AcDbCircle
 10
112.0
 20
141.5
 30
0.0
 40
1.0
100
AcDbArc
 50
90.0
 51
180.0
1001
TOP
1070
     1
  0
ARC
  5
232E
330
2214
100
AcDbEntity
  8
0
 62
     0
100
AcDbCircle
 10
112.0
 20
141.5
 30
0.0
 40
2.0
100
AcDbArc
 50
90.0
 51
180.0
1001
TOP
1070
   256
  0
MTEXT
  5
232F
330
2214
100
AcDbEntity
  8
0
 62
     0
100
AcDbMText
 10
134.5853581142873
 20
135.6251466847724
 30
0.0
 40
6.0
 41
54.93080742428151
 71
     1
 72
     5
  1
{\fVrinda|b0|i0|c0|p2;BAR CODE\PMontaggio}
 73
     1
 44
1.0
1001
TOP
1070
   256
1001
ACAD
1000
MTEXTBEGIN
1070
    73
1070
     1
1070
    44
1040
1.0
1070
    74
1070
     0
1000
MTEXTEND
  0
ENDBLK
  5
2331
330
2214
100
AcDbEntity
  8
0
 62
     2
100
AcDbBlockEnd
  0
BLOCK
  5
2356
330
2355
100
AcDbEntity
  8
0
 62
     3
100
AcDbBlockBegin
  2
*D13
 70
     1
 10
0.0
 20
0.0
 30
0.0
  3
*D13
  1

  0
LINE
  5
2361
330
2355
100
AcDbEntity
  8
P-0000
  6
Continuous
 62
     2
370
    -2
100
AcDbLine
 10
877.7228947192465
 20
1603.665493176263
 30
0.0
 11
846.4884706832275
 21
1603.665493176263
 31
0.0
  0
LINE
  5
2362
330
2355
100
AcDbEntity
  8
P-0000
  6
Continuous
 62
     2
370
    -2
100
AcDbLine
 10
870.5729421387705
 20
1593.758420737118
 30
0.0
 11
846.4884706832275
 21
1593.758420737118
 31
0.0
  0
LINE
  5
2363
330
2355
100
AcDbEntity
  8
P-0000
  6
Continuous
 62
     2
370
    -2
100
AcDbLine
 10
847.9884706832276
 20
1601.665493176263
 30
0.0
 11
847.9884706832276
 21
1595.758420737118
 31
0.0
  0
SOLID
  5
2364
330
2355
100
AcDbEntity
  8
P-0000
  6
Continuous
 62
     2
100
AcDbTrace
 10
847.6551373498942
 20
1601.665493176263
 30
0.0
 11
848.3218040165608
 21
1601.665493176263
 31
0.0
 12
847.9884706832276
 22
1603.665493176263
 32
0.0
 13
847.9884706832276
 23
1603.665493176263
 33
0.0
  0
SOLID
  5
2365
330
2355
100
AcDbEntity
  8
P-0000
  6
Continuous
 62
     2
100
AcDbTrace
 10
847.6551373498942
 20
1595.758420737118
 30
0.0
 11
848.3218040165608
 21
1595.758420737118
 31
0.0
 12
847.9884706832276
 22
1593.758420737118
 32
0.0
 13
847.9884706832276
 23
1593.758420737118
 33
0.0
  0
MTEXT
  5
2366
330
2355
100
AcDbEntity
  8
P-0000
  6
Continuous
 62
     1
100
AcDbMText
 10
845.9651470680668
 20
1598.71195695669
 30
0.0
 40
2.0
 41
0.0
 71
     5
 72
     1
  1
\A1;9.91
  7
Stile_Quota
 11
0.0000000000000001
 21
1.0
 31
0.0
 73
     1
 44
1.0
1001
ACAD
1000
MTEXTBEGIN
1070
    73
1070
     1
1070
    44
1040
1.0
1070
    74
1070
     0
1000
MTEXTEND
  0
POINT
  5
2367
330
2355
100
AcDbEntity
  8
DEFPOINTS
  6
Continuous
 62
     0
100
AcDbPoint
 10
878.7228947192465
 20
1603.665493176263
 30
0.0
  0
POINT
  5
2368
330
2355
100
AcDbEntity
  8
DEFPOINTS
  6
Continuous
 62
     0
100
AcDbPoint
 10
871.5729421387704
 20
1593.758420737118
 30
0.0
  0
POINT
  5
2369
330
2355
100
AcDbEntity
  8
DEFPOINTS
  6
Continuous
 62
     0
100
AcDbPoint
 10
847.9884706832276
 20
1593.758420737118
 30
0.0
  0
ENDBLK
  5
2357
330
2355
100
AcDbEntity
  8
0
 62
     3
100
AcDbBlockEnd
  0
BLOCK
  5
236C
330
236B
100
AcDbEntity
  8
0
 62
     3
100
AcDbBlockBegin
  2
*D14
 70
     1
 10
0.0
 20
0.0
 30
0.0
  3
*D14
  1

  0
LINE
  5
2379
330
236B
100
AcDbEntity
  8
P-0000
  6
Continuous
 62
     2
370
    -2
100
AcDbLine
 10
880.3229421387715
 20
1598.665493178294
 30
0.0
 11
852.9463928044298
 21
1598.665493178294
 31
0.0
  0
LINE
  5
237A
330
236B
100
AcDbEntity
  8
P-0000
  6
Continuous
 62
     2
370
    -2
100
AcDbLine
 10
877.7228947192575
 20
1603.665493176263
 30
0.0
 11
852.9463928044298
 21
1603.665493176263
 31
0.0
  0
LINE
  5
237B
330
236B
100
AcDbEntity
  8
P-0000
  6
Continuous
 62
     2
370
    -2
100
AcDbLine
 10
854.4463928044297
 20
1596.665493178294
 30
0.0
 11
854.4463928044297
 21
1594.665493178294
 31
0.0
  0
LINE
  5
237C
330
236B
100
AcDbEntity
  8
P-0000
  6
Continuous
 62
     2
370
    -2
100
AcDbLine
 10
854.4463928044297
 20
1605.665493176262
 30
0.0
 11
854.4463928044297
 21
1610.945376558187
 31
0.0
  0
LINE
  5
237D
330
236B
100
AcDbEntity
  8
P-0000
  6
Continuous
 62
     2
370
    -2
100
AcDbLine
 10
854.4463928044297
 20
1598.665493178294
 30
0.0
 11
854.4463928044297
 21
1603.665493176263
 31
0.0
  0
SOLID
  5
237E
330
236B
100
AcDbEntity
  8
P-0000
  6
Continuous
 62
     2
100
AcDbTrace
 10
854.1130594710963
 20
1596.665493178294
 30
0.0
 11
854.7797261377631
 21
1596.665493178294
 31
0.0
 12
854.4463928044297
 22
1598.665493178294
 32
0.0
 13
854.4463928044297
 23
1598.665493178294
 33
0.0
  0
SOLID
  5
237F
330
236B
100
AcDbEntity
  8
P-0000
  6
Continuous
 62
     2
100
AcDbTrace
 10
854.1130594710963
 20
1605.665493176262
 30
0.0
 11
854.7797261377631
 21
1605.665493176262
 31
0.0
 12
854.4463928044297
 22
1603.665493176263
 32
0.0
 13
854.4463928044297
 23
1603.665493176263
 33
0.0
  0
MTEXT
  5
2380
330
236B
100
AcDbEntity
  8
P-0000
  6
Continuous
 62
     1
100
AcDbMText
 10
852.423798052243
 20
1609.305434867225
 30
0.0
 40
2.0
 41
0.0
 71
     5
 72
     1
  1
\A1;5
  7
Stile_Quota
 11
0.0000000000000001
 21
1.0
 31
0.0
 73
     1
 44
1.0
1001
ACAD
1000
MTEXTBEGIN
1070
    73
1070
     1
1070
    44
1040
1.0
1070
    74
1070
     0
1000
MTEXTEND
  0
POINT
  5
2381
330
236B
100
AcDbEntity
  8
DEFPOINTS
  6
Continuous
 62
     0
100
AcDbPoint
 10
881.3229421387715
 20
1598.665493178294
 30
0.0
  0
POINT
  5
2382
330
236B
100
AcDbEntity
  8
DEFPOINTS
  6
Continuous
 62
     0
100
AcDbPoint
 10
878.7228947192575
 20
1603.665493176263
 30
0.0
  0
POINT
  5
2383
330
236B
100
AcDbEntity
  8
DEFPOINTS
  6
Continuous
 62
     0
100
AcDbPoint
 10
854.4463928044297
 20
1603.665493176263
 30
0.0
  0
ENDBLK
  5
236D
330
236B
100
AcDbEntity
  8
0
 62
     3
100
AcDbBlockEnd
  0
BLOCK
  5
2386
330
2385
100
AcDbEntity
  8
0
 62
     3
100
AcDbBlockBegin
  2
*D15
 70
     1
 10
0.0
 20
0.0
 30
0.0
  3
*D15
  1

  0
LINE
  5
2388
330
2385
100
AcDbEntity
  8
P-0000
  6
Continuous
 62
     2
370
    -2
100
AcDbLine
 10
916.3229421387709
 20
1600.665493176263
 30
0.0
 11
911.0670914546448
 21
1600.665493176263
 31
0.0
  0
LINE
  5
2389
330
2385
100
AcDbEntity
  8
P-0000
  6
Continuous
 62
     2
370
    -2
100
AcDbLine
 10
919.8229421387713
 20
1603.665493176263
 30
0.0
 11
911.0670914546448
 21
1603.665493176263
 31
0.0
  0
LINE
  5
238A
330
2385
100
AcDbEntity
  8
P-0000
  6
Continuous
 62
     2
370
    -2
100
AcDbLine
 10
912.5670914546448
 20
1598.665493176263
 30
0.0
 11
912.5670914546448
 21
1596.665493176263
 31
0.0
  0
LINE
  5
238B
330
2385
100
AcDbEntity
  8
P-0000
  6
Continuous
 62
     2
370
    -2
100
AcDbLine
 10
912.5670914546448
 20
1605.665493176262
 30
0.0
 11
912.5670914546448
 21
1610.910391135446
 31
0.0
  0
LINE
  5
238C
330
2385
100
AcDbEntity
  8
P-0000
  6
Continuous
 62
     2
370
    -2
100
AcDbLine
 10
912.5670914546448
 20
1600.665493176263
 30
0.0
 11
912.5670914546448
 21
1603.665493176263
 31
0.0
  0
SOLID
  5
238D
330
2385
100
AcDbEntity
  8
P-0000
  6
Continuous
 62
     2
100
AcDbTrace
 10
912.2337581213114
 20
1598.665493176263
 30
0.0
 11
912.9004247879782
 21
1598.665493176263
 31
0.0
 12
912.5670914546448
 22
1600.665493176263
 32
0.0
 13
912.5670914546448
 23
1600.665493176263
 33
0.0
  0
SOLID
  5
238E
330
2385
100
AcDbEntity
  8
P-0000
  6
Continuous
 62
     2
100
AcDbTrace
 10
912.2337581213114
 20
1605.665493176262
 30
0.0
 11
912.9004247879782
 21
1605.665493176262
 31
0.0
 12
912.5670914546448
 22
1603.665493176263
 32
0.0
 13
912.5670914546448
 23
1603.665493176263
 33
0.0
  0
MTEXT
  5
238F
330
2385
100
AcDbEntity
  8
P-0000
  6
Continuous
 62
     1
100
AcDbMText
 10
910.5459544284055
 20
1609.287942155854
 30
0.0
 40
2.0
 41
0.0
 71
     5
 72
     1
  1
\A1;3
  7
Stile_Quota
 11
0.0000000000000001
 21
1.0
 31
0.0
 73
     1
 44
1.0
1001
ACAD
1000
MTEXTBEGIN
1070
    73
1070
     1
1070
    44
1040
1.0
1070
    74
1070
     0
1000
MTEXTEND
  0
POINT
  5
2390
330
2385
100
AcDbEntity
  8
DEFPOINTS
  6
Continuous
 62
     0
100
AcDbPoint
 10
917.3229421387711
 20
1600.665493176263
 30
0.0
  0
POINT
  5
2391
330
2385
100
AcDbEntity
  8
DEFPOINTS
  6
Continuous
 62
     0
100
AcDbPoint
 10
920.8229421387713
 20
1603.665493176263
 30
0.0
  0
POINT
  5
2392
330
2385
100
AcDbEntity
  8
DEFPOINTS
  6
Continuous
 62
     0
100
AcDbPoint
 10
912.5670914546448
 20
1603.665493176263
 30
0.0
  0
ENDBLK
  5
2387
330
2385
100
AcDbEntity
  8
0
 62
     3
100
AcDbBlockEnd
  0
BLOCK
  5
2395
330
2394
100
AcDbEntity
  8
0
 62
     3
100
AcDbBlockBegin
  2
*D16
 70
     1
 10
0.0
 20
0.0
 30
0.0
  3
*D16
  1

  0
LINE
  5
2397
330
2394
100
AcDbEntity
  8
P-0000
  6
Continuous
 62
     2
370
    -2
100
AcDbLine
 10
951.5729421393173
 20
1592.758420737116
 30
0.0
 11
951.5729421543854
 21
1565.253448168076
 31
0.0
  0
LINE
  5
2398
330
2394
100
AcDbEntity
  8
P-0000
  6
Continuous
 62
     2
370
    -2
100
AcDbLine
 10
952.5729421387696
 20
1593.758420737116
 30
0.0
 11
980.0779147078092
 21
1593.758420737116
 31
0.0
  0
ARC
  5
2399
330
2394
100
AcDbEntity
  8
P-0000
  6
Continuous
 62
     2
370
    -2
100
AcDbCircle
 10
951.5729421387693
 20
1593.758420737116
 30
0.0
 40
27.00497256903983
100
AcDbArc
 50
274.244320724683
 51
355.7556793067054
  0
SOLID
  5
239A
330
2394
100
AcDbEntity
  8
P-0000
  6
Continuous
 62
     2
100
AcDbTrace
 10
953.5839138520605
 20
1566.494403888163
 30
0.0
 11
953.5592270402217
 21
1567.160613319022
 31
0.0
 12
951.5729421535635
 22
1566.753448168076
 32
0.0
 13
951.5729421535635
 23
1566.753448168076
 33
0.0
  0
SOLID
  5
239B
330
2394
100
AcDbEntity
  8
P-0000
  6
Continuous
 62
     2
100
AcDbTrace
 10
978.1707495579514
 20
1591.772135850235
 30
0.0
 11
978.8369589888244
 21
1591.747449038761
 31
0.0
 12
978.5779147078091
 22
1593.758420737116
 32
0.0
 13
978.5779147078091
 23
1593.758420737116
 33
0.0
  0
MTEXT
  5
239C
330
2394
100
AcDbEntity
  8
P-0000
  6
Continuous
 62
     1
100
AcDbMText
 10
969.2376355241181
 20
1576.093727361445
 30
0.0
 40
2.0
 41
0.0
 71
     5
 72
     1
  1
\A1;90\U+00B0
  7
Stile_Quota
 11
0.7071067809928591
 21
0.707106781380236
 31
0.0
 73
     1
 44
1.0
1001
ACAD
1000
MTEXTBEGIN
1070
    73
1070
     1
1070
    44
1040
1.0
1070
    74
1070
     0
1000
MTEXTEND
  0
POINT
  5
239D
330
2394
100
AcDbEntity
  8
DEFPOINTS
  6
Continuous
 62
     0
100
AcDbPoint
 10
965.0754284318308
 20
1570.371428468757
 30
0.0
  0
POINT
  5
239E
330
2394
100
AcDbEntity
  8
DEFPOINTS
  6
Continuous
 62
     0
100
AcDbPoint
 10
951.5729420949426
 20
1673.758420737115
 30
0.0
  0
POINT
  5
239F
330
2394
100
AcDbEntity
  8
DEFPOINTS
  6
Continuous
 62
     0
100
AcDbPoint
 10
871.5729421387704
 20
1593.758420737116
 30
0.0
  0
POINT
  5
23A0
330
2394
100
AcDbEntity
  8
DEFPOINTS
  6
Continuous
 62
     0
100
AcDbPoint
 10
950.5729421382218
 20
1593.758420737116
 30
0.0
  0
POINT
  5
23A1
330
2394
100
AcDbEntity
  8
DEFPOINTS
  6
Continuous
 62
     0
100
AcDbPoint
 10
951.5729421382216
 20
1594.758420737664
 30
0.0
  0
ENDBLK
  5
2396
330
2394
100
AcDbEntity
  8
0
 62
     3
100
AcDbBlockEnd
  0
BLOCK
  5
23E6
330
23E5
100
AcDbEntity
  8
0
 62
     3
100
AcDbBlockBegin
  2
*D18
 70
     1
 10
0.0
 20
0.0
 30
0.0
  3
*D18
  1

  0
LINE
  5
23E8
330
23E5
100
AcDbEntity
  8
P-0000
  6
Continuous
 62
     2
370
    -2
100
AcDbLine
 10
1187.394178910843
 20
1569.403299938093
 30
0.0
 11
1187.394178910843
 21
1560.951019088966
 31
0.0
  0
LINE
  5
23E9
330
23E5
100
AcDbEntity
  8
P-0000
  6
Continuous
 62
     2
370
    -2
100
AcDbLine
 10
1185.394178910843
 20
1569.403299938094
 30
0.0
 11
1185.394178910843
 21
1560.951019088966
 31
0.0
  0
LINE
  5
23EA
330
23E5
100
AcDbEntity
  8
P-0000
  6
Continuous
 62
     2
370
    -2
100
AcDbLine
 10
1189.394178910843
 20
1562.451019088966
 30
0.0
 11
1191.394178910843
 21
1562.451019088966
 31
0.0
  0
LINE
  5
23EB
330
23E5
100
AcDbEntity
  8
P-0000
  6
Continuous
 62
     2
370
    -2
100
AcDbLine
 10
1183.394178910843
 20
1562.451019088966
 30
0.0
 11
1178.054528765071
 21
1562.451019088966
 31
0.0
  0
LINE
  5
23EC
330
23E5
100
AcDbEntity
  8
P-0000
  6
Continuous
 62
     2
370
    -2
100
AcDbLine
 10
1187.394178910843
 20
1562.451019088966
 30
0.0
 11
1185.394178910843
 21
1562.451019088966
 31
0.0
  0
SOLID
  5
23ED
330
23E5
100
AcDbEntity
  8
P-0000
  6
Continuous
 62
     2
100
AcDbTrace
 10
1189.394178910843
 20
1562.7843524223
 30
0.0
 11
1189.394178910843
 21
1562.117685755633
 31
0.0
 12
1187.394178910843
 22
1562.451019088966
 32
0.0
 13
1187.394178910843
 23
1562.451019088966
 33
0.0
  0
SOLID
  5
23EE
330
23E5
100
AcDbEntity
  8
P-0000
  6
Continuous
 62
     2
100
AcDbTrace
 10
1183.394178910843
 20
1562.7843524223
 30
0.0
 11
1183.394178910843
 21
1562.117685755633
 31
0.0
 12
1185.394178910843
 22
1562.451019088966
 32
0.0
 13
1185.394178910843
 23
1562.451019088966
 33
0.0
  0
MTEXT
  5
23EF
330
23E5
100
AcDbEntity
  8
P-0000
  6
Continuous
 62
     1
100
AcDbMText
 10
1179.724353837957
 20
1564.451019088966
 30
0.0
 40
2.0
 41
0.0
 71
     5
 72
     1
  1
\A1;2
  7
Stile_Quota
 73
     1
 44
1.0
1001
ACAD
1000
MTEXTBEGIN
1070
    73
1070
     1
1070
    44
1040
1.0
1070
    74
1070
     0
1000
MTEXTEND
  0
POINT
  5
23F0
330
23E5
100
AcDbEntity
  8
DEFPOINTS
  6
Continuous
 62
     0
100
AcDbPoint
 10
1187.394178910843
 20
1570.403299938093
 30
0.0
  0
POINT
  5
23F1
330
23E5
100
AcDbEntity
  8
DEFPOINTS
  6
Continuous
 62
     0
100
AcDbPoint
 10
1185.394178910843
 20
1570.403299938093
 30
0.0
  0
POINT
  5
23F2
330
23E5
100
AcDbEntity
  8
DEFPOINTS
  6
Continuous
 62
     0
100
AcDbPoint
 10
1185.394178910843
 20
1562.451019088966
 30
0.0
  0
ENDBLK
  5
23E7
330
23E5
100
AcDbEntity
  8
0
 62
     3
100
AcDbBlockEnd
  0
BLOCK
  5
23F5
330
23F4
100
AcDbEntity
  8
0
 62
     3
100
AcDbBlockBegin
  2
*D19
 70
     1
 10
0.0
 20
0.0
 30
0.0
  3
*D19
  1

  0
LINE
  5
23F7
330
23F4
100
AcDbEntity
  8
P-0000
  6
Continuous
 62
     2
370
    -2
100
AcDbLine
 10
1187.394178910843
 20
1569.403299938093
 30
0.0
 11
1187.394178910843
 21
1560.951019088966
 31
0.0
  0
LINE
  5
23F8
330
23F4
100
AcDbEntity
  8
P-0000
  6
Continuous
 62
     2
370
    -2
100
AcDbLine
 10
1194.394178910844
 20
1569.403299938093
 30
0.0
 11
1194.394178910844
 21
1560.951019088966
 31
0.0
  0
LINE
  5
23F9
330
23F4
100
AcDbEntity
  8
P-0000
  6
Continuous
 62
     2
370
    -2
100
AcDbLine
 10
1189.394178910843
 20
1562.451019088966
 30
0.0
 11
1192.394178910844
 21
1562.451019088966
 31
0.0
  0
SOLID
  5
23FA
330
23F4
100
AcDbEntity
  8
P-0000
  6
Continuous
 62
     2
100
AcDbTrace
 10
1189.394178910843
 20
1562.7843524223
 30
0.0
 11
1189.394178910843
 21
1562.117685755633
 31
0.0
 12
1187.394178910843
 22
1562.451019088966
 32
0.0
 13
1187.394178910843
 23
1562.451019088966
 33
0.0
  0
SOLID
  5
23FB
330
23F4
100
AcDbEntity
  8
P-0000
  6
Continuous
 62
     2
100
AcDbTrace
 10
1192.394178910844
 20
1562.7843524223
 30
0.0
 11
1192.394178910844
 21
1562.117685755633
 31
0.0
 12
1194.394178910844
 22
1562.451019088966
 32
0.0
 13
1194.394178910844
 23
1562.451019088966
 33
0.0
  0
MTEXT
  5
23FC
330
23F4
100
AcDbEntity
  8
P-0000
  6
Continuous
 62
     1
100
AcDbMText
 10
1190.894178910844
 20
1564.48090247089
 30
0.0
 40
2.0
 41
0.0
 71
     5
 72
     1
  1
\A1;7
  7
Stile_Quota
 73
     1
 44
1.0
1001
ACAD
1000
MTEXTBEGIN
1070
    73
1070
     1
1070
    44
1040
1.0
1070
    74
1070
     0
1000
MTEXTEND
  0
POINT
  5
23FD
330
23F4
100
AcDbEntity
  8
DEFPOINTS
  6
Continuous
 62
     0
100
AcDbPoint
 10
1187.394178910843
 20
1570.403299938093
 30
0.0
  0
POINT
  5
23FE
330
23F4
100
AcDbEntity
  8
DEFPOINTS
  6
Continuous
 62
     0
100
AcDbPoint
 10
1194.394178910844
 20
1570.403299938093
 30
0.0
  0
POINT
  5
23FF
330
23F4
100
AcDbEntity
  8
DEFPOINTS
  6
Continuous
 62
     0
100
AcDbPoint
 10
1194.394178910844
 20
1562.451019088966
 30
0.0
  0
ENDBLK
  5
23F6
330
23F4
100
AcDbEntity
  8
0
 62
     3
100
AcDbBlockEnd
  0
BLOCK
  5
2402
330
2401
100
AcDbEntity
  8
0
 62
     3
100
AcDbBlockBegin
  2
*D20
 70
     1
 10
0.0
 20
0.0
 30
0.0
  3
*D20
  1

  0
LINE
  5
240F
330
2401
100
AcDbEntity
  8
P-0000
  6
Continuous
 62
     2
370
    -2
100
AcDbLine
 10
1105.649561965632
 20
1577.310372377218
 30
0.0
 11
1088.499959818246
 21
1577.310372377218
 31
0.0
  0
LINE
  5
2410
330
2401
100
AcDbEntity
  8
P-0000
  6
Continuous
 62
     2
370
    -2
100
AcDbLine
 10
1102.449561965633
 20
1570.403299938095
 30
0.0
 11
1088.499959818246
 21
1570.403299938095
 31
0.0
  0
LINE
  5
2411
330
2401
100
AcDbEntity
  8
P-0000
  6
Continuous
 62
     2
370
    -2
100
AcDbLine
 10
1089.999959818245
 20
1575.310372377218
 30
0.0
 11
1089.999959818245
 21
1572.403299938095
 31
0.0
  0
SOLID
  5
2412
330
2401
100
AcDbEntity
  8
P-0000
  6
Continuous
 62
     2
100
AcDbTrace
 10
1089.666626484912
 20
1575.310372377218
 30
0.0
 11
1090.333293151579
 21
1575.310372377218
 31
0.0
 12
1089.999959818245
 22
1577.310372377218
 32
0.0
 13
1089.999959818245
 23
1577.310372377218
 33
0.0
  0
SOLID
  5
2413
330
2401
100
AcDbEntity
  8
P-0000
  6
Continuous
 62
     2
100
AcDbTrace
 10
1089.666626484912
 20
1572.403299938095
 30
0.0
 11
1090.333293151579
 21
1572.403299938095
 31
0.0
 12
1089.999959818245
 22
1570.403299938095
 32
0.0
 13
1089.999959818245
 23
1570.403299938095
 33
0.0
  0
MTEXT
  5
2414
330
2401
100
AcDbEntity
  8
P-0000
  6
Continuous
 62
     1
100
AcDbMText
 10
1087.976636203085
 20
1573.856836157657
 30
0.0
 40
2.0
 41
0.0
 71
     5
 72
     1
  1
\A1;6.91
  7
Stile_Quota
 11
0.0000000000000001
 21
1.0
 31
0.0
 73
     1
 44
1.0
1001
ACAD
1000
MTEXTBEGIN
1070
    73
1070
     1
1070
    44
1040
1.0
1070
    74
1070
     0
1000
MTEXTEND
  0
POINT
  5
2415
330
2401
100
AcDbEntity
  8
DEFPOINTS
  6
Continuous
 62
     0
100
AcDbPoint
 10
1106.649561965632
 20
1577.310372377218
 30
0.0
  0
POINT
  5
2416
330
2401
100
AcDbEntity
  8
DEFPOINTS
  6
Continuous
 62
     0
100
AcDbPoint
 10
1103.449561965633
 20
1570.403299938095
 30
0.0
  0
POINT
  5
2417
330
2401
100
AcDbEntity
  8
DEFPOINTS
  6
Continuous
 62
     0
100
AcDbPoint
 10
1089.999959818245
 20
1570.403299938095
 30
0.0
  0
ENDBLK
  5
2403
330
2401
100
AcDbEntity
  8
0
 62
     3
100
AcDbBlockEnd
  0
BLOCK
  5
241A
330
2419
100
AcDbEntity
  8
0
 62
     3
100
AcDbBlockBegin
  2
*D21
 70
     1
 10
0.0
 20
0.0
 30
0.0
  3
*D21
  1

  0
LINE
  5
241C
330
2419
100
AcDbEntity
  8
P-0000
  6
Continuous
 62
     2
370
    -2
100
AcDbLine
 10
1107.199561965247
 20
1573.403299948296
 30
0.0
 11
1094.847517685172
 21
1573.403299948296
 31
0.0
  0
LINE
  5
241D
330
2419
100
AcDbEntity
  8
P-0000
  6
Continuous
 62
     2
370
    -2
100
AcDbLine
 10
1102.449561965634
 20
1570.403299938095
 30
0.0
 11
1094.847517685172
 21
1570.403299938095
 31
0.0
  0
LINE
  5
241E
330
2419
100
AcDbEntity
  8
P-0000
  6
Continuous
 62
     2
370
    -2
100
AcDbLine
 10
1096.347517685172
 20
1575.403299948296
 30
0.0
 11
1096.347517685172
 21
1577.403299948296
 31
0.0
  0
LINE
  5
241F
330
2419
100
AcDbEntity
  8
P-0000
  6
Continuous
 62
     2
370
    -2
100
AcDbLine
 10
1096.347517685172
 20
1568.403299938094
 30
0.0
 11
1096.347517685172
 21
1563.158401978911
 31
0.0
  0
LINE
  5
2420
330
2419
100
AcDbEntity
  8
P-0000
  6
Continuous
 62
     2
370
    -2
100
AcDbLine
 10
1096.347517685172
 20
1573.403299948296
 30
0.0
 11
1096.347517685172
 21
1570.403299938095
 31
0.0
  0
SOLID
  5
2421
330
2419
100
AcDbEntity
  8
P-0000
  6
Continuous
 62
     2
100
AcDbTrace
 10
1096.014184351839
 20
1575.403299948296
 30
0.0
 11
1096.680851018505
 21
1575.403299948296
 31
0.0
 12
1096.347517685172
 22
1573.403299948296
 32
0.0
 13
1096.347517685172
 23
1573.403299948296
 33
0.0
  0
SOLID
  5
2422
330
2419
100
AcDbEntity
  8
P-0000
  6
Continuous
 62
     2
100
AcDbTrace
 10
1096.014184351839
 20
1568.403299938094
 30
0.0
 11
1096.680851018505
 21
1568.403299938094
 31
0.0
 12
1096.347517685172
 22
1570.403299938095
 32
0.0
 13
1096.347517685172
 23
1570.403299938095
 33
0.0
  0
MTEXT
  5
2423
330
2419
100
AcDbEntity
  8
P-0000
  6
Continuous
 62
     1
100
AcDbMText
 10
1094.326380658933
 20
1564.780850958503
 30
0.0
 40
2.0
 41
0.0
 71
     5
 72
     1
  1
\A1;3
  7
Stile_Quota
 11
0.0000000000000001
 21
1.0
 31
0.0
 73
     1
 44
1.0
1001
ACAD
1000
MTEXTBEGIN
1070
    73
1070
     1
1070
    44
1040
1.0
1070
    74
1070
     0
1000
MTEXTEND
  0
POINT
  5
2424
330
2419
100
AcDbEntity
  8
DEFPOINTS
  6
Continuous
 62
     0
100
AcDbPoint
 10
1108.199561965247
 20
1573.403299948296
 30
0.0
  0
POINT
  5
2425
330
2419
100
AcDbEntity
  8
DEFPOINTS
  6
Continuous
 62
     0
100
AcDbPoint
 10
1103.449561965633
 20
1570.403299938095
 30
0.0
  0
POINT
  5
2426
330
2419
100
AcDbEntity
  8
DEFPOINTS
  6
Continuous
 62
     0
100
AcDbPoint
 10
1096.347517685172
 20
1570.403299938095
 30
0.0
  0
ENDBLK
  5
241B
330
2419
100
AcDbEntity
  8
0
 62
     3
100
AcDbBlockEnd
  0
BLOCK
  5
2429
330
2428
100
AcDbEntity
  8
0
 62
     3
100
AcDbBlockBegin
  2
*D22
 70
     1
 10
0.0
 20
0.0
 30
0.0
  3
*D22
  1

  0
LINE
  5
242B
330
2428
100
AcDbEntity
  8
P-0000
  6
Continuous
 62
     2
370
    -2
100
AcDbLine
 10
877.7228947192462
 20
1531.11135157678
 30
0.0
 11
852.7526058556006
 21
1531.11135157678
 31
0.0
  0
LINE
  5
242C
330
2428
100
AcDbEntity
  8
P-0000
  6
Continuous
 62
     2
370
    -2
100
AcDbLine
 10
877.7228947192462
 20
1515.11135157678
 30
0.0
 11
852.7526058556006
 21
1515.11135157678
 31
0.0
  0
LINE
  5
242D
330
2428
100
AcDbEntity
  8
P-0000
  6
Continuous
 62
     2
370
    -2
100
AcDbLine
 10
854.2526058556006
 20
1529.11135157678
 30
0.0
 11
854.2526058556006
 21
1517.11135157678
 31
0.0
  0
SOLID
  5
242E
330
2428
100
AcDbEntity
  8
P-0000
  6
Continuous
 62
     2
100
AcDbTrace
 10
853.9192725222672
 20
1529.11135157678
 30
0.0
 11
854.585939188934
 21
1529.11135157678
 31
0.0
 12
854.2526058556006
 22
1531.11135157678
 32
0.0
 13
854.2526058556006
 23
1531.11135157678
 33
0.0
  0
SOLID
  5
242F
330
2428
100
AcDbEntity
  8
P-0000
  6
Continuous
 62
     2
100
AcDbTrace
 10
853.9192725222672
 20
1517.11135157678
 30
0.0
 11
854.585939188934
 21
1517.11135157678
 31
0.0
 12
854.2526058556006
 22
1515.11135157678
 32
0.0
 13
854.2526058556006
 23
1515.11135157678
 33
0.0
  0
MTEXT
  5
2430
330
2428
100
AcDbEntity
  8
P-0000
  6
Continuous
 62
     1
100
AcDbMText
 10
852.2300111034139
 20
1523.11135157678
 30
0.0
 40
2.0
 41
0.0
 71
     5
 72
     1
  1
\A1;16
  7
Stile_Quota
 11
0.0000000000000001
 21
1.0
 31
0.0
 73
     1
 44
1.0
1001
ACAD
1000
MTEXTBEGIN
1070
    73
1070
     1
1070
    44
1040
1.0
1070
    74
1070
     0
1000
MTEXTEND
  0
POINT
  5
2431
330
2428
100
AcDbEntity
  8
DEFPOINTS
  6
Continuous
 62
     0
100
AcDbPoint
 10
878.7228947192462
 20
1531.11135157678
 30
0.0
  0
POINT
  5
2432
330
2428
100
AcDbEntity
  8
DEFPOINTS
  6
Continuous
 62
     0
100
AcDbPoint
 10
878.7228947192462
 20
1515.11135157678
 30
0.0
  0
POINT
  5
2433
330
2428
100
AcDbEntity
  8
DEFPOINTS
  6
Continuous
 62
     0
100
AcDbPoint
 10
854.2526058556006
 20
1515.11135157678
 30
0.0
  0
ENDBLK
  5
242A
330
2428
100
AcDbEntity
  8
0
 62
     3
100
AcDbBlockEnd
  0
BLOCK
  5
2436
330
2435
100
AcDbEntity
  8
0
 62
     3
100
AcDbBlockBegin
  2
*D23
 70
     1
 10
0.0
 20
0.0
 30
0.0
  3
*D23
  1

  0
LINE
  5
2438
330
2435
100
AcDbEntity
  8
P-0000
  6
Continuous
 62
     2
370
    -2
100
AcDbLine
 10
877.7228947192462
 20
1531.11135157678
 30
0.0
 11
852.7526058556006
 21
1531.11135157678
 31
0.0
  0
LINE
  5
2439
330
2435
100
AcDbEntity
  8
P-0000
  6
Continuous
 62
     2
370
    -2
100
AcDbLine
 10
871.5729421387704
 20
1534.11135157678
 30
0.0
 11
852.7526058556006
 21
1534.11135157678
 31
0.0
  0
LINE
  5
243A
330
2435
100
AcDbEntity
  8
P-0000
  6
Continuous
 62
     2
370
    -2
100
AcDbLine
 10
854.2526058556004
 20
1529.11135157678
 30
0.0
 11
854.2526058556004
 21
1527.11135157678
 31
0.0
  0
LINE
  5
243B
330
2435
100
AcDbEntity
  8
P-0000
  6
Continuous
 62
     2
370
    -2
100
AcDbLine
 10
854.2526058556004
 20
1536.11135157678
 30
0.0
 11
854.2526058556004
 21
1541.356249535964
 31
0.0
  0
LINE
  5
243C
330
2435
100
AcDbEntity
  8
P-0000
  6
Continuous
 62
     2
370
    -2
100
AcDbLine
 10
854.2526058556004
 20
1531.11135157678
 30
0.0
 11
854.2526058556004
 21
1534.11135157678
 31
0.0
  0
SOLID
  5
243D
330
2435
100
AcDbEntity
  8
P-0000
  6
Continuous
 62
     2
100
AcDbTrace
 10
853.9192725222672
 20
1529.11135157678
 30
0.0
 11
854.5859391889338
 21
1529.11135157678
 31
0.0
 12
854.2526058556004
 22
1531.11135157678
 32
0.0
 13
854.2526058556004
 23
1531.11135157678
 33
0.0
  0
SOLID
  5
243E
330
2435
100
AcDbEntity
  8
P-0000
  6
Continuous
 62
     2
100
AcDbTrace
 10
853.9192725222672
 20
1536.11135157678
 30
0.0
 11
854.5859391889338
 21
1536.11135157678
 31
0.0
 12
854.2526058556004
 22
1534.11135157678
 32
0.0
 13
854.2526058556004
 23
1534.11135157678
 33
0.0
  0
MTEXT
  5
243F
330
2435
100
AcDbEntity
  8
P-0000
  6
Continuous
 62
     1
100
AcDbMText
 10
852.2314688293613
 20
1539.733800556372
 30
0.0
 40
2.0
 41
0.0
 71
     5
 72
     1
  1
\A1;3
  7
Stile_Quota
 11
0.0000000000000001
 21
1.0
 31
0.0
 73
     1
 44
1.0
1001
ACAD
1000
MTEXTBEGIN
1070
    73
1070
     1
1070
    44
1040
1.0
1070
    74
1070
     0
1000
MTEXTEND
  0
POINT
  5
2440
330
2435
100
AcDbEntity
  8
DEFPOINTS
  6
Continuous
 62
     0
100
AcDbPoint
 10
878.7228947192462
 20
1531.11135157678
 30
0.0
  0
POINT
  5
2441
330
2435
100
AcDbEntity
  8
DEFPOINTS
  6
Continuous
 62
     0
100
AcDbPoint
 10
872.5729421387704
 20
1534.11135157678
 30
0.0
  0
POINT
  5
2442
330
2435
100
AcDbEntity
  8
DEFPOINTS
  6
Continuous
 62
     0
100
AcDbPoint
 10
854.2526058556004
 20
1534.11135157678
 30
0.0
  0
ENDBLK
  5
2437
330
2435
100
AcDbEntity
  8
0
 62
     3
100
AcDbBlockEnd
  0
BLOCK
  5
2445
330
2444
100
AcDbEntity
  8
0
 62
     3
100
AcDbBlockBegin
  2
*D24
 70
     1
 10
0.0
 20
0.0
 30
0.0
  3
*D24
  1

  0
LINE
  5
2447
330
2444
100
AcDbEntity
  8
P-0000
  6
Continuous
 62
     2
370
    -2
100
AcDbLine
 10
877.7228947192462
 20
1515.11135157678
 30
0.0
 11
852.7526058556006
 21
1515.11135157678
 31
0.0
  0
LINE
  5
2448
330
2444
100
AcDbEntity
  8
P-0000
  6
Continuous
 62
     2
370
    -2
100
AcDbLine
 10
871.5729421387704
 20
1512.11135157678
 30
0.0
 11
852.7526058556006
 21
1512.11135157678
 31
0.0
  0
LINE
  5
2449
330
2444
100
AcDbEntity
  8
P-0000
  6
Continuous
 62
     2
370
    -2
100
AcDbLine
 10
854.2526058556004
 20
1517.11135157678
 30
0.0
 11
854.2526058556004
 21
1519.11135157678
 31
0.0
  0
LINE
  5
244A
330
2444
100
AcDbEntity
  8
P-0000
  6
Continuous
 62
     2
370
    -2
100
AcDbLine
 10
854.2526058556004
 20
1510.11135157678
 30
0.0
 11
854.2526058556004
 21
1504.866453617596
 31
0.0
  0
LINE
  5
244B
330
2444
100
AcDbEntity
  8
P-0000
  6
Continuous
 62
     2
370
    -2
100
AcDbLine
 10
854.2526058556004
 20
1515.11135157678
 30
0.0
 11
854.2526058556004
 21
1512.11135157678
 31
0.0
  0
SOLID
  5
244C
330
2444
100
AcDbEntity
  8
P-0000
  6
Continuous
 62
     2
100
AcDbTrace
 10
853.9192725222672
 20
1517.11135157678
 30
0.0
 11
854.5859391889338
 21
1517.11135157678
 31
0.0
 12
854.2526058556004
 22
1515.11135157678
 32
0.0
 13
854.2526058556004
 23
1515.11135157678
 33
0.0
  0
SOLID
  5
244D
330
2444
100
AcDbEntity
  8
P-0000
  6
Continuous
 62
     2
100
AcDbTrace
 10
853.9192725222672
 20
1510.11135157678
 30
0.0
 11
854.5859391889338
 21
1510.11135157678
 31
0.0
 12
854.2526058556004
 22
1512.11135157678
 32
0.0
 13
854.2526058556004
 23
1512.11135157678
 33
0.0
  0
MTEXT
  5
244E
330
2444
100
AcDbEntity
  8
P-0000
  6
Continuous
 62
     1
100
AcDbMText
 10
852.2314688293613
 20
1506.488902597188
 30
0.0
 40
2.0
 41
0.0
 71
     5
 72
     1
  1
\A1;3
  7
Stile_Quota
 11
0.0000000000000001
 21
1.0
 31
0.0
 73
     1
 44
1.0
1001
ACAD
1000
MTEXTBEGIN
1070
    73
1070
     1
1070
    44
1040
1.0
1070
    74
1070
     0
1000
MTEXTEND
  0
POINT
  5
244F
330
2444
100
AcDbEntity
  8
DEFPOINTS
  6
Continuous
 62
     0
100
AcDbPoint
 10
878.7228947192462
 20
1515.11135157678
 30
0.0
  0
POINT
  5
2450
330
2444
100
AcDbEntity
  8
DEFPOINTS
  6
Continuous
 62
     0
100
AcDbPoint
 10
872.5729421387704
 20
1512.11135157678
 30
0.0
  0
POINT
  5
2451
330
2444
100
AcDbEntity
  8
DEFPOINTS
  6
Continuous
 62
     0
100
AcDbPoint
 10
854.2526058556004
 20
1512.11135157678
 30
0.0
  0
ENDBLK
  5
2446
330
2444
100
AcDbEntity
  8
0
 62
     3
100
AcDbBlockEnd
  0
BLOCK
  5
2454
330
2453
100
AcDbEntity
  8
0
 62
     3
100
AcDbBlockBegin
  2
*D25
 70
     1
 10
0.0
 20
0.0
 30
0.0
  3
*D25
  1

  0
LINE
  5
2456
330
2453
100
AcDbEntity
  8
P-0000
  6
Continuous
 62
     2
370
    -2
100
AcDbLine
 10
957.4808542541024
 20
1523.111351576779
 30
0.0
 11
978.3007929748817
 21
1523.111351576779
 31
0.0
  0
LINE
  5
2457
330
2453
100
AcDbEntity
  8
P-0000
  6
Continuous
 62
     2
370
    -2
100
AcDbLine
 10
952.5729421387501
 20
1534.11135157678
 30
0.0
 11
978.3007929748817
 21
1534.11135157678
 31
0.0
  0
LINE
  5
2458
330
2453
100
AcDbEntity
  8
P-0000
  6
Continuous
 62
     2
370
    -2
100
AcDbLine
 10
976.8007929748817
 20
1525.111351576779
 30
0.0
 11
976.8007929748817
 21
1532.111351576779
 31
0.0
  0
SOLID
  5
2459
330
2453
100
AcDbEntity
  8
P-0000
  6
Continuous
 62
     2
100
AcDbTrace
 10
976.4674596415483
 20
1525.111351576779
 30
0.0
 11
977.1341263082151
 21
1525.111351576779
 31
0.0
 12
976.8007929748817
 22
1523.111351576779
 32
0.0
 13
976.8007929748817
 23
1523.111351576779
 33
0.0
  0
SOLID
  5
245A
330
2453
100
AcDbEntity
  8
P-0000
  6
Continuous
 62
     2
100
AcDbTrace
 10
976.4674596415483
 20
1532.111351576779
 30
0.0
 11
977.1341263082151
 21
1532.111351576779
 31
0.0
 12
976.8007929748817
 22
1534.11135157678
 32
0.0
 13
976.8007929748817
 23
1534.11135157678
 33
0.0
  0
MTEXT
  5
245B
330
2453
100
AcDbEntity
  8
P-0000
  6
Continuous
 62
     1
100
AcDbMText
 10
974.8007929748816
 20
1528.61135157678
 30
0.0
 40
2.0
 41
0.0
 71
     5
 72
     1
  1
\A1;11
  7
Stile_Quota
 11
0.0000000000000001
 21
1.0
 31
0.0
 73
     1
 44
1.0
1001
ACAD
1000
MTEXTBEGIN
1070
    73
1070
     1
1070
    44
1040
1.0
1070
    74
1070
     0
1000
MTEXTEND
  0
POINT
  5
245C
330
2453
100
AcDbEntity
  8
DEFPOINTS
  6
Continuous
 62
     0
100
AcDbPoint
 10
956.4808542541024
 20
1523.111351576779
 30
0.0
  0
POINT
  5
245D
330
2453
100
AcDbEntity
  8
DEFPOINTS
  6
Continuous
 62
     0
100
AcDbPoint
 10
951.5729421387501
 20
1534.11135157678
 30
0.0
  0
POINT
  5
245E
330
2453
100
AcDbEntity
  8
DEFPOINTS
  6
Continuous
 62
     0
100
AcDbPoint
 10
976.8007929748817
 20
1534.11135157678
 30
0.0
  0
ENDBLK
  5
2455
330
2453
100
AcDbEntity
  8
0
 62
     3
100
AcDbBlockEnd
  0
BLOCK
  5
2461
330
2460
100
AcDbEntity
  8
0
 62
     3
100
AcDbBlockBegin
  2
*D26
 70
     1
 10
0.0
 20
0.0
 30
0.0
  3
*D26
  1

  0
LINE
  5
2463
330
2460
100
AcDbEntity
  8
P-0000
  6
Continuous
 62
     2
370
    -2
100
AcDbLine
 10
957.4808542541024
 20
1523.111351576779
 30
0.0
 11
978.3007929748816
 21
1523.111351576779
 31
0.0
  0
LINE
  5
2464
330
2460
100
AcDbEntity
  8
P-0000
  6
Continuous
 62
     2
370
    -2
100
AcDbLine
 10
952.5729421387501
 20
1512.11135157678
 30
0.0
 11
978.3007929748816
 21
1512.11135157678
 31
0.0
  0
LINE
  5
2465
330
2460
100
AcDbEntity
  8
P-0000
  6
Continuous
 62
     2
370
    -2
100
AcDbLine
 10
976.8007929748815
 20
1521.111351576779
 30
0.0
 11
976.8007929748815
 21
1514.11135157678
 31
0.0
  0
SOLID
  5
2466
330
2460
100
AcDbEntity
  8
P-0000
  6
Continuous
 62
     2
100
AcDbTrace
 10
976.4674596415481
 20
1521.111351576779
 30
0.0
 11
977.1341263082149
 21
1521.111351576779
 31
0.0
 12
976.8007929748815
 22
1523.111351576779
 32
0.0
 13
976.8007929748815
 23
1523.111351576779
 33
0.0
  0
SOLID
  5
2467
330
2460
100
AcDbEntity
  8
P-0000
  6
Continuous
 62
     2
100
AcDbTrace
 10
976.4674596415481
 20
1514.11135157678
 30
0.0
 11
977.1341263082149
 21
1514.11135157678
 31
0.0
 12
976.8007929748815
 22
1512.11135157678
 32
0.0
 13
976.8007929748815
 23
1512.11135157678
 33
0.0
  0
MTEXT
  5
2468
330
2460
100
AcDbEntity
  8
P-0000
  6
Continuous
 62
     1
100
AcDbMText
 10
974.8007929748814
 20
1517.61135157678
 30
0.0
 40
2.0
 41
0.0
 71
     5
 72
     1
  1
\A1;11
  7
Stile_Quota
 11
0.0000000000000001
 21
1.0
 31
0.0
 73
     1
 44
1.0
1001
ACAD
1000
MTEXTBEGIN
1070
    73
1070
     1
1070
    44
1040
1.0
1070
    74
1070
     0
1000
MTEXTEND
  0
POINT
  5
2469
330
2460
100
AcDbEntity
  8
DEFPOINTS
  6
Continuous
 62
     0
100
AcDbPoint
 10
956.4808542541024
 20
1523.111351576779
 30
0.0
  0
POINT
  5
246A
330
2460
100
AcDbEntity
  8
DEFPOINTS
  6
Continuous
 62
     0
100
AcDbPoint
 10
951.5729421387501
 20
1512.11135157678
 30
0.0
  0
POINT
  5
246B
330
2460
100
AcDbEntity
  8
DEFPOINTS
  6
Continuous
 62
     0
100
AcDbPoint
 10
976.8007929748815
 20
1512.11135157678
 30
0.0
  0
ENDBLK
  5
2462
330
2460
100
AcDbEntity
  8
0
 62
     3
100
AcDbBlockEnd
  0
ENDSEC
  0
SECTION
  2
ENTITIES
  0
LINE
  5
1B12
330
18
100
AcDbEntity
  8
P-0000
  6
Continuous
 62
     7
100
AcDbLine
 10
871.5729421387704
 20
1533.11135157678
 30
0.0
 11
871.5729421387704
 21
1513.11135157678
 31
0.0
  0
LINE
  5
1B13
330
18
100
AcDbEntity
  8
P-0000
  6
Continuous
 62
     7
100
AcDbLine
 10
951.5729421387501
 20
1534.11135157678
 30
0.0
 11
872.5729421387704
 21
1534.11135157678
 31
0.0
  0
LINE
  5
1B14
330
18
100
AcDbEntity
  8
P-0000
  6
Continuous
 62
     7
100
AcDbLine
 10
951.5729421387501
 20
1512.11135157678
 30
0.0
 11
872.5729421387704
 21
1512.11135157678
 31
0.0
  0
LINE
  5
1B15
330
18
100
AcDbEntity
  8
P-0000
  6
ASSI
 62
     2
100
AcDbLine
 10
926.5729421387643
 20
1531.11135157678
 30
0.0
 11
926.5729421387643
 21
1515.111351576776
 31
0.0
  0
LINE
  5
1B16
330
18
100
AcDbEntity
  8
P-0000
  6
ASSI
 62
     2
100
AcDbLine
 10
886.5729421387637
 20
1531.11135157678
 30
0.0
 11
886.5729421387637
 21
1515.111351576778
 31
0.0
  0
CIRCLE
  5
1B18
330
18
100
AcDbEntity
  8
P-0000
  6
Continuous
 62
     7
100
AcDbCircle
 10
926.5729421387643
 20
1523.111351576778
 30
0.0
 40
3.0
  0
CIRCLE
  5
1B19
330
18
100
AcDbEntity
  8
P-0000
  6
Continuous
 62
     7
100
AcDbCircle
 10
886.5729421387637
 20
1523.111351576779
 30
0.0
 40
3.0
  0
LINE
  5
1B1A
330
18
100
AcDbEntity
  8
P-0000
  6
Continuous
 62
     7
100
AcDbLine
 10
871.5729421387704
 20
1593.758420737116
 30
0.0
 11
950.5729421382216
 21
1593.758420737116
 31
0.0
  0
LINE
  5
1B1B
330
18
100
AcDbEntity
  8
P-0000
  6
TRATTEGGIO
 62
     3
100
AcDbLine
 10
929.5729421387701
 20
1593.758420737118
 30
0.0
 11
929.572942138771
 21
1598.665493169297
 31
0.0
  0
LINE
  5
1B1C
330
18
100
AcDbEntity
  8
P-0000
  6
TRATTEGGIO
 62
     3
100
AcDbLine
 10
923.5729421387699
 20
1593.758420737119
 30
0.0
 11
923.5729421387713
 21
1598.665493171618
 31
0.0
  0
LINE
  5
1B1D
330
18
100
AcDbEntity
  8
P-0000
  6
TRATTEGGIO
 62
     3
100
AcDbLine
 10
931.8229421387709
 20
1598.665493162623
 30
0.0
 11
921.3229421387717
 21
1598.665493166685
 31
0.0
  0
LINE
  5
1B1F
330
18
100
AcDbEntity
  8
P-0000
  6
TRATTEGGIO
 62
     3
100
AcDbLine
 10
931.8229421387709
 20
1598.665493162623
 30
0.0
 11
931.8229421387705
 21
1603.165493176262
 31
0.0
  0
LINE
  5
1B20
330
18
100
AcDbEntity
  8
P-0000
  6
TRATTEGGIO
 62
     3
100
AcDbLine
 10
921.3229421387717
 20
1598.665493166685
 30
0.0
 11
921.322942138771
 21
1603.165493176262
 31
0.0
  0
LINE
  5
1B22
330
18
100
AcDbEntity
  8
P-0000
  6
TRATTEGGIO
 62
     3
100
AcDbLine
 10
889.5729421387697
 20
1593.75842073712
 30
0.0
 11
889.5729421387708
 21
1598.665493169298
 31
0.0
  0
LINE
  5
1B23
330
18
100
AcDbEntity
  8
P-0000
  6
TRATTEGGIO
 62
     3
100
AcDbLine
 10
883.57294213877
 20
1593.75842073712
 30
0.0
 11
883.5729421387712
 21
1598.66549317162
 31
0.0
  0
LINE
  5
1B24
330
18
100
AcDbEntity
  8
P-0000
  6
TRATTEGGIO
 62
     3
100
AcDbLine
 10
891.8229421387708
 20
1598.665493168428
 30
0.0
 11
891.8229421387708
 21
1603.165493176262
 31
0.0
  0
LINE
  5
1B25
330
18
100
AcDbEntity
  8
P-0000
  6
TRATTEGGIO
 62
     3
100
AcDbLine
 10
881.3229421387715
 20
1598.665493172491
 30
0.0
 11
881.3229421387712
 21
1603.165493176262
 31
0.0
  0
LINE
  5
1B26
330
18
100
AcDbEntity
  8
P-0000
  6
TRATTEGGIO
 62
     3
100
AcDbLine
 10
891.8229421387701
 20
1598.665493174231
 30
0.0
 11
881.3229421387717
 21
1598.665493178294
 31
0.0
  0
LINE
  5
1B27
330
18
100
AcDbEntity
  8
P-0000
  6
Continuous
 62
     7
100
AcDbLine
 10
871.5729421558835
 20
1595.710782732765
 30
0.0
 11
871.5729421387704
 21
1593.758420737118
 31
0.0
  0
ARC
  5
1B28
330
18
100
AcDbEntity
  8
P-0000
  6
Continuous
 62
     7
100
AcDbCircle
 10
879.5729421558833
 20
1595.710782662643
 30
0.0
 40
8.0
100
AcDbArc
 50
96.09953085558647
 51
179.9999994977879
  0
LINE
  5
1B29
330
18
100
AcDbEntity
  8
P-0000
  6
TRATTEGGIO
 62
     3
100
AcDbLine
 10
878.7228947192465
 20
1603.665493176263
 30
0.0
 11
880.8229421387711
 21
1603.665493176263
 31
0.0
  0
LINE
  5
1B2A
330
18
100
AcDbEntity
  8
P-0000
  6
TRATTEGGIO
 62
     3
100
AcDbLine
 10
874.5729421554866
 20
1595.665493220089
 30
0.0
 11
874.5729421387705
 21
1593.758420710822
 31
0.0
  0
ARC
  5
1B2B
330
18
100
AcDbEntity
  8
P-0000
  6
TRATTEGGIO
 62
     3
100
AcDbCircle
 10
879.5729421554865
 20
1595.665493176263
 30
0.0
 40
5.0
100
AcDbArc
 50
99.59406844272903
 51
179.9999994977879
  0
LINE
  5
1B2C
330
18
100
AcDbEntity
  8
P-0000
  6
TRATTEGGIO
 62
     3
100
AcDbLine
 10
895.8227897669866
 20
1600.665493176263
 30
0.0
 11
917.3229421387711
 21
1600.665493176263
 31
0.0
  0
LINE
  5
1B2E
330
18
100
AcDbEntity
  8
P-0000
  6
TRATTEGGIO
 62
     3
100
AcDbLine
 10
879.3229421387708
 20
1597.758420758949
 30
0.0
 11
879.3229421387708
 21
1600.102553010751
 31
0.0
  0
LINE
  5
1B2F
330
18
100
AcDbEntity
  8
P-0000
  6
TRATTEGGIO
 62
     3
100
AcDbLine
 10
880.5729421391569
 20
1596.758420758852
 30
0.0
 11
880.3229421383838
 21
1596.758420758949
 31
0.0
  0
LINE
  5
1B30
330
18
100
AcDbEntity
  8
P-0000
  6
TRATTEGGIO
 62
     3
100
AcDbLine
 10
881.5729421387697
 20
1593.758420748727
 30
0.0
 11
881.5729421387699
 21
1595.758420758852
 31
0.0
  0
ARC
  5
1B31
330
18
100
AcDbEntity
  8
P-0000
  6
TRATTEGGIO
 62
     3
100
AcDbCircle
 10
880.3229421387708
 20
1597.758420758949
 30
0.0
 40
1.0
100
AcDbArc
 50
180.0
 51
269.9999999778271
  0
ARC
  5
1B32
330
18
100
AcDbEntity
  8
P-0000
  6
TRATTEGGIO
 62
     3
100
AcDbCircle
 10
880.5729421387697
 20
1595.758420758852
 30
0.0
 40
1.0
100
AcDbArc
 50
359.999999999987
 51
89.9999999778206
  0
ARC
  5
1B33
330
18
100
AcDbEntity
  8
P-0000
  6
TRATTEGGIO
 62
     3
100
AcDbCircle
 10
880.8229421387711
 20
1603.165493176262
 30
0.0
 40
0.5
100
AcDbArc
 50
0.0
 51
90.0
  0
LINE
  5
1B34
330
18
100
AcDbEntity
  8
P-0000
  6
TRATTEGGIO
 62
     3
100
AcDbLine
 10
880.8229421387711
 20
1603.665493176263
 30
0.0
 11
939.6658696958557
 21
1603.665493176263
 31
0.0
  0
ARC
  5
1B35
330
18
100
AcDbEntity
  8
P-0000
  6
TRATTEGGIO
 62
     3
100
AcDbCircle
 10
892.3229421387715
 20
1603.165493176262
 30
0.0
 40
0.5000000000000001
100
AcDbArc
 50
90.0
 51
180.0
  0
ARC
  5
1B36
330
18
100
AcDbEntity
  8
P-0000
  6
TRATTEGGIO
 62
     3
100
AcDbCircle
 10
920.8229421387713
 20
1603.165493176262
 30
0.0
 40
0.5
100
AcDbArc
 50
0.0
 51
90.0
  0
ARC
  5
1B37
330
18
100
AcDbEntity
  8
P-0000
  6
TRATTEGGIO
 62
     3
100
AcDbCircle
 10
932.3229421387717
 20
1603.165493176262
 30
0.0
 40
0.5000000000000001
100
AcDbArc
 50
90.0
 51
180.0
  0
LINE
  5
1B38
330
18
100
AcDbEntity
  8
P-0000
  6
Continuous
 62
     7
100
AcDbLine
 10
951.5729420949428
 20
1673.758420737115
 30
0.0
 11
951.5729421382216
 21
1594.758420737664
 31
0.0
  0
LINE
  5
1B3B
330
18
100
AcDbEntity
  8
P-0000
  6
Continuous
 62
     7
100
AcDbLine
 10
949.6205800992937
 20
1673.758420720002
 30
0.0
 11
951.5729420949408
 21
1673.758420737115
 31
0.0
  0
ARC
  5
1B3C
330
18
100
AcDbEntity
  8
P-0000
  6
Continuous
 62
     7
100
AcDbCircle
 10
949.6205801694157
 20
1665.758420720002
 30
0.0
 40
8.000000000000001
100
AcDbArc
 50
90.00000050221212
 51
173.9004691444086
  0
LINE
  5
1B3D
330
18
100
AcDbEntity
  8
P-0000
  6
TRATTEGGIO
 62
     3
100
AcDbLine
 10
941.6658696557961
 20
1666.608468156638
 30
0.0
 11
941.6658696958556
 21
1605.665493177577
 31
0.0
  0
LINE
  5
1B3F
330
18
100
AcDbEntity
  8
P-0000
  6
Continuous
 62
     7
100
AcDbLine
 10
941.6658696996037
 20
1531.11135157678
 30
0.0
 11
878.7228947192462
 21
1531.11135157678
 31
0.0
  0
LINE
  5
1B40
330
18
100
AcDbEntity
  8
P-0000
  6
Continuous
 62
     7
100
AcDbLine
 10
941.6658696996037
 20
1515.11135157678
 30
0.0
 11
878.7228947192462
 21
1515.11135157678
 31
0.0
  0
LINE
  5
1B41
330
18
100
AcDbEntity
  8
P-0000
  6
Continuous
 62
     7
100
AcDbLine
 10
878.7228947192463
 20
1534.11135157678
 30
0.0
 11
878.7228947192462
 21
1512.11135157678
 31
0.0
  0
CIRCLE
  5
1B42
330
18
100
AcDbEntity
  8
P-0000
  6
Continuous
 62
     7
100
AcDbCircle
 10
886.5729421387637
 20
1523.111351576779
 30
0.0
 40
5.249999999999545
  0
CIRCLE
  5
1B43
330
18
100
AcDbEntity
  8
P-0000
  6
Continuous
 62
     7
100
AcDbCircle
 10
886.5729421387637
 20
1523.111351576779
 30
0.0
 40
5.750000000000113
  0
CIRCLE
  5
1B44
330
18
100
AcDbEntity
  8
P-0000
  6
Continuous
 62
     7
100
AcDbCircle
 10
926.5729421387643
 20
1523.111351576778
 30
0.0
 40
5.249999999999545
  0
CIRCLE
  5
1B45
330
18
100
AcDbEntity
  8
P-0000
  6
Continuous
 62
     7
100
AcDbCircle
 10
926.5729421387643
 20
1523.111351576778
 30
0.0
 40
5.750000000000113
  0
LINE
  5
1B6E
330
18
100
AcDbEntity
  8
P-0000
  6
TRATTEGGIO
 62
     3
100
AcDbLine
 10
894.3229421387707
 20
1600.665493176262
 30
0.0
 11
918.822942138771
 21
1600.665493176262
 31
0.0
  0
ARC
  5
1B6F
330
18
100
AcDbEntity
  8
P-0000
  6
TRATTEGGIO
 62
     3
100
AcDbCircle
 10
878.8229421387709
 20
1600.102553010751
 30
0.0
 40
0.5
100
AcDbArc
 50
0.0
 51
99.59406844272265
  0
LINE
  5
1B70
330
18
100
AcDbEntity
  8
P-0000
  6
TRATTEGGIO
 62
     3
100
AcDbLine
 10
893.8229421387706
 20
1597.758420758949
 30
0.0
 11
893.8229421387706
 21
1600.165493176262
 31
0.0
  0
LINE
  5
1B71
330
18
100
AcDbEntity
  8
P-0000
  6
TRATTEGGIO
 62
     3
100
AcDbLine
 10
892.5729421383847
 20
1596.758420758852
 30
0.0
 11
892.8229421391577
 21
1596.758420758949
 31
0.0
  0
LINE
  5
1B72
330
18
100
AcDbEntity
  8
P-0000
  6
TRATTEGGIO
 62
     3
100
AcDbLine
 10
891.572942138772
 20
1593.758420748727
 30
0.0
 11
891.5729421387718
 21
1595.758420758852
 31
0.0
  0
ARC
  5
1B73
330
18
100
AcDbEntity
  8
P-0000
  6
TRATTEGGIO
 62
     3
100
AcDbCircle
 10
892.8229421387708
 20
1597.758420758949
 30
0.0
 40
1.0
100
AcDbArc
 50
270.0000000221729
 51
0.0
  0
ARC
  5
1B74
330
18
100
AcDbEntity
  8
P-0000
  6
TRATTEGGIO
 62
     3
100
AcDbCircle
 10
892.5729421387718
 20
1595.758420758852
 30
0.0
 40
1.0
100
AcDbArc
 50
90.00000002217287
 51
180.000000000013
  0
ARC
  5
1B75
330
18
100
AcDbEntity
  8
P-0000
  6
TRATTEGGIO
 62
     3
100
AcDbCircle
 10
894.3229421387707
 20
1600.165493176262
 30
0.0
 40
0.5
100
AcDbArc
 50
90.0
 51
180.0
  0
LINE
  5
1B76
330
18
100
AcDbEntity
  8
P-0000
  6
TRATTEGGIO
 62
     3
100
AcDbLine
 10
919.3229421387711
 20
1597.75842074734
 30
0.0
 11
919.3229421387711
 21
1600.165493176262
 31
0.0
  0
LINE
  5
1B77
330
18
100
AcDbEntity
  8
P-0000
  6
TRATTEGGIO
 62
     3
100
AcDbLine
 10
920.572942139157
 20
1596.758420747243
 30
0.0
 11
920.322942138384
 21
1596.75842074734
 31
0.0
  0
LINE
  5
1B78
330
18
100
AcDbEntity
  8
P-0000
  6
TRATTEGGIO
 62
     3
100
AcDbLine
 10
921.5729421387697
 20
1593.758420737119
 30
0.0
 11
921.5729421387701
 21
1595.758420747243
 31
0.0
  0
ARC
  5
1B79
330
18
100
AcDbEntity
  8
P-0000
  6
TRATTEGGIO
 62
     3
100
AcDbCircle
 10
920.3229421387709
 20
1597.75842074734
 30
0.0
 40
1.0
100
AcDbArc
 50
180.0
 51
269.9999999778271
  0
ARC
  5
1B7A
330
18
100
AcDbEntity
  8
P-0000
  6
TRATTEGGIO
 62
     3
100
AcDbCircle
 10
920.5729421387699
 20
1595.758420747243
 30
0.0
 40
1.0
100
AcDbArc
 50
359.999999999987
 51
89.9999999778206
  0
LINE
  5
1B7B
330
18
100
AcDbEntity
  8
P-0000
  6
TRATTEGGIO
 62
     3
100
AcDbLine
 10
933.8229421387708
 20
1597.75842074734
 30
0.0
 11
933.8229421387708
 21
1600.165493176262
 31
0.0
  0
LINE
  5
1B7C
330
18
100
AcDbEntity
  8
P-0000
  6
TRATTEGGIO
 62
     3
100
AcDbLine
 10
932.5729421383849
 20
1596.758420747243
 30
0.0
 11
932.8229421391579
 21
1596.75842074734
 31
0.0
  0
LINE
  5
1B7D
330
18
100
AcDbEntity
  8
P-0000
  6
TRATTEGGIO
 62
     3
100
AcDbLine
 10
931.572942138772
 20
1593.758420737119
 30
0.0
 11
931.5729421387718
 21
1595.758420747243
 31
0.0
  0
ARC
  5
1B7E
330
18
100
AcDbEntity
  8
P-0000
  6
TRATTEGGIO
 62
     3
100
AcDbCircle
 10
932.8229421387709
 20
1597.75842074734
 30
0.0
 40
1.0
100
AcDbArc
 50
270.0000000221729
 51
0.0
  0
ARC
  5
1B7F
330
18
100
AcDbEntity
  8
P-0000
  6
TRATTEGGIO
 62
     3
100
AcDbCircle
 10
932.572942138772
 20
1595.758420747243
 30
0.0
 40
1.0
100
AcDbArc
 50
90.00000002217287
 51
180.000000000013
  0
LINE
  5
1B80
330
18
100
AcDbEntity
  8
P-0000
  6
TRATTEGGIO
 62
     3
100
AcDbLine
 10
934.3229421387707
 20
1600.665493176262
 30
0.0
 11
939.6660638068667
 21
1600.665493176262
 31
0.0
  0
ARC
  5
1B81
330
18
100
AcDbEntity
  8
P-0000
  6
TRATTEGGIO
 62
     3
100
AcDbCircle
 10
934.3229421387707
 20
1600.165493176262
 30
0.0
 40
0.5
100
AcDbArc
 50
90.0
 51
180.0
  0
ARC
  5
1B82
330
18
100
AcDbEntity
  8
P-0000
  6
TRATTEGGIO
 62
     3
100
AcDbCircle
 10
918.822942138771
 20
1600.165493176262
 30
0.0
 40
0.5
100
AcDbArc
 50
0.0
 51
90.0
  0
LINE
  5
1B83
330
18
100
AcDbEntity
  8
P-0000
  6
TRATTEGGIO
 62
     3
100
AcDbLine
 10
951.5729421387682
 20
1615.758420737116
 30
0.0
 11
946.6658697117493
 21
1615.758420737115
 31
0.0
  0
LINE
  5
1B84
330
18
100
AcDbEntity
  8
P-0000
  6
TRATTEGGIO
 62
     3
100
AcDbLine
 10
951.572942138768
 20
1621.758420737116
 30
0.0
 11
946.6658697094281
 21
1621.758420737115
 31
0.0
  0
LINE
  5
1B85
330
18
100
AcDbEntity
  8
P-0000
  6
TRATTEGGIO
 62
     3
100
AcDbLine
 10
946.6658697184236
 20
1613.508420737115
 30
0.0
 11
946.6658697143614
 21
1624.008420737114
 31
0.0
  0
LINE
  5
1B87
330
18
100
AcDbEntity
  8
P-0000
  6
TRATTEGGIO
 62
     3
100
AcDbLine
 10
946.6658697184236
 20
1613.508420737115
 30
0.0
 11
942.1658696996239
 21
1613.508420737115
 31
0.0
  0
LINE
  5
1B88
330
18
100
AcDbEntity
  8
P-0000
  6
TRATTEGGIO
 62
     3
100
AcDbLine
 10
946.6658697143614
 20
1624.008420737114
 30
0.0
 11
942.1658696996244
 21
1624.008420737115
 31
0.0
  0
LINE
  5
1B8A
330
18
100
AcDbEntity
  8
P-0000
  6
TRATTEGGIO
 62
     3
100
AcDbLine
 10
951.5729420949389
 20
1655.758420737116
 30
0.0
 11
946.6658696679198
 21
1655.758420737116
 31
0.0
  0
LINE
  5
1B8B
330
18
100
AcDbEntity
  8
P-0000
  6
TRATTEGGIO
 62
     3
100
AcDbLine
 10
951.5729420949387
 20
1661.758420737116
 30
0.0
 11
946.6658696655986
 21
1661.758420737115
 31
0.0
  0
LINE
  5
1B8C
330
18
100
AcDbEntity
  8
P-0000
  6
TRATTEGGIO
 62
     3
100
AcDbLine
 10
946.6658696687908
 20
1653.508420737115
 30
0.0
 11
942.1658696557964
 21
1653.508420737115
 31
0.0
  0
LINE
  5
1B8D
330
18
100
AcDbEntity
  8
P-0000
  6
TRATTEGGIO
 62
     3
100
AcDbLine
 10
946.6658696647284
 20
1664.008420737114
 30
0.0
 11
942.1658696557967
 21
1664.008420737115
 31
0.0
  0
LINE
  5
1B8E
330
18
100
AcDbEntity
  8
P-0000
  6
TRATTEGGIO
 62
     3
100
AcDbLine
 10
946.6658696629876
 20
1653.508420737116
 30
0.0
 11
946.6658696589249
 21
1664.008420737114
 31
0.0
  0
LINE
  5
1B8F
330
18
100
AcDbEntity
  8
P-0000
  6
TRATTEGGIO
 62
     3
100
AcDbLine
 10
949.6658696119707
 20
1670.7584207204
 30
0.0
 11
951.5729421212375
 21
1670.758420737115
 31
0.0
  0
ARC
  5
1B90
330
18
100
AcDbEntity
  8
P-0000
  6
TRATTEGGIO
 62
     3
100
AcDbCircle
 10
949.665869655797
 20
1665.758420720399
 30
0.0
 40
5.0
100
AcDbArc
 50
90.00000050221212
 51
170.4059315572726
  0
LINE
  5
1B91
330
18
100
AcDbEntity
  8
P-0000
  6
TRATTEGGIO
 62
     3
100
AcDbLine
 10
944.6658696557962
 20
1651.008420737116
 30
0.0
 11
944.6658696996244
 21
1626.508420737115
 31
0.0
  0
LINE
  5
1B93
330
18
100
AcDbEntity
  8
P-0000
  6
TRATTEGGIO
 62
     3
100
AcDbLine
 10
947.5729420731106
 20
1666.008420737115
 30
0.0
 11
945.2288098213081
 21
1666.008420737115
 31
0.0
  0
LINE
  5
1B94
330
18
100
AcDbEntity
  8
P-0000
  6
TRATTEGGIO
 62
     3
100
AcDbLine
 10
948.5729420732074
 20
1664.758420736729
 30
0.0
 11
948.5729420731106
 21
1665.008420737502
 31
0.0
  0
LINE
  5
1B95
330
18
100
AcDbEntity
  8
P-0000
  6
TRATTEGGIO
 62
     3
100
AcDbLine
 10
951.5729420833322
 20
1663.758420737116
 30
0.0
 11
949.5729420732073
 21
1663.758420737116
 31
0.0
  0
ARC
  5
1B96
330
18
100
AcDbEntity
  8
P-0000
  6
TRATTEGGIO
 62
     3
100
AcDbCircle
 10
947.5729420731106
 20
1665.008420737115
 30
0.0
 40
1.0
100
AcDbArc
 50
0.0000000221680081
 51
89.99999999998697
  0
ARC
  5
1B97
330
18
100
AcDbEntity
  8
P-0000
  6
TRATTEGGIO
 62
     3
100
AcDbCircle
 10
949.5729420732073
 20
1664.758420737116
 30
0.0
 40
1.0
100
AcDbArc
 50
180.0000000221875
 51
270.0
  0
ARC
  5
1B98
330
18
100
AcDbEntity
  8
P-0000
  6
TRATTEGGIO
 62
     3
100
AcDbCircle
 10
945.2288098213081
 20
1666.508420737115
 30
0.0
 40
0.5
100
AcDbArc
 50
170.4059315572773
 51
269.999999999987
  0
LINE
  5
1B99
330
18
100
AcDbEntity
  8
P-0000
  6
TRATTEGGIO
 62
     3
100
AcDbLine
 10
947.5729420731099
 20
1651.508420737115
 30
0.0
 11
945.1658696557961
 21
1651.508420737116
 31
0.0
  0
LINE
  5
1B9A
330
18
100
AcDbEntity
  8
P-0000
  6
TRATTEGGIO
 62
     3
100
AcDbLine
 10
948.5729420732068
 20
1652.758420737501
 30
0.0
 11
948.57294207311
 21
1652.508420736728
 31
0.0
  0
LINE
  5
1B9B
330
18
100
AcDbEntity
  8
P-0000
  6
TRATTEGGIO
 62
     3
100
AcDbLine
 10
951.5729420833315
 20
1653.758420737114
 30
0.0
 11
949.572942073207
 21
1653.758420737114
 31
0.0
  0
ARC
  5
1B9C
330
18
100
AcDbEntity
  8
P-0000
  6
TRATTEGGIO
 62
     3
100
AcDbCircle
 10
947.5729420731099
 20
1652.508420737115
 30
0.0
 40
1.0
100
AcDbArc
 50
269.999999999987
 51
359.9999999778271
  0
ARC
  5
1B9D
330
18
100
AcDbEntity
  8
P-0000
  6
TRATTEGGIO
 62
     3
100
AcDbCircle
 10
949.5729420732068
 20
1652.758420737114
 30
0.0
 40
1.0
100
AcDbArc
 50
89.99999999998697
 51
179.9999999778271
  0
ARC
  5
1B9E
330
18
100
AcDbEntity
  8
P-0000
  6
TRATTEGGIO
 62
     3
100
AcDbCircle
 10
945.1658696557961
 20
1651.008420737116
 30
0.0
 40
0.5
100
AcDbArc
 50
89.99999999998697
 51
180.0000000000049
  0
LINE
  5
1B9F
330
18
100
AcDbEntity
  8
P-0000
  6
TRATTEGGIO
 62
     3
100
AcDbLine
 10
947.5729421285468
 20
1626.008420737115
 30
0.0
 11
945.1658696996249
 21
1626.008420737115
 31
0.0
  0
LINE
  5
1BA0
330
18
100
AcDbEntity
  8
P-0000
  6
TRATTEGGIO
 62
     3
100
AcDbLine
 10
948.5729421286436
 20
1624.758420736729
 30
0.0
 11
948.5729421285466
 21
1625.008420737502
 31
0.0
  0
LINE
  5
1BA1
330
18
100
AcDbEntity
  8
P-0000
  6
TRATTEGGIO
 62
     3
100
AcDbLine
 10
951.5729421387682
 20
1623.758420737116
 30
0.0
 11
949.5729421286435
 21
1623.758420737116
 31
0.0
  0
ARC
  5
1BA2
330
18
100
AcDbEntity
  8
P-0000
  6
TRATTEGGIO
 62
     3
100
AcDbCircle
 10
947.5729421285466
 20
1625.008420737115
 30
0.0
 40
1.0
100
AcDbArc
 50
0.0000000221680081
 51
89.99999999998697
  0
ARC
  5
1BA3
330
18
100
AcDbEntity
  8
P-0000
  6
TRATTEGGIO
 62
     3
100
AcDbCircle
 10
949.5729421286435
 20
1624.758420737116
 30
0.0
 40
1.0
100
AcDbArc
 50
180.0000000221875
 51
270.0
  0
LINE
  5
1BA4
330
18
100
AcDbEntity
  8
P-0000
  6
TRATTEGGIO
 62
     3
100
AcDbLine
 10
947.5729421285461
 20
1611.508420737115
 30
0.0
 11
945.165869699624
 21
1611.508420737115
 31
0.0
  0
LINE
  5
1BA5
330
18
100
AcDbEntity
  8
P-0000
  6
TRATTEGGIO
 62
     3
100
AcDbLine
 10
948.5729421286428
 20
1612.758420737501
 30
0.0
 11
948.572942128546
 21
1612.508420736728
 31
0.0
  0
LINE
  5
1BA6
330
18
100
AcDbEntity
  8
P-0000
  6
TRATTEGGIO
 62
     3
100
AcDbLine
 10
951.5729421387677
 20
1613.758420737114
 30
0.0
 11
949.5729421286432
 21
1613.758420737114
 31
0.0
  0
ARC
  5
1BA7
330
18
100
AcDbEntity
  8
P-0000
  6
TRATTEGGIO
 62
     3
100
AcDbCircle
 10
947.5729421285462
 20
1612.508420737115
 30
0.0
 40
1.0
100
AcDbArc
 50
269.999999999987
 51
359.9999999778271
  0
ARC
  5
1BA8
330
18
100
AcDbEntity
  8
P-0000
  6
TRATTEGGIO
 62
     3
100
AcDbCircle
 10
949.572942128643
 20
1612.758420737114
 30
0.0
 40
1.0
100
AcDbArc
 50
89.99999999998697
 51
179.9999999778271
  0
ARC
  5
1BA9
330
18
100
AcDbEntity
  8
P-0000
  6
TRATTEGGIO
 62
     3
100
AcDbCircle
 10
945.165869699624
 20
1611.008420737115
 30
0.0
 40
0.5
100
AcDbArc
 50
89.99999999998697
 51
180.0000000000049
  0
ARC
  5
1BAA
330
18
100
AcDbEntity
  8
P-0000
  6
TRATTEGGIO
 62
     3
100
AcDbCircle
 10
945.1658696996249
 20
1626.508420737115
 30
0.0
 40
0.5
100
AcDbArc
 50
180.0000000000049
 51
269.999999999987
  0
ARC
  5
1BC9
330
18
100
AcDbEntity
  8
P-0000
  6
TRATTEGGIO
 62
     3
100
AcDbCircle
 10
942.1658696557987
 20
1664.508420737115
 30
0.0
 40
0.5000000000000001
100
AcDbArc
 50
180.0000000000049
 51
270.0
  0
ARC
  5
1BCA
330
18
100
AcDbEntity
  8
P-0000
  6
TRATTEGGIO
 62
     3
100
AcDbCircle
 10
942.1658696557978
 20
1653.008420737115
 30
0.0
 40
0.5000000000000002
100
AcDbArc
 50
89.99999999998697
 51
180.0000000000049
  0
ARC
  5
1BCB
330
18
100
AcDbEntity
  8
P-0000
  6
TRATTEGGIO
 62
     3
100
AcDbCircle
 10
942.1658696996253
 20
1624.508420737115
 30
0.0
 40
0.5000000000000001
100
AcDbArc
 50
180.0000000000049
 51
270.0
  0
ARC
  5
1BCC
330
18
100
AcDbEntity
  8
P-0000
  6
TRATTEGGIO
 62
     3
100
AcDbCircle
 10
942.1658696996242
 20
1613.008420737115
 30
0.0
 40
0.5000000000000002
100
AcDbArc
 50
89.99999999998697
 51
180.0000000000049
  0
LINE
  5
1BDD
330
18
100
AcDbEntity
  8
P-0000
  6
Continuous
 62
     7
100
AcDbLine
 10
871.5729421387704
 20
1712.738997660267
 30
0.0
 11
871.5729421387704
 21
1732.738997660267
 31
0.0
  0
LINE
  5
1BDE
330
18
100
AcDbEntity
  8
P-0000
  6
Continuous
 62
     7
100
AcDbLine
 10
951.5729421387696
 20
1711.738997660267
 30
0.0
 11
872.5729421387704
 21
1711.738997660267
 31
0.0
  0
LINE
  5
1BDF
330
18
100
AcDbEntity
  8
P-0000
  6
Continuous
 62
     7
100
AcDbLine
 10
951.5729421387696
 20
1733.738997660267
 30
0.0
 11
872.5729421387704
 21
1733.738997660267
 31
0.0
  0
LINE
  5
1BE0
330
18
100
AcDbEntity
  8
P-0000
  6
ASSI
 62
     2
100
AcDbLine
 10
926.5729421387643
 20
1714.738997660267
 30
0.0
 11
926.5729421387643
 21
1730.73899766027
 31
0.0
  0
LINE
  5
1BE1
330
18
100
AcDbEntity
  8
P-0000
  6
ASSI
 62
     2
100
AcDbLine
 10
886.5729421387637
 20
1714.738997660267
 30
0.0
 11
886.5729421387637
 21
1730.738997660269
 31
0.0
  0
LINE
  5
1BE2
330
18
100
AcDbEntity
  8
P-0000
  6
ASSI
 62
     2
100
AcDbLine
 10
878.5729421387628
 20
1722.738997660267
 30
0.0
 11
934.5729421387661
 21
1722.738997660269
 31
0.0
  0
CIRCLE
  5
1BE3
330
18
100
AcDbEntity
  8
P-0000
  6
Continuous
 62
     7
100
AcDbCircle
 10
926.5729421387643
 20
1722.738997660269
 30
0.0
 40
3.0
  0
CIRCLE
  5
1BE4
330
18
100
AcDbEntity
  8
P-0000
  6
Continuous
 62
     7
100
AcDbCircle
 10
886.5729421387637
 20
1722.738997660268
 30
0.0
 40
3.0
  0
LINE
  5
1BE6
330
18
100
AcDbEntity
  8
P-0000
  6
Continuous
 62
     7
100
AcDbLine
 10
951.5729421387696
 20
1730.738997660267
 30
0.0
 11
874.7729420576835
 21
1730.738997660267
 31
0.0
  0
LINE
  5
1BE8
330
18
100
AcDbEntity
  8
P-0000
  6
Continuous
 62
     7
100
AcDbLine
 10
944.6658696717623
 20
1714.738997660267
 30
0.0
 11
944.6658696717623
 21
1721.738997660269
 31
0.0
  0
LINE
  5
1BE9
330
18
100
AcDbEntity
  8
P-0000
  6
Continuous
 62
     7
100
AcDbLine
 10
874.7729421365711
 20
1721.738997660267
 30
0.0
 11
881.5132978824832
 21
1721.738997660267
 31
0.0
  0
LINE
  5
1BEA
330
18
100
AcDbEntity
  8
P-0000
  6
Continuous
 62
     7
100
AcDbLine
 10
874.7729421155344
 20
1723.738997660267
 30
0.0
 11
881.5132978824831
 21
1723.738997660267
 31
0.0
  0
LINE
  5
1BEB
330
18
100
AcDbEntity
  8
P-0000
  6
Continuous
 62
     7
100
AcDbLine
 10
874.572942194422
 20
1714.938997658514
 30
0.0
 11
874.5729421365711
 21
1721.538997658514
 31
0.0
  0
ARC
  5
1BEC
330
18
100
AcDbEntity
  8
P-0000
  6
Continuous
 62
     7
100
AcDbCircle
 10
874.7729420576835
 20
1730.538997660267
 30
0.0
 40
0.2
100
AcDbArc
 50
90.0
 51
180.0000005022121
  0
ARC
  5
1BED
330
18
100
AcDbEntity
  8
P-0000
  6
Continuous
 62
     7
100
AcDbCircle
 10
874.7729421944221
 20
1714.938997660266
 30
0.0
 40
0.2
100
AcDbArc
 50
180.0000005022121
 51
270.0
  0
LINE
  5
1BEE
330
18
100
AcDbEntity
  8
P-0000
  6
Continuous
 62
     7
100
AcDbLine
 10
874.5729421155344
 20
1723.938997658514
 30
0.0
 11
874.5729420576834
 21
1730.538997658514
 31
0.0
  0
ARC
  5
1BEF
330
18
100
AcDbEntity
  8
P-0000
  6
Continuous
 62
     7
100
AcDbCircle
 10
874.7729421155344
 20
1723.938997660267
 30
0.0
 40
0.2
100
AcDbArc
 50
180.0000005022121
 51
270.0
  0
ARC
  5
1BF0
330
18
100
AcDbEntity
  8
P-0000
  6
Continuous
 62
     7
100
AcDbCircle
 10
874.7729421365711
 20
1721.538997660267
 30
0.0
 40
0.2
100
AcDbArc
 50
90.0
 51
180.0000005022121
  0
LINE
  5
1BF1
330
18
100
AcDbEntity
  8
P-0000
  6
Continuous
 62
     7
100
AcDbLine
 10
891.6325863950444
 20
1721.738997660268
 30
0.0
 11
921.5132978824838
 21
1721.738997660269
 31
0.0
  0
LINE
  5
1BF2
330
18
100
AcDbEntity
  8
P-0000
  6
Continuous
 62
     7
100
AcDbLine
 10
891.6325863950442
 20
1723.738997660268
 30
0.0
 11
921.5132978824836
 21
1723.738997660268
 31
0.0
  0
ARC
  5
1BF3
330
18
100
AcDbEntity
  8
P-0000
  6
Continuous
 62
     7
100
AcDbCircle
 10
886.5729421387637
 20
1722.738997660268
 30
0.0
 40
5.0
100
AcDbArc
 50
13.34236379705158
 51
166.6576362029484
  0
ARC
  5
1BF4
330
18
100
AcDbEntity
  8
P-0000
  6
Continuous
 62
     7
100
AcDbCircle
 10
886.5729421387637
 20
1722.738997660268
 30
0.0
 40
5.0
100
AcDbArc
 50
193.3423637970516
 51
346.6576362029484
  0
ARC
  5
1BF5
330
18
100
AcDbEntity
  8
P-0000
  6
Continuous
 62
     7
100
AcDbCircle
 10
881.5132978824832
 20
1721.538997660267
 30
0.0
 40
0.2
100
AcDbArc
 50
13.34236379710534
 51
90.0
  0
ARC
  5
1BF6
330
18
100
AcDbEntity
  8
P-0000
  6
Continuous
 62
     7
100
AcDbCircle
 10
881.5132978824831
 20
1723.938997660267
 30
0.0
 40
0.2
100
AcDbArc
 50
270.0
 51
346.6576362029752
  0
ARC
  5
1BF7
330
18
100
AcDbEntity
  8
P-0000
  6
Continuous
 62
     7
100
AcDbCircle
 10
891.6325863950444
 20
1721.538997660268
 30
0.0
 40
0.2
100
AcDbArc
 50
90.0
 51
166.6576362029752
  0
ARC
  5
1BF8
330
18
100
AcDbEntity
  8
P-0000
  6
Continuous
 62
     7
100
AcDbCircle
 10
891.6325863950442
 20
1723.938997660268
 30
0.0
 40
0.2
100
AcDbArc
 50
193.3423637970248
 51
270.0
  0
ARC
  5
1BF9
330
18
100
AcDbEntity
  8
P-0000
  6
Continuous
 62
     7
100
AcDbCircle
 10
926.5729421387643
 20
1722.738997660268
 30
0.0
 40
5.0
100
AcDbArc
 50
13.34236379705158
 51
166.6576362029484
  0
ARC
  5
1BFA
330
18
100
AcDbEntity
  8
P-0000
  6
Continuous
 62
     7
100
AcDbCircle
 10
926.5729421387643
 20
1722.738997660268
 30
0.0
 40
5.0
100
AcDbArc
 50
193.3423637970516
 51
346.6576362029484
  0
ARC
  5
1BFB
330
18
100
AcDbEntity
  8
P-0000
  6
Continuous
 62
     7
100
AcDbCircle
 10
921.5132978824838
 20
1721.538997660269
 30
0.0
 40
0.2
100
AcDbArc
 50
13.34236379710534
 51
90.0
  0
ARC
  5
1BFC
330
18
100
AcDbEntity
  8
P-0000
  6
Continuous
 62
     7
100
AcDbCircle
 10
921.5132978824836
 20
1723.938997660268
 30
0.0
 40
0.2
100
AcDbArc
 50
270.0
 51
346.6576362029752
  0
ARC
  5
1BFD
330
18
100
AcDbEntity
  8
P-0000
  6
Continuous
 62
     7
100
AcDbCircle
 10
931.6325863950449
 20
1721.538997660269
 30
0.0
 40
0.2
100
AcDbArc
 50
90.0
 51
166.6576362029752
  0
ARC
  5
1BFE
330
18
100
AcDbEntity
  8
P-0000
  6
Continuous
 62
     7
100
AcDbCircle
 10
931.6325863950448
 20
1723.938997660269
 30
0.0
 40
0.2
100
AcDbArc
 50
193.3423637970248
 51
270.0
  0
LINE
  5
1BFF
330
18
100
AcDbEntity
  8
P-0000
  6
Continuous
 62
     7
100
AcDbLine
 10
931.6325863950448
 20
1723.738997660269
 30
0.0
 11
951.5729421387696
 21
1723.738997660269
 31
0.0
  0
LINE
  5
1C00
330
18
100
AcDbEntity
  8
P-0000
  6
Continuous
 62
     7
100
AcDbLine
 10
931.6325863950449
 20
1721.738997660269
 30
0.0
 11
951.5729421387696
 21
1721.738997660269
 31
0.0
  0
LINE
  5
1C18
330
18
100
AcDbEntity
  8
P-0000
  6
Continuous
 62
     7
100
AcDbLine
 10
951.5729421387696
 20
1711.738997660267
 30
0.0
 11
951.5729421387696
 21
1714.738997660267
 31
0.0
  0
LINE
  5
1C1E
330
18
100
AcDbEntity
  8
P-0000
  6
TRATTEGGIO
 62
     3
100
AcDbLine
 10
944.6658696996241
 20
1611.008420737115
 30
0.0
 11
944.6658696996239
 21
1605.665493176262
 31
0.0
  0
ARC
  5
1C23
330
18
100
AcDbEntity
  8
P-0000
  6
Continuous
 62
     7
100
AcDbCircle
 10
926.5729421387643
 20
1722.738997660269
 30
0.0
 40
7.25000000000648
100
AcDbArc
 50
189.1576319113975
 51
350.8423680885885
  0
ARC
  5
1C24
330
18
100
AcDbEntity
  8
P-0000
  6
Continuous
 62
     7
100
AcDbCircle
 10
919.2207473318264
 20
1721.538997660269
 30
0.0
 40
0.2
100
AcDbArc
 50
13.34236379710534
 51
90.0
  0
ARC
  5
1C25
330
18
100
AcDbEntity
  8
P-0000
  6
Continuous
 62
     7
100
AcDbCircle
 10
919.220747331826
 20
1723.938997660268
 30
0.0
 40
0.2
100
AcDbArc
 50
270.0
 51
346.6576362029752
  0
ARC
  5
1C26
330
18
100
AcDbEntity
  8
P-0000
  6
Continuous
 62
     7
100
AcDbCircle
 10
933.9251369457024
 20
1721.538997660269
 30
0.0
 40
0.2
100
AcDbArc
 50
90.0
 51
166.6576362028946
  0
ARC
  5
1C27
330
18
100
AcDbEntity
  8
P-0000
  6
Continuous
 62
     7
100
AcDbCircle
 10
933.9251369457027
 20
1723.938997660268
 30
0.0
 40
0.2
100
AcDbArc
 50
193.3423637970248
 51
270.0
  0
ARC
  5
1C28
330
18
100
AcDbEntity
  8
P-0000
  6
Continuous
 62
     7
100
AcDbCircle
 10
926.5729421387643
 20
1722.738997660269
 30
0.0
 40
7.25000000000648
100
AcDbArc
 50
9.157631911397551
 51
170.8423680886152
  0
ARC
  5
1C46
330
18
100
AcDbEntity
  8
P-0000
  6
Continuous
 62
     7
100
AcDbCircle
 10
872.5729421387704
 20
1533.11135157678
 30
0.0
 40
1.0
100
AcDbArc
 50
90.0
 51
180.0
  0
ARC
  5
1C47
330
18
100
AcDbEntity
  8
P-0000
  6
Continuous
 62
     7
100
AcDbCircle
 10
872.5729421387704
 20
1513.11135157678
 30
0.0
 40
1.0
100
AcDbArc
 50
180.0
 51
270.0
  0
ARC
  5
1C48
330
18
100
AcDbEntity
  8
P-0000
  6
Continuous
 62
     7
100
AcDbCircle
 10
872.5729421387704
 20
1712.738997660267
 30
0.0
 40
1.0
100
AcDbArc
 50
180.0
 51
270.0
  0
ARC
  5
1C49
330
18
100
AcDbEntity
  8
P-0000
  6
Continuous
 62
     7
100
AcDbCircle
 10
872.5729421387704
 20
1732.738997660267
 30
0.0
 40
1.0
100
AcDbArc
 50
90.0
 51
180.0
  0
ARC
  5
1C57
330
18
100
AcDbEntity
  8
P-0000
  6
Continuous
 62
     7
100
AcDbCircle
 10
886.5729421387637
 20
1722.738997660268
 30
0.0
 40
7.25000000000648
100
AcDbArc
 50
189.1576319113975
 51
350.8423680885885
  0
ARC
  5
1C58
330
18
100
AcDbEntity
  8
P-0000
  6
Continuous
 62
     7
100
AcDbCircle
 10
879.2207473318258
 20
1721.538997660267
 30
0.0
 40
0.2
100
AcDbArc
 50
13.34236379710534
 51
90.0
  0
ARC
  5
1C59
330
18
100
AcDbEntity
  8
P-0000
  6
Continuous
 62
     7
100
AcDbCircle
 10
879.2207473318255
 20
1723.938997660267
 30
0.0
 40
0.2
100
AcDbArc
 50
270.0
 51
346.6576362029752
  0
ARC
  5
1C5A
330
18
100
AcDbEntity
  8
P-0000
  6
Continuous
 62
     7
100
AcDbCircle
 10
893.9251369457018
 20
1721.538997660267
 30
0.0
 40
0.2
100
AcDbArc
 50
90.0
 51
166.6576362028946
  0
ARC
  5
1C5B
330
18
100
AcDbEntity
  8
P-0000
  6
Continuous
 62
     7
100
AcDbCircle
 10
893.9251369457021
 20
1723.938997660267
 30
0.0
 40
0.2
100
AcDbArc
 50
193.3423637970248
 51
270.0
  0
ARC
  5
1C5C
330
18
100
AcDbEntity
  8
P-0000
  6
Continuous
 62
     7
100
AcDbCircle
 10
886.5729421387637
 20
1722.738997660268
 30
0.0
 40
7.25000000000648
100
AcDbArc
 50
9.157631911397551
 51
170.8423680886152
  0
LINE
  5
1C5E
330
18
100
AcDbEntity
  8
P-0000
  6
Continuous
 62
     7
100
AcDbLine
 10
944.6658696717623
 20
1723.738997660269
 30
0.0
 11
944.6658696717623
 21
1730.538997660267
 31
0.0
  0
ARC
  5
1C61
330
18
100
AcDbEntity
  8
P-0000
  6
TRATTEGGIO
 62
     3
100
AcDbCircle
 10
939.6658696958557
 20
1605.665493176262
 30
0.0
 40
2.0
100
AcDbArc
 50
270.0
 51
0.0000000376620421
  0
ARC
  5
1C62
330
18
100
AcDbEntity
  8
P-0000
  6
TRATTEGGIO
 62
     3
100
AcDbCircle
 10
939.6658696958557
 20
1605.665493176262
 30
0.0
 40
5.00000000376815
100
AcDbArc
 50
270.0
 51
0.0000000376620421
  0
ARC
  5
1C6F
330
18
100
AcDbEntity
  8
P-0000
  6
Continuous
 62
     7
100
AcDbCircle
 10
863.1845944904567
 20
1682.14676838544
 30
0.0
 40
80.00468319079237
100
AcDbArc
 50
281.1990089424617
 51
348.8009907063317
  0
LINE
  5
1C77
330
18
100
AcDbEntity
  8
P-0000
  6
Continuous
 62
     7
100
AcDbLine
 10
951.5729421387501
 20
1512.11135157678
 30
0.0
 11
951.5729421387501
 21
1534.11135157678
 31
0.0
  0
LINE
  5
1C79
330
18
100
AcDbEntity
  8
P-0000
  6
TRATTEGGIO
 62
     3
100
AcDbLine
 10
951.5729421387701
 20
1526.11135157678
 30
0.0
 11
946.6658696938001
 21
1526.111351576781
 31
0.0
  0
LINE
  5
1C7A
330
18
100
AcDbEntity
  8
P-0000
  6
TRATTEGGIO
 62
     3
100
AcDbLine
 10
951.5729421387696
 20
1520.11135157678
 30
0.0
 11
946.6658696914786
 21
1520.111351576781
 31
0.0
  0
LINE
  5
1C7B
330
18
100
AcDbEntity
  8
P-0000
  6
TRATTEGGIO
 62
     3
100
AcDbLine
 10
946.6658697004744
 20
1528.36135157678
 30
0.0
 11
946.6658696964117
 21
1517.861351576781
 31
0.0
  0
LINE
  5
1C7D
330
18
100
AcDbEntity
  8
P-0000
  6
TRATTEGGIO
 62
     3
100
AcDbLine
 10
946.6658697004744
 20
1528.36135157678
 30
0.0
 11
942.1658696996258
 21
1528.361351576781
 31
0.0
  0
LINE
  5
1C7E
330
18
100
AcDbEntity
  8
P-0000
  6
TRATTEGGIO
 62
     3
100
AcDbLine
 10
946.6658696964117
 20
1517.861351576781
 30
0.0
 11
942.1658696996258
 21
1517.861351576781
 31
0.0
  0
ARC
  5
1C7F
330
18
100
AcDbEntity
  8
P-0000
  6
TRATTEGGIO
 62
     3
100
AcDbCircle
 10
942.1658696996258
 20
1517.361351576781
 30
0.0
 40
0.5
100
AcDbArc
 50
90.0
 51
180.0
  0
ARC
  5
1C80
330
18
100
AcDbEntity
  8
P-0000
  6
TRATTEGGIO
 62
     3
100
AcDbCircle
 10
942.1658696996258
 20
1528.861351576782
 30
0.0
 40
0.5000000000000001
100
AcDbArc
 50
180.0
 51
270.0
  0
LINE
  5
1C81
330
18
100
AcDbEntity
  8
P-0000
  6
TRATTEGGIO
 62
     3
100
AcDbLine
 10
947.572942128548
 20
1515.861351576781
 30
0.0
 11
945.1658696996261
 21
1515.861351576781
 31
0.0
  0
LINE
  5
1C82
330
18
100
AcDbEntity
  8
P-0000
  6
TRATTEGGIO
 62
     3
100
AcDbLine
 10
948.572942128645
 20
1517.111351577167
 30
0.0
 11
948.5729421285482
 21
1516.861351576394
 31
0.0
  0
LINE
  5
1C83
330
18
100
AcDbEntity
  8
P-0000
  6
TRATTEGGIO
 62
     3
100
AcDbLine
 10
951.5729421387696
 20
1518.11135157678
 30
0.0
 11
949.572942128645
 21
1518.11135157678
 31
0.0
  0
ARC
  5
1C84
330
18
100
AcDbEntity
  8
P-0000
  6
TRATTEGGIO
 62
     3
100
AcDbCircle
 10
947.572942128548
 20
1516.861351576781
 30
0.0
 40
1.0
100
AcDbArc
 50
270.0
 51
359.9999999778271
  0
ARC
  5
1C85
330
18
100
AcDbEntity
  8
P-0000
  6
TRATTEGGIO
 62
     3
100
AcDbCircle
 10
949.572942128645
 20
1517.11135157678
 30
0.0
 40
1.0
100
AcDbArc
 50
89.99999999997395
 51
179.9999999778206
  0
LINE
  5
1C86
330
18
100
AcDbEntity
  8
P-0000
  6
TRATTEGGIO
 62
     3
100
AcDbLine
 10
947.572942128548
 20
1530.361351576781
 30
0.0
 11
945.1658696996261
 21
1530.361351576781
 31
0.0
  0
LINE
  5
1C87
330
18
100
AcDbEntity
  8
P-0000
  6
TRATTEGGIO
 62
     3
100
AcDbLine
 10
948.572942128645
 20
1529.111351576395
 30
0.0
 11
948.5729421285482
 21
1529.361351577168
 31
0.0
  0
LINE
  5
1C88
330
18
100
AcDbEntity
  8
P-0000
  6
TRATTEGGIO
 62
     3
100
AcDbLine
 10
951.5729421387696
 20
1528.111351576782
 30
0.0
 11
949.572942128645
 21
1528.111351576782
 31
0.0
  0
ARC
  5
1C89
330
18
100
AcDbEntity
  8
P-0000
  6
TRATTEGGIO
 62
     3
100
AcDbCircle
 10
947.572942128548
 20
1529.361351576781
 30
0.0
 40
1.0
100
AcDbArc
 50
0.0000000221728935
 51
90.0
  0
ARC
  5
1C8A
330
18
100
AcDbEntity
  8
P-0000
  6
TRATTEGGIO
 62
     3
100
AcDbCircle
 10
949.572942128645
 20
1529.111351576782
 30
0.0
 40
1.0
100
AcDbArc
 50
180.0000000221729
 51
270.0
  0
ARC
  5
1C8B
330
18
100
AcDbEntity
  8
P-0000
  6
TRATTEGGIO
 62
     3
100
AcDbCircle
 10
945.1658696996261
 20
1515.361351576781
 30
0.0
 40
0.5
100
AcDbArc
 50
90.0
 51
180.0
  0
LINE
  5
1C8C
330
18
100
AcDbEntity
  8
P-0000
  6
Continuous
 62
     7
100
AcDbLine
 10
941.6658696996037
 20
1512.11135157678
 30
0.0
 11
941.6658696996037
 21
1534.11135157678
 31
0.0
  0
LINE
  5
1C8D
330
18
100
AcDbEntity
  8
P-0000
  6
TRATTEGGIO
 62
     3
100
AcDbLine
 10
944.8658696996263
 20
1515.11135157678
 30
0.0
 11
951.5729421387501
 21
1515.11135157678
 31
0.0
  0
LINE
  5
1C8E
330
18
100
AcDbEntity
  8
P-0000
  6
TRATTEGGIO
 62
     3
100
AcDbLine
 10
944.665869699626
 20
1515.361351576781
 30
0.0
 11
944.6658696996264
 21
1515.311351576779
 31
0.0
  0
ARC
  5
1C8F
330
18
100
AcDbEntity
  8
P-0000
  6
TRATTEGGIO
 62
     3
100
AcDbCircle
 10
944.8658696996263
 20
1515.311351576779
 30
0.0
 40
0.2
100
AcDbArc
 50
180.0
 51
270.0
  0
LINE
  5
1C90
330
18
100
AcDbEntity
  8
P-0000
  6
TRATTEGGIO
 62
     3
100
AcDbLine
 10
948.572942128645
 20
1529.111351576393
 30
0.0
 11
948.5729421285482
 21
1529.361351577166
 31
0.0
  0
ARC
  5
1C91
330
18
100
AcDbEntity
  8
P-0000
  6
TRATTEGGIO
 62
     3
100
AcDbCircle
 10
945.1658696996261
 20
1530.861351576779
 30
0.0
 40
0.5
100
AcDbArc
 50
180.0
 51
270.0
  0
LINE
  5
1C92
330
18
100
AcDbEntity
  8
P-0000
  6
TRATTEGGIO
 62
     3
100
AcDbLine
 10
944.8658696996263
 20
1531.11135157678
 30
0.0
 11
951.5729421387501
 21
1531.11135157678
 31
0.0
  0
LINE
  5
1C93
330
18
100
AcDbEntity
  8
P-0000
  6
TRATTEGGIO
 62
     3
100
AcDbLine
 10
944.665869699626
 20
1530.861351576779
 30
0.0
 11
944.6658696996264
 21
1530.91135157678
 31
0.0
  0
ARC
  5
1C94
330
18
100
AcDbEntity
  8
P-0000
  6
TRATTEGGIO
 62
     3
100
AcDbCircle
 10
944.8658696996263
 20
1530.91135157678
 30
0.0
 40
0.2
100
AcDbArc
 50
90.0
 51
180.0
  0
LINE
  5
1C95
330
18
100
AcDbEntity
  8
P-0000
  6
Continuous
 62
     7
100
AcDbLine
 10
1006.489254032118
 20
1673.758420737111
 30
0.0
 11
1026.489254032118
 21
1673.758420737109
 31
0.0
  0
LINE
  5
1C96
330
18
100
AcDbEntity
  8
P-0000
  6
Continuous
 62
     7
100
AcDbLine
 10
1005.489254032108
 20
1593.758420737132
 30
0.0
 11
1005.489254032117
 21
1672.758420737111
 31
0.0
  0
LINE
  5
1C97
330
18
100
AcDbEntity
  8
P-0000
  6
Continuous
 62
     7
100
AcDbLine
 10
1027.489254032108
 20
1593.758420737129
 30
0.0
 11
1027.489254032118
 21
1672.758420737108
 31
0.0
  0
CIRCLE
  5
1C9B
330
18
100
AcDbEntity
  8
P-0000
  6
Continuous
 62
     7
100
AcDbCircle
 10
1016.489254032113
 20
1618.758420737116
 30
0.0
 40
3.0
  0
CIRCLE
  5
1C9C
330
18
100
AcDbEntity
  8
P-0000
  6
Continuous
 62
     7
100
AcDbCircle
 10
1016.489254032117
 20
1658.758420737117
 30
0.0
 40
3.0
  0
LINE
  5
1C9D
330
18
100
AcDbEntity
  8
P-0000
  6
Continuous
 62
     7
100
AcDbLine
 10
1008.489254032109
 20
1603.665493176277
 30
0.0
 11
1008.489254032117
 21
1666.608468156635
 31
0.0
  0
LINE
  5
1C9E
330
18
100
AcDbEntity
  8
P-0000
  6
Continuous
 62
     7
100
AcDbLine
 10
1024.489254032109
 20
1603.665493176276
 30
0.0
 11
1024.489254032117
 21
1666.608468156633
 31
0.0
  0
LINE
  5
1C9F
330
18
100
AcDbEntity
  8
P-0000
  6
Continuous
 62
     7
100
AcDbLine
 10
1005.489254032117
 20
1666.608468156635
 30
0.0
 11
1027.489254032117
 21
1666.608468156633
 31
0.0
  0
CIRCLE
  5
1CA0
330
18
100
AcDbEntity
  8
P-0000
  6
Continuous
 62
     7
100
AcDbCircle
 10
1016.489254032117
 20
1658.758420737117
 30
0.0
 40
5.249999999999545
  0
CIRCLE
  5
1CA1
330
18
100
AcDbEntity
  8
P-0000
  6
Continuous
 62
     7
100
AcDbCircle
 10
1016.489254032117
 20
1658.758420737117
 30
0.0
 40
5.750000000000113
  0
CIRCLE
  5
1CA2
330
18
100
AcDbEntity
  8
P-0000
  6
Continuous
 62
     7
100
AcDbCircle
 10
1016.489254032113
 20
1618.758420737116
 30
0.0
 40
5.249999999999545
  0
CIRCLE
  5
1CA3
330
18
100
AcDbEntity
  8
P-0000
  6
Continuous
 62
     7
100
AcDbCircle
 10
1016.489254032113
 20
1618.758420737116
 30
0.0
 40
5.750000000000113
  0
ARC
  5
1CA4
330
18
100
AcDbEntity
  8
P-0000
  6
Continuous
 62
     7
100
AcDbCircle
 10
1006.489254032118
 20
1672.758420737111
 30
0.0
 40
1.0
100
AcDbArc
 50
90.0
 51
180.0
  0
ARC
  5
1CA5
330
18
100
AcDbEntity
  8
P-0000
  6
Continuous
 62
     7
100
AcDbCircle
 10
1026.489254032117
 20
1672.758420737109
 30
0.0
 40
1.0
100
AcDbArc
 50
0.0
 51
90.0
  0
LINE
  5
1CA6
330
18
100
AcDbEntity
  8
P-0000
  6
Continuous
 62
     7
100
AcDbLine
 10
1027.489254032108
 20
1593.758420737129
 30
0.0
 11
1005.489254032108
 21
1593.758420737132
 31
0.0
  0
LINE
  5
1CA8
330
18
100
AcDbEntity
  8
P-0000
  6
TRATTEGGIO
 62
     3
100
AcDbLine
 10
1013.489254032108
 20
1593.75842073711
 30
0.0
 11
1013.489254032108
 21
1598.75842074917
 31
0.0
  0
LINE
  5
1CA9
330
18
100
AcDbEntity
  8
P-0000
  6
TRATTEGGIO
 62
     3
100
AcDbLine
 10
1019.489254032108
 20
1593.75842073711
 30
0.0
 11
1019.489254032108
 21
1598.758420751491
 31
0.0
  0
LINE
  5
1CAA
330
18
100
AcDbEntity
  8
P-0000
  6
TRATTEGGIO
 62
     3
100
AcDbLine
 10
1011.239254032108
 20
1598.758420742496
 30
0.0
 11
1021.739254032107
 21
1598.758420746557
 31
0.0
  0
LINE
  5
1CAC
330
18
100
AcDbEntity
  8
P-0000
  6
TRATTEGGIO
 62
     3
100
AcDbLine
 10
1011.239254032108
 20
1598.758420742496
 30
0.0
 11
1011.239254032108
 21
1603.165493176255
 31
0.0
  0
LINE
  5
1CAD
330
18
100
AcDbEntity
  8
P-0000
  6
TRATTEGGIO
 62
     3
100
AcDbLine
 10
1021.739254032107
 20
1598.758420746557
 30
0.0
 11
1021.739254032108
 21
1603.165493176254
 31
0.0
  0
ARC
  5
1CAE
330
18
100
AcDbEntity
  8
P-0000
  6
TRATTEGGIO
 62
     3
100
AcDbCircle
 10
1022.239254032108
 20
1603.165493176254
 30
0.0
 40
0.5
100
AcDbArc
 50
90.0
 51
180.0
  0
ARC
  5
1CAF
330
18
100
AcDbEntity
  8
P-0000
  6
TRATTEGGIO
 62
     3
100
AcDbCircle
 10
1010.739254032107
 20
1603.165493176255
 30
0.0
 40
0.5000000000000001
100
AcDbArc
 50
0.0
 51
90.0
  0
LINE
  5
1CB0
330
18
100
AcDbEntity
  8
P-0000
  6
TRATTEGGIO
 62
     3
100
AcDbLine
 10
1023.739254032107
 20
1597.758420747331
 30
0.0
 11
1023.739254032107
 21
1600.165493176253
 31
0.0
  0
LINE
  5
1CB1
330
18
100
AcDbEntity
  8
P-0000
  6
TRATTEGGIO
 62
     3
100
AcDbLine
 10
1022.489254031721
 20
1596.758420747235
 30
0.0
 11
1022.739254032494
 21
1596.758420747331
 31
0.0
  0
LINE
  5
1CB2
330
18
100
AcDbEntity
  8
P-0000
  6
TRATTEGGIO
 62
     3
100
AcDbLine
 10
1021.489254032108
 20
1593.75842073711
 30
0.0
 11
1021.489254032108
 21
1595.758420747235
 31
0.0
  0
ARC
  5
1CB3
330
18
100
AcDbEntity
  8
P-0000
  6
TRATTEGGIO
 62
     3
100
AcDbCircle
 10
1022.739254032107
 20
1597.758420747331
 30
0.0
 40
1.0
100
AcDbArc
 50
270.0000000221729
 51
0.0
  0
ARC
  5
1CB4
330
18
100
AcDbEntity
  8
P-0000
  6
TRATTEGGIO
 62
     3
100
AcDbCircle
 10
1022.489254032108
 20
1595.758420747235
 30
0.0
 40
1.0
100
AcDbArc
 50
90.00000002217287
 51
180.000000000026
  0
LINE
  5
1CB5
330
18
100
AcDbEntity
  8
P-0000
  6
TRATTEGGIO
 62
     3
100
AcDbLine
 10
1009.239254032107
 20
1597.758420747333
 30
0.0
 11
1009.239254032108
 21
1600.165493176255
 31
0.0
  0
LINE
  5
1CB6
330
18
100
AcDbEntity
  8
P-0000
  6
TRATTEGGIO
 62
     3
100
AcDbLine
 10
1010.489254032493
 20
1596.758420747236
 30
0.0
 11
1010.23925403172
 21
1596.758420747333
 31
0.0
  0
LINE
  5
1CB7
330
18
100
AcDbEntity
  8
P-0000
  6
TRATTEGGIO
 62
     3
100
AcDbLine
 10
1011.489254032105
 20
1593.758420737111
 30
0.0
 11
1011.489254032106
 21
1595.758420747236
 31
0.0
  0
ARC
  5
1CB8
330
18
100
AcDbEntity
  8
P-0000
  6
TRATTEGGIO
 62
     3
100
AcDbCircle
 10
1010.239254032107
 20
1597.758420747333
 30
0.0
 40
1.0
100
AcDbArc
 50
180.0
 51
269.9999999778271
  0
ARC
  5
1CB9
330
18
100
AcDbEntity
  8
P-0000
  6
TRATTEGGIO
 62
     3
100
AcDbCircle
 10
1010.489254032106
 20
1595.758420747236
 30
0.0
 40
1.0
100
AcDbArc
 50
0.0
 51
89.9999999778271
  0
ARC
  5
1CBA
330
18
100
AcDbEntity
  8
P-0000
  6
TRATTEGGIO
 62
     3
100
AcDbCircle
 10
1024.239254032107
 20
1600.165493176253
 30
0.0
 40
0.5
100
AcDbArc
 50
90.0
 51
180.0
  0
LINE
  5
1CBB
330
18
100
AcDbEntity
  8
P-0000
  6
Continuous
 62
     7
100
AcDbLine
 10
1027.489254032109
 20
1603.665493176275
 30
0.0
 11
1005.489254032109
 21
1603.665493176278
 31
0.0
  0
LINE
  5
1CBC
330
18
100
AcDbEntity
  8
P-0000
  6
TRATTEGGIO
 62
     3
100
AcDbLine
 10
1024.489254032109
 20
1600.465493176253
 30
0.0
 11
1024.489254032108
 21
1593.758420737129
 31
0.0
  0
LINE
  5
1CBD
330
18
100
AcDbEntity
  8
P-0000
  6
TRATTEGGIO
 62
     3
100
AcDbLine
 10
1024.239254032107
 20
1600.665493176253
 30
0.0
 11
1024.289254032109
 21
1600.665493176253
 31
0.0
  0
ARC
  5
1CBE
330
18
100
AcDbEntity
  8
P-0000
  6
TRATTEGGIO
 62
     3
100
AcDbCircle
 10
1024.289254032109
 20
1600.465493176253
 30
0.0
 40
0.2
100
AcDbArc
 50
0.0
 51
90.0
  0
LINE
  5
1CBF
330
18
100
AcDbEntity
  8
P-0000
  6
TRATTEGGIO
 62
     3
100
AcDbLine
 10
1010.489254032495
 20
1596.758420747236
 30
0.0
 11
1010.239254031722
 21
1596.758420747333
 31
0.0
  0
ARC
  5
1CC0
330
18
100
AcDbEntity
  8
P-0000
  6
TRATTEGGIO
 62
     3
100
AcDbCircle
 10
1008.73925403211
 20
1600.165493176255
 30
0.0
 40
0.5
100
AcDbArc
 50
0.0
 51
90.0
  0
LINE
  5
1CC1
330
18
100
AcDbEntity
  8
P-0000
  6
TRATTEGGIO
 62
     3
100
AcDbLine
 10
1008.489254032108
 20
1600.465493176255
 30
0.0
 11
1008.489254032107
 21
1593.758420737131
 31
0.0
  0
LINE
  5
1CC2
330
18
100
AcDbEntity
  8
P-0000
  6
TRATTEGGIO
 62
     3
100
AcDbLine
 10
1008.73925403211
 20
1600.665493176255
 30
0.0
 11
1008.689254032108
 21
1600.665493176255
 31
0.0
  0
ARC
  5
1CC3
330
18
100
AcDbEntity
  8
P-0000
  6
TRATTEGGIO
 62
     3
100
AcDbCircle
 10
1008.689254032108
 20
1600.465493176255
 30
0.0
 40
0.2
100
AcDbArc
 50
90.0
 51
180.0
  0
LINE
  5
1CDB
330
18
100
AcDbEntity
  8
P-0000
  6
Continuous
 62
     7
100
AcDbLine
 10
947.5729420731083
 20
1715.488997660269
 30
0.0
 11
945.1658696557945
 21
1715.488997660269
 31
0.0
  0
LINE
  5
1CDC
330
18
100
AcDbEntity
  8
P-0000
  6
Continuous
 62
     7
100
AcDbLine
 10
948.5729420732052
 20
1716.738997660655
 30
0.0
 11
948.5729420731084
 21
1716.488997659882
 31
0.0
  0
LINE
  5
1CDD
330
18
100
AcDbEntity
  8
P-0000
  6
Continuous
 62
     7
100
AcDbLine
 10
951.5729420833299
 20
1717.738997660267
 30
0.0
 11
949.5729420732054
 21
1717.738997660268
 31
0.0
  0
ARC
  5
1CDE
330
18
100
AcDbEntity
  8
P-0000
  6
Continuous
 62
     7
100
AcDbCircle
 10
947.5729420731083
 20
1716.488997660269
 30
0.0
 40
1.0
100
AcDbArc
 50
269.999999999987
 51
359.9999999778271
  0
ARC
  5
1CDF
330
18
100
AcDbEntity
  8
P-0000
  6
Continuous
 62
     7
100
AcDbCircle
 10
949.5729420732052
 20
1716.738997660268
 30
0.0
 40
1.0
100
AcDbArc
 50
89.99999999998697
 51
179.9999999778271
  0
ARC
  5
1CE0
330
18
100
AcDbEntity
  8
P-0000
  6
Continuous
 62
     7
100
AcDbCircle
 10
945.1658696557945
 20
1714.988997660269
 30
0.0
 40
0.5
100
AcDbArc
 50
89.99999999998697
 51
180.0000000000049
  0
LINE
  5
1CE1
330
18
100
AcDbEntity
  8
P-0000
  6
Continuous
 62
     7
100
AcDbLine
 10
947.5729420731083
 20
1729.988997660269
 30
0.0
 11
945.1658696557945
 21
1729.988997660269
 31
0.0
  0
LINE
  5
1CE2
330
18
100
AcDbEntity
  8
P-0000
  6
Continuous
 62
     7
100
AcDbLine
 10
948.5729420732052
 20
1728.738997659883
 30
0.0
 11
948.5729420731084
 21
1728.988997660656
 31
0.0
  0
LINE
  5
1CE3
330
18
100
AcDbEntity
  8
P-0000
  6
Continuous
 62
     7
100
AcDbLine
 10
951.5729420833299
 20
1727.738997660271
 30
0.0
 11
949.5729420732054
 21
1727.73899766027
 31
0.0
  0
ARC
  5
1CE4
330
18
100
AcDbEntity
  8
P-0000
  6
Continuous
 62
     7
100
AcDbCircle
 10
947.5729420731083
 20
1728.98899766027
 30
0.0
 40
1.0
100
AcDbArc
 50
0.0000000221728935
 51
90.00000000001302
  0
ARC
  5
1CE5
330
18
100
AcDbEntity
  8
P-0000
  6
Continuous
 62
     7
100
AcDbCircle
 10
949.5729420732052
 20
1728.73899766027
 30
0.0
 40
1.0
100
AcDbArc
 50
180.0000000221729
 51
270.000000000013
  0
ARC
  5
1CE6
330
18
100
AcDbEntity
  8
P-0000
  6
Continuous
 62
     7
100
AcDbCircle
 10
945.1658696557945
 20
1730.488997660269
 30
0.0
 40
0.5
100
AcDbArc
 50
180.0
 51
270.000000000013
  0
LINE
  5
1CE7
330
18
100
AcDbEntity
  8
P-0000
  6
Continuous
 62
     7
100
AcDbLine
 10
948.5729420732052
 20
1728.738997659883
 30
0.0
 11
948.5729420731656
 21
1723.738997660269
 31
0.0
  0
LINE
  5
1CE8
330
18
100
AcDbEntity
  8
P-0000
  6
Continuous
 62
     7
100
AcDbLine
 10
945.1658696557947
 20
1729.988997660269
 30
0.0
 11
945.1658696557945
 21
1723.738997660269
 31
0.0
  0
LINE
  5
1CE9
330
18
100
AcDbEntity
  8
P-0000
  6
Continuous
 62
     7
100
AcDbLine
 10
949.5729420732054
 20
1727.73899766027
 30
0.0
 11
949.5729420732054
 21
1723.738997660269
 31
0.0
  0
LINE
  5
1CEA
330
18
100
AcDbEntity
  8
P-0000
  6
Continuous
 62
     7
100
AcDbLine
 10
949.5729420732054
 20
1721.738997660269
 30
0.0
 11
949.5729420732054
 21
1717.738997660268
 31
0.0
  0
LINE
  5
1CEB
330
18
100
AcDbEntity
  8
P-0000
  6
Continuous
 62
     7
100
AcDbLine
 10
948.5729420731498
 20
1721.738997660269
 30
0.0
 11
948.5729420731084
 21
1716.488997659882
 31
0.0
  0
LINE
  5
1CEC
330
18
100
AcDbEntity
  8
P-0000
  6
Continuous
 62
     7
100
AcDbLine
 10
945.1658696557945
 20
1721.738997660269
 30
0.0
 11
945.1658696557947
 21
1715.488997660269
 31
0.0
  0
LINE
  5
1CED
330
18
100
AcDbEntity
  8
P-0000
  6
Continuous
 62
     7
100
AcDbLine
 10
951.5729421387696
 20
1724.231776975329
 30
0.0
 11
951.5729421387696
 21
1727.738997660271
 31
0.0
  0
LINE
  5
1CEE
330
18
100
AcDbEntity
  8
P-0000
  6
Continuous
 62
     7
100
AcDbLine
 10
951.5729421387696
 20
1728.355677129072
 30
0.0
 11
951.5729421387696
 21
1730.343098889912
 31
0.0
  0
LINE
  5
1CEF
330
18
100
AcDbEntity
  8
P-0000
  6
Continuous
 62
     7
100
AcDbLine
 10
951.5729421387696
 20
1730.738997660267
 30
0.0
 11
951.5729421387696
 21
1733.738997660267
 31
0.0
  0
LINE
  5
1CF0
330
18
100
AcDbEntity
  8
P-0000
  6
Continuous
 62
     7
100
AcDbLine
 10
951.5729421387696
 20
1715.238700611551
 30
0.0
 11
951.5729421387696
 21
1717.375179004454
 31
0.0
  0
LINE
  5
1CF1
330
18
100
AcDbEntity
  8
P-0000
  6
Continuous
 62
     7
100
AcDbLine
 10
951.5729421387696
 20
1717.738997660267
 30
0.0
 11
951.5729421387696
 21
1723.738997660269
 31
0.0
  0
ARC
  5
1D02
330
18
100
AcDbEntity
  8
P-0000
  6
Continuous
 62
     7
100
AcDbCircle
 10
944.8658696717624
 20
1730.538997660267
 30
0.0
 40
0.2
100
AcDbArc
 50
90.0
 51
180.0
  0
LINE
  5
1D03
330
18
100
AcDbEntity
  8
P-0000
  6
Continuous
 62
     7
100
AcDbLine
 10
951.5729421387696
 20
1714.738997660271
 30
0.0
 11
874.7729420576835
 21
1714.738997660271
 31
0.0
  0
ARC
  5
1D04
330
18
100
AcDbEntity
  8
P-0000
  6
Continuous
 62
     7
100
AcDbCircle
 10
944.8658696717624
 20
1714.938997660271
 30
0.0
 40
0.2
100
AcDbArc
 50
180.0
 51
270.0
  0
ARC
  5
1EB2
330
18
100
AcDbEntity
  8
P-0000
  6
Continuous
 62
     7
100
AcDbCircle
 10
950.5729421382216
 20
1594.758420737116
 30
0.0
 40
1.0
100
AcDbArc
 50
270.0
 51
0.0000000313886652
  0
ENDSEC
  0
SECTION
  2
OBJECTS
  0
DICTIONARY
  5
C
330
0
100
AcDbDictionary
281
     1
  3
ACAD_2007HEADERVARS_RT
350
249A
  3
ACAD_COLOR
350
17AD
  3
ACAD_GROUP
350
D
  3
ACAD_LAYOUT
350
17C5
  3
ACAD_MATERIAL
350
1783
  3
ACAD_MLEADERSTYLE
350
17C2
  3
ACAD_MLINESTYLE
350
E
  3
ACAD_PLOTSETTINGS
350
17C6
  3
ACAD_PLOTSTYLENAME
350
1781
  3
ACAD_SCALELIST
350
17B0
  3
ACAD_TABLESTYLE
350
17AE
  3
ACAD_VISUALSTYLE
350
179C
  3
ACDB_RECOMPOSE_DATA
350
2498
  3
AcDbVariableDictionary
350
198A
  3
AEC_PROPERTY_SET_DEFS
350
17F5
  3
DWGPROPS
350
2499
  3
qs_topprt_diz
350
17CE
  3
QSCATDICT
350
17CB
  3
QsPallStyleDict
350
17CD
  3
QsTop499
350
246C
  3
TopSpotLight
350
17D5
  0
DICTIONARY
  5
20E2
330
2
100
AcDbDictionary
280
     1
281
     1
  3
ACAD_LAYERSTATES
360
20E3
  0
DICTIONARY
  5
1952
330
F
100
AcDbDictionary
280
     1
281
     1
  3
ADSK_XREC_LAYER_RECONCILED
360
1953
  0
DICTIONARY
  5
1954
330
41
100
AcDbDictionary
280
     1
281
     1
  3
ADSK_XREC_LAYER_RECONCILED
360
1955
  0
DICTIONARY
  5
1956
330
42
100
AcDbDictionary
280
     1
281
     1
  3
ADSK_XREC_LAYER_RECONCILED
360
1957
  0
DICTIONARY
  5
1958
330
43
100
AcDbDictionary
280
     1
281
     1
  3
ADSK_XREC_LAYER_RECONCILED
360
1959
  0
DICTIONARY
  5
195A
330
44
100
AcDbDictionary
280
     1
281
     1
  3
ADSK_XREC_LAYER_RECONCILED
360
195B
  0
DICTIONARY
  5
195C
330
45
100
AcDbDictionary
280
     1
281
     1
  3
ADSK_XREC_LAYER_RECONCILED
360
195D
  0
DICTIONARY
  5
195E
330
17D0
100
AcDbDictionary
280
     1
281
     1
  3
ADSK_XREC_LAYER_RECONCILED
360
195F
  0
DICTIONARY
  5
249A
102
{ACAD_REACTORS
330
C
102
}
330
C
100
AcDbDictionary
281
     1
  3
INTERFEREVPVS
350
249B
  0
DICTIONARY
  5
17AD
102
{ACAD_REACTORS
330
C
102
}
330
C
100
AcDbDictionary
281
     1
  0
DICTIONARY
  5
D
102
{ACAD_REACTORS
330
C
102
}
330
C
100
AcDbDictionary
281
     1
  0
DICTIONARY
  5
17C5
102
{ACAD_REACTORS
330
C
102
}
330
C
100
AcDbDictionary
281
     1
  3
Layout1
350
17C8
  3
Model
350
17C7
  0
DICTIONARY
  5
1783
102
{ACAD_REACTORS
330
C
102
}
330
C
100
AcDbDictionary
281
     1
  3
ByBlock
350
178C
  3
ByLayer
350
1784
  3
Global
350
1794
  0
DICTIONARY
  5
17C2
102
{ACAD_REACTORS
330
C
102
}
330
C
100
AcDbDictionary
281
     1
  3
Standard
350
17C3
  0
DICTIONARY
  5
E
102
{ACAD_REACTORS
330
C
102
}
330
C
100
AcDbDictionary
281
     1
  3
STANDARD
350
1B
  0
DICTIONARY
  5
17C6
102
{ACAD_REACTORS
330
C
102
}
330
C
100
AcDbDictionary
281
     1
  3
Kyocera_1010 OR
350
21FF
  3
Kyocera_1010 VER
350
2200
  3
Olivetti_200 A3
350
2201
  3
Olivetti_200 A4
350
2202
  3
PLOTTER
350
2203
  0
ACDBDICTIONARYWDFLT
  5
1781
102
{ACAD_REACTORS
330
C
102
}
330
C
100
AcDbDictionary
281
     1
  3
Normal
350
1782
100
AcDbDictionaryWithDefault
340
1782
  0
DICTIONARY
  5
17B0
102
{ACAD_REACTORS
330
C
102
}
330
C
100
AcDbDictionary
281
     1
  3
*A1
350
199F
  3
*A10
350
19AB
  3
*A11
350
19AC
  3
*A12
350
19AD
  3
*A13
350
19AE
  3
*A14
350
19A0
  3
*A15
350
19A1
  3
*A16
350
19A2
  3
*A2
350
19A3
  3
*A3
350
19A4
  3
*A4
350
19A5
  3
*A5
350
19A6
  3
*A6
350
19A7
  3
*A7
350
19A8
  3
*A8
350
19A9
  3
*A9
350
19AA
  3
A0
350
17B1
  3
A1
350
17B2
  3
A2
350
17B3
  3
A3
350
17B4
  3
A4
350
17B5
  3
A5
350
17B6
  3
A6
350
17B7
  3
A7
350
17B8
  3
A8
350
17B9
  3
A9
350
17BA
  3
B0
350
17BB
  3
B1
350
17BC
  3
B2
350
17BD
  3
B3
350
17BE
  3
B4
350
17BF
  3
B5
350
17C0
  3
B6
350
17C1
  0
DICTIONARY
  5
17AE
102
{ACAD_REACTORS
330
C
102
}
330
C
100
AcDbDictionary
281
     1
  3
QSTABFORI
350
17EE
  3
QSTABREGION
350
17F0
  3
Standard
350
17AF
  0
DICTIONARY
  5
179C
102
{ACAD_REACTORS
330
C
102
}
330
C
100
AcDbDictionary
281
     1
  3
2dWireframe
350
17A2
  3
3D Hidden
350
17A4
  3
3dWireframe
350
17A3
  3
Basic
350
17A1
  3
Brighten
350
17A8
  3
ColorChange
350
17AC
  3
Conceptual
350
17A5
  3
Dim
350
17A7
  3
EdgeColorOff
350
247D
  3
Facepattern
350
17AB
  3
Flat
350
179D
  3
FlatWithEdges
350
179E
  3
Gouraud
350
179F
  3
GouraudWithEdges
350
17A0
  3
Hidden
350
2475
  3
JitterOff
350
247B
  3
Linepattern
350
17AA
  3
OverhangOff
350
247C
  3
Realistic
350
17A6
  3
Shaded
350
247A
  3
Shaded with edges
350
2479
  3
Shades of Gray
350
2476
  3
Sketchy
350
2477
  3
Thicken
350
17A9
  3
Wireframe
350
2474
  3
X-Ray
350
2478
  0
XRECORD
  5
2498
102
{ACAD_REACTORS
330
C
102
}
330
C
100
AcDbXrecord
280
     1
 90
        1
330
17AF
330
17EE
330
17F0
  0
DICTIONARY
  5
198A
102
{ACAD_REACTORS
330
C
102
}
330
C
100
AcDbDictionary
281
     1
  3
CANNOSCALE
350
198F
  3
CMLEADERSTYLE
350
198C
  3
CTABLESTYLE
350
198B
  3
DIMASSOC
350
2494
  3
DRAWORDERCTL
350
198D
  3
INDEXCTL
350
2492
  3
LAYEREVAL
350
1991
  3
LAYERNOTIFY
350
1992
  3
LIGHTINGUNITS
350
1990
  3
MSLTSCALE
350
198E
  3
SORTENTS
350
2491
  3
XCLIPFRAME
350
2493
  0
DICTIONARY
  5
17F5
102
{ACAD_REACTORS
330
C
102
}
330
C
100
AcDbDictionary
281
     1
  0
XRECORD
  5
2499
102
{ACAD_REACTORS
330
C
102
}
330
C
100
AcDbXrecord
280
     1
  1
DWGPROPS COOKIE
  2

  3

  4

  6

  7

  8
mpistoia
  9

300
=
301
=
302
=
303
=
304
=
305
=
306
=
307
=
308
=
309
=
 40
0.3501469791666667
 41
2452802.310883912
 42
2455705.63909007
  1

 90
        0
  0
DICTIONARY
  5
17CE
102
{ACAD_REACTORS
330
C
102
}
330
C
100
AcDbDictionary
281
     1
  3
UCNT
350
17CF
  0
DICTIONARY
  5
17CB
102
{ACAD_REACTORS
330
C
102
}
330
C
100
AcDbDictionary
280
     1
281
     1
  3
DEFAULT
360
17CC
  0
DICTIONARY
  5
17CD
102
{ACAD_REACTORS
330
C
102
}
330
C
100
AcDbDictionary
281
     1
  3
DEFAULT
350
2209
  0
DICTIONARY
  5
246C
102
{ACAD_REACTORS
330
C
102
}
330
C
100
AcDbDictionary
281
     1
  3
TOP
350
246F
  3
X25bf
350
246D
  3
X4177
350
246E
  0
DICTIONARY
  5
17D5
102
{ACAD_REACTORS
330
C
102
}
330
C
100
AcDbDictionary
281
     1
  3
colors
350
17D6
  0
DICTIONARY
  5
20E3
102
{ACAD_REACTORS
330
20E2
102
}
330
20E2
100
AcDbDictionary
281
     1
  0
XRECORD
  5
1953
102
{ACAD_REACTORS
330
1952
102
}
330
1952
100
AcDbXrecord
280
     1
290
     1
  0
XRECORD
  5
1955
102
{ACAD_REACTORS
330
1954
102
}
330
1954
100
AcDbXrecord
280
     1
290
     1
  0
XRECORD
  5
1957
102
{ACAD_REACTORS
330
1956
102
}
330
1956
100
AcDbXrecord
280
     1
290
     1
  0
XRECORD
  5
1959
102
{ACAD_REACTORS
330
1958
102
}
330
1958
100
AcDbXrecord
280
     1
290
     1
  0
XRECORD
  5
195B
102
{ACAD_REACTORS
330
195A
102
}
330
195A
100
AcDbXrecord
280
     1
290
     1
  0
XRECORD
  5
195D
102
{ACAD_REACTORS
330
195C
102
}
330
195C
100
AcDbXrecord
280
     1
290
     1
  0
XRECORD
  5
195F
102
{ACAD_REACTORS
330
195E
102
}
330
195E
100
AcDbXrecord
280
     1
290
     1
  0
XRECORD
  5
249B
102
{ACAD_REACTORS
330
249A
102
}
330
249A
100
AcDbXrecord
280
     1
340
17A3
  0
LAYOUT
  5
17C8
102
{ACAD_XDICTIONARY
360
24C2
102
}
102
{ACAD_REACTORS
330
17C5
102
}
330
17C5
100
AcDbPlotSettings
  1

  2
HP LJ 5200
  4

  6

 40
0.0
 41
0.0
 42
0.0
 43
0.0
 44
0.0
 45
0.0
 46
0.0
 47
0.0
 48
0.0
 49
0.0
140
0.0
141
0.0
142
1.0
143
1.0
 70
   688
 72
     0
 73
     0
 74
     5
  7
DIERRE BN.ctb
 75
    16
147
1.0
148
0.0
149
0.0
100
AcDbLayout
  1
Layout1
 70
     1
 71
     1
 10
0.0
 20
0.0
 11
12.0
 21
9.0
 12
0.0
 22
0.0
 32
0.0
 14
1.000000000000000E+20
 24
1.000000000000000E+20
 34
1.000000000000000E+20
 15
-1.000000000000000E+20
 25
-1.000000000000000E+20
 35
-1.000000000000000E+20
146
0.0
 13
0.0
 23
0.0
 33
0.0
 16
1.0
 26
0.0
 36
0.0
 17
0.0
 27
1.0
 37
0.0
 76
     0
330
15
  0
LAYOUT
  5
17C7
102
{ACAD_XDICTIONARY
360
24C0
102
}
102
{ACAD_REACTORS
330
17C5
102
}
330
17C5
100
AcDbPlotSettings
  1

  2
none_device
  4
ISO_A4_(210.00_x_297.00_MM)
  6

 40
7.5
 41
20.0
 42
7.5
 43
20.0
 44
210.0
 45
297.0
 46
0.0
 47
0.0
 48
0.0
 49
0.0
140
0.0
141
0.0
142
1.0
143
1.953039282973311
 70
 11952
 72
     1
 73
     1
 74
     0
  7
DIERRE BN.ctb
 75
     0
147
0.5120224711904401
148
-774.9627710631819
149
-1481.336195572089
100
AcDbLayout
  1
Model
 70
     1
 71
     0
 10
0.0
 20
0.0
 11
12.0
 21
9.0
 12
0.0
 22
0.0
 32
0.0
 14
0.0
 24
0.0
 34
0.0
 15
0.0
 25
0.0
 35
0.0
146
0.0
 13
0.0
 23
0.0
 33
0.0
 16
1.0
 26
0.0
 36
0.0
 17
0.0
 27
1.0
 37
0.0
 76
     0
330
18
331
177F
1001
ACAD_PSEXT
1000
Nessuno
1000
Nessuno
1000
Non applicabile
1000
Il layout non viene stampato a meno che non venga selezionato un nuovo nome di configurazione della stampante.
1070
     0
  0
MATERIAL
  5
178C
102
{ACAD_XDICTIONARY
360
178D
102
}
102
{ACAD_REACTORS
330
1783
102
}
330
1783
100
AcDbMaterial
  1
ByBlock
 72
     0
 43
0.0208333333333333
 43
0.0
 43
0.0
 43
0.0
 43
0.0
 43
0.0208333333333333
 43
0.0
 43
0.0
 43
0.0
 43
0.0
 43
1.0
 43
0.0
 43
0.0
 43
0.0
 43
0.0
 43
1.0
 77
     0
 47
0.0208333333333333
 47
0.0
 47
0.0
 47
0.0
 47
0.0
 47
0.0208333333333333
 47
0.0
 47
0.0
 47
0.0
 47
0.0
 47
1.0
 47
0.0
 47
0.0
 47
0.0
 47
0.0
 47
1.0
171
     0
 49
0.0208333333333333
 49
0.0
 49
0.0
 49
0.0
 49
0.0
 49
0.0208333333333333
 49
0.0
 49
0.0
 49
0.0
 49
0.0
 49
1.0
 49
0.0
 49
0.0
 49
0.0
 49
0.0
 49
1.0
175
     0
142
0.0208333333333333
142
0.0
142
0.0
142
0.0
142
0.0
142
0.0208333333333333
142
0.0
142
0.0
142
0.0
142
0.0
142
1.0
142
0.0
142
0.0
142
0.0
142
0.0
142
1.0
179
     0
144
0.0208333333333333
144
0.0
144
0.0
144
0.0
144
0.0
144
0.0208333333333333
144
0.0
144
0.0
144
0.0
144
0.0
144
1.0
144
0.0
144
0.0
144
0.0
144
0.0
144
1.0
147
0.0208333333333333
147
0.0
147
0.0
147
0.0
147
0.0
147
0.0208333333333333
147
0.0
147
0.0
147
0.0
147
0.0
147
1.0
147
0.0
147
0.0
147
0.0
147
0.0
147
1.0
  0
MATERIAL
  5
1784
102
{ACAD_XDICTIONARY
360
1785
102
}
102
{ACAD_REACTORS
330
1783
102
}
330
1783
100
AcDbMaterial
  1
ByLayer
 72
     0
 43
0.0208333333333333
 43
0.0
 43
0.0
 43
0.0
 43
0.0
 43
0.0208333333333333
 43
0.0
 43
0.0
 43
0.0
 43
0.0
 43
1.0
 43
0.0
 43
0.0
 43
0.0
 43
0.0
 43
1.0
 77
     0
 47
0.0208333333333333
 47
0.0
 47
0.0
 47
0.0
 47
0.0
 47
0.0208333333333333
 47
0.0
 47
0.0
 47
0.0
 47
0.0
 47
1.0
 47
0.0
 47
0.0
 47
0.0
 47
0.0
 47
1.0
171
     0
 49
0.0208333333333333
 49
0.0
 49
0.0
 49
0.0
 49
0.0
 49
0.0208333333333333
 49
0.0
 49
0.0
 49
0.0
 49
0.0
 49
1.0
 49
0.0
 49
0.0
 49
0.0
 49
0.0
 49
1.0
175
     0
142
0.0208333333333333
142
0.0
142
0.0
142
0.0
142
0.0
142
0.0208333333333333
142
0.0
142
0.0
142
0.0
142
0.0
142
1.0
142
0.0
142
0.0
142
0.0
142
0.0
142
1.0
179
     0
144
0.0208333333333333
144
0.0
144
0.0
144
0.0
144
0.0
144
0.0208333333333333
144
0.0
144
0.0
144
0.0
144
0.0
144
1.0
144
0.0
144
0.0
144
0.0
144
0.0
144
1.0
147
0.0208333333333333
147
0.0
147
0.0
147
0.0
147
0.0
147
0.0208333333333333
147
0.0
147
0.0
147
0.0
147
0.0
147
1.0
147
0.0
147
0.0
147
0.0
147
0.0
147
1.0
  0
MATERIAL
  5
1794
102
{ACAD_XDICTIONARY
360
1795
102
}
102
{ACAD_REACTORS
330
1783
102
}
330
1783
100
AcDbMaterial
  1
Global
 72
     0
 43
0.0208333333333333
 43
0.0
 43
0.0
 43
0.0
 43
0.0
 43
0.0208333333333333
 43
0.0
 43
0.0
 43
0.0
 43
0.0
 43
1.0
 43
0.0
 43
0.0
 43
0.0
 43
0.0
 43
1.0
 77
     0
 47
0.0208333333333333
 47
0.0
 47
0.0
 47
0.0
 47
0.0
 47
0.0208333333333333
 47
0.0
 47
0.0
 47
0.0
 47
0.0
 47
1.0
 47
0.0
 47
0.0
 47
0.0
 47
0.0
 47
1.0
171
     0
 49
0.0208333333333333
 49
0.0
 49
0.0
 49
0.0
 49
0.0
 49
0.0208333333333333
 49
0.0
 49
0.0
 49
0.0
 49
0.0
 49
1.0
 49
0.0
 49
0.0
 49
0.0
 49
0.0
 49
1.0
175
     0
142
0.0208333333333333
142
0.0
142
0.0
142
0.0
142
0.0
142
0.0208333333333333
142
0.0
142
0.0
142
0.0
142
0.0
142
1.0
142
0.0
142
0.0
142
0.0
142
0.0
142
1.0
179
     0
144
0.0208333333333333
144
0.0
144
0.0
144
0.0
144
0.0
144
0.0208333333333333
144
0.0
144
0.0
144
0.0
144
0.0
144
1.0
144
0.0
144
0.0
144
0.0
144
0.0
144
1.0
147
0.0208333333333333
147
0.0
147
0.0
147
0.0
147
0.0
147
0.0208333333333333
147
0.0
147
0.0
147
0.0
147
0.0
147
1.0
147
0.0
147
0.0
147
0.0
147
0.0
147
1.0
  0
MLEADERSTYLE
  5
17C3
102
{ACAD_REACTORS
330
17C2
102
}
330
17C2
100
AcDbMLeaderStyle
170
     2
171
     1
172
     0
 90
        2
 40
0.0
 41
0.0
173
     1
 91
-1056964608
340
12
 92
       -2
290
     1
 42
2.0
291
     1
 43
0.36
  3
Standard
 44
4.0
300

342
10
174
     1
178
     6
175
     1
176
     0
 93
-1056964608
 45
4.0
292
     0
297
     0
 46
4.0
 94
-1056964608
 47
1.0
 49
1.0
140
1.0
293
     1
141
0.0
294
     1
177
     0
142
1.0
295
     0
296
     0
143
0.125
1001
ACAD_MLEADERVER
1070
     2
  0
MLINESTYLE
  5
1B
102
{ACAD_REACTORS
330
E
102
}
330
E
100
AcDbMlineStyle
  2
STANDARD
 70
     0
  3

 62
     0
 51
90.0
 52
90.0
 71
     2
 49
0.5
 62
   256
  6
BYLAYER
 49
-0.5
 62
   256
  6
BYLAYER
  0
PLOTSETTINGS
  5
21FF
102
{ACAD_XDICTIONARY
360
24C6
102
}
102
{ACAD_REACTORS
330
17C6
102
}
330
17C6
100
AcDbPlotSettings
  1
Kyocera_1010 OR
  2
Kyocera_1010.pc3
  4
A4
  6

 40
4.984749794006347
 41
5.154074668884277
 42
5.111740112304687
 43
4.9847412109375
 44
210.0156707763672
 45
297.0106506347656
 46
0.0
 47
109.7870247470818
 48
0.0
 49
0.0
140
0.0
141
0.0
142
1.0
143
0.6770771918566143
 70
 11956
 72
     1
 73
     1
 74
     1
  7
DIERRE BN.ctb
 75
     0
147
1.476936473458659
148
-222.4649060220283
149
-239.0808115236937
1001
ACAD_PSEXT
1000
Kyocera_1010.pc3
1000
Kyocera Mita FS-1010 KX
1000
\\PC5
1000

1070
     0
  0
PLOTSETTINGS
  5
2200
102
{ACAD_XDICTIONARY
360
24C8
102
}
102
{ACAD_REACTORS
330
17C6
102
}
330
17C6
100
AcDbPlotSettings
  1
Kyocera_1010 VER
  2
Kyocera_1010.pc3
  4
A4
  6

 40
4.984749794006347
 41
5.154074668884277
 42
5.111740112304687
 43
4.9847412109375
 44
210.0156707763672
 45
297.0106506347656
 46
51.67548120477697
 47
0.0
 48
0.0
 49
0.0
140
0.0
141
0.0
142
1.0
143
0.4718508448115938
 70
 11956
 72
     1
 73
     0
 74
     1
  7
DIERRE BN.ctb
 75
     0
147
2.119313785268927
148
-222.4649060220283
149
-239.0808115236937
1001
ACAD_PSEXT
1000
Kyocera_1010.pc3
1000
Kyocera Mita FS-1010 KX
1000
\\PC5
1000

1070
     0
  0
PLOTSETTINGS
  5
2201
102
{ACAD_XDICTIONARY
360
24CA
102
}
102
{ACAD_REACTORS
330
17C6
102
}
330
17C6
100
AcDbPlotSettings
  1
Olivetti_200 A3
  2
Olivetti_200.pc3
  4
A3
  6

 40
4.984749794006347
 41
5.111746788024902
 42
5.154083251953125
 43
4.9847412109375
 44
297.0106506347656
 45
419.9889831542968
 46
0.0
 47
156.6621412366913
 48
0.0
 49
0.0
140
0.0
141
0.0
142
1.0
143
0.4718508730467012
 70
 11956
 72
     1
 73
     1
 74
     1
  7
DIERRE BN.ctb
 75
     0
147
2.119313658451206
148
-222.4649060220283
149
-239.0808115236937
1001
ACAD_PSEXT
1000
Olivetti_200.pc3
1000
Olivetti d-Copia 200MF KX
1000
IP_192.168.1.151
1000

1070
     0
  0
PLOTSETTINGS
  5
2202
102
{ACAD_XDICTIONARY
360
24CC
102
}
102
{ACAD_REACTORS
330
17C6
102
}
330
17C6
100
AcDbPlotSettings
  1
Olivetti_200 A4
  2
Olivetti_200.pc3
  4
A4
  6

 40
4.984749794006347
 41
5.154074668884277
 42
5.111740112304687
 43
4.9847412109375
 44
210.0156707763672
 45
297.0106506347656
 46
51.67548120477697
 47
0.0
 48
0.0
 49
0.0
140
0.0
141
0.0
142
1.0
143
0.4718508448115938
 70
 11956
 72
     1
 73
     0
 74
     1
  7
DIERRE BN.ctb
 75
     0
147
2.119313785268927
148
-222.4649060220283
149
-239.0808115236937
1001
ACAD_PSEXT
1000
Olivetti_200.pc3
1000
Olivetti d-Copia 200MF KX
1000
IP_192.168.1.151
1000

1070
     0
  0
PLOTSETTINGS
  5
2203
102
{ACAD_XDICTIONARY
360
24CE
102
}
102
{ACAD_REACTORS
330
17C6
102
}
330
17C6
100
AcDbPlotSettings
  1
PLOTTER
  2
PLOTTER.pc3
  4
User622
  6

 40
0.0
 41
0.0
 42
0.0
 43
0.0
 44
841.0
 45
1189.0
 46
0.0
 47
0.0
 48
0.0
 49
0.0
140
0.0
141
0.0
142
1.0
143
1.0
 70
 11936
 72
     1
 73
     0
 74
     1
  7
DIERRE BN.ctb
 75
     0
147
2.194137304425714
148
-222.4649060220283
149
-239.0808115236937
1001
ACAD_PSEXT
1000
PLOTTER.pc3
1000
HP DesignJet 430 (E/A0) by HP
1000
\\SERVER2003
1000

1070
     0
  0
ACDBPLACEHOLDER
  5
1782
102
{ACAD_REACTORS
330
1781
102
}
330
1781
  0
SCALE
  5
199F
102
{ACAD_REACTORS
330
17B0
102
}
330
17B0
100
AcDbScale
 70
     0
300
1/128" = 1'-0"
140
0.0078125
141
12.0
290
     0
  0
SCALE
  5
19AB
102
{ACAD_REACTORS
330
17B0
102
}
330
17B0
100
AcDbScale
 70
     0
300
1-1/2" = 1'-0"
140
1.5
141
12.0
290
     0
  0
SCALE
  5
19AC
102
{ACAD_REACTORS
330
17B0
102
}
330
17B0
100
AcDbScale
 70
     0
300
3" = 1'-0"
140
3.0
141
12.0
290
     0
  0
SCALE
  5
19AD
102
{ACAD_REACTORS
330
17B0
102
}
330
17B0
100
AcDbScale
 70
     0
300
6" = 1'-0"
140
6.0
141
12.0
290
     0
  0
SCALE
  5
19AE
102
{ACAD_REACTORS
330
17B0
102
}
330
17B0
100
AcDbScale
 70
     0
300
1'-0" = 1'-0"
140
12.0
141
12.0
290
     0
  0
SCALE
  5
19A0
102
{ACAD_REACTORS
330
17B0
102
}
330
17B0
100
AcDbScale
 70
     0
300
1/64" = 1'-0"
140
0.015625
141
12.0
290
     0
  0
SCALE
  5
19A1
102
{ACAD_REACTORS
330
17B0
102
}
330
17B0
100
AcDbScale
 70
     0
300
1/32" = 1'-0"
140
0.03125
141
12.0
290
     0
  0
SCALE
  5
19A2
102
{ACAD_REACTORS
330
17B0
102
}
330
17B0
100
AcDbScale
 70
     0
300
1/16" = 1'-0"
140
0.0625
141
12.0
290
     0
  0
SCALE
  5
19A3
102
{ACAD_REACTORS
330
17B0
102
}
330
17B0
100
AcDbScale
 70
     0
300
3/32" = 1'-0"
140
0.09375
141
12.0
290
     0
  0
SCALE
  5
19A4
102
{ACAD_REACTORS
330
17B0
102
}
330
17B0
100
AcDbScale
 70
     0
300
1/8" = 1'-0"
140
0.125
141
12.0
290
     0
  0
SCALE
  5
19A5
102
{ACAD_REACTORS
330
17B0
102
}
330
17B0
100
AcDbScale
 70
     0
300
3/16" = 1'-0"
140
0.1875
141
12.0
290
     0
  0
SCALE
  5
19A6
102
{ACAD_REACTORS
330
17B0
102
}
330
17B0
100
AcDbScale
 70
     0
300
1/4" = 1'-0"
140
0.25
141
12.0
290
     0
  0
SCALE
  5
19A7
102
{ACAD_REACTORS
330
17B0
102
}
330
17B0
100
AcDbScale
 70
     0
300
3/8" = 1'-0"
140
0.375
141
12.0
290
     0
  0
SCALE
  5
19A8
102
{ACAD_REACTORS
330
17B0
102
}
330
17B0
100
AcDbScale
 70
     0
300
1/2" = 1'-0"
140
0.5
141
12.0
290
     0
  0
SCALE
  5
19A9
102
{ACAD_REACTORS
330
17B0
102
}
330
17B0
100
AcDbScale
 70
     0
300
3/4" = 1'-0"
140
0.75
141
12.0
290
     0
  0
SCALE
  5
19AA
102
{ACAD_REACTORS
330
17B0
102
}
330
17B0
100
AcDbScale
 70
     0
300
1" = 1'-0"
140
1.0
141
12.0
290
     0
  0
SCALE
  5
17B1
102
{ACAD_REACTORS
330
17B0
102
}
330
17B0
100
AcDbScale
 70
     0
300
1:1
140
1.0
141
1.0
290
     1
  0
SCALE
  5
17B2
102
{ACAD_REACTORS
330
17B0
102
}
330
17B0
100
AcDbScale
 70
     0
300
1:2
140
1.0
141
2.0
290
     0
  0
SCALE
  5
17B3
102
{ACAD_REACTORS
330
17B0
102
}
330
17B0
100
AcDbScale
 70
     0
300
1:4
140
1.0
141
4.0
290
     0
  0
SCALE
  5
17B4
102
{ACAD_REACTORS
330
17B0
102
}
330
17B0
100
AcDbScale
 70
     0
300
1:5
140
1.0
141
5.0
290
     0
  0
SCALE
  5
17B5
102
{ACAD_REACTORS
330
17B0
102
}
330
17B0
100
AcDbScale
 70
     0
300
1:8
140
1.0
141
8.0
290
     0
  0
SCALE
  5
17B6
102
{ACAD_REACTORS
330
17B0
102
}
330
17B0
100
AcDbScale
 70
     0
300
1:10
140
1.0
141
10.0
290
     0
  0
SCALE
  5
17B7
102
{ACAD_REACTORS
330
17B0
102
}
330
17B0
100
AcDbScale
 70
     0
300
1:16
140
1.0
141
16.0
290
     0
  0
SCALE
  5
17B8
102
{ACAD_REACTORS
330
17B0
102
}
330
17B0
100
AcDbScale
 70
     0
300
1:20
140
1.0
141
20.0
290
     0
  0
SCALE
  5
17B9
102
{ACAD_REACTORS
330
17B0
102
}
330
17B0
100
AcDbScale
 70
     0
300
1:30
140
1.0
141
30.0
290
     0
  0
SCALE
  5
17BA
102
{ACAD_REACTORS
330
17B0
102
}
330
17B0
100
AcDbScale
 70
     0
300
1:40
140
1.0
141
40.0
290
     0
  0
SCALE
  5
17BB
102
{ACAD_REACTORS
330
17B0
102
}
330
17B0
100
AcDbScale
 70
     0
300
1:50
140
1.0
141
50.0
290
     0
  0
SCALE
  5
17BC
102
{ACAD_REACTORS
330
17B0
102
}
330
17B0
100
AcDbScale
 70
     0
300
1:100
140
1.0
141
100.0
290
     0
  0
SCALE
  5
17BD
102
{ACAD_REACTORS
330
17B0
102
}
330
17B0
100
AcDbScale
 70
     0
300
2:1
140
2.0
141
1.0
290
     0
  0
SCALE
  5
17BE
102
{ACAD_REACTORS
330
17B0
102
}
330
17B0
100
AcDbScale
 70
     0
300
4:1
140
4.0
141
1.0
290
     0
  0
SCALE
  5
17BF
102
{ACAD_REACTORS
330
17B0
102
}
330
17B0
100
AcDbScale
 70
     0
300
8:1
140
8.0
141
1.0
290
     0
  0
SCALE
  5
17C0
102
{ACAD_REACTORS
330
17B0
102
}
330
17B0
100
AcDbScale
 70
     0
300
10:1
140
10.0
141
1.0
290
     0
  0
SCALE
  5
17C1
102
{ACAD_REACTORS
330
17B0
102
}
330
17B0
100
AcDbScale
 70
     0
300
100:1
140
100.0
141
1.0
290
     0
  0
TABLESTYLE
  5
17EE
102
{ACAD_XDICTIONARY
360
17EF
102
}
102
{ACAD_REACTORS
330
17AE
102
}
330
17AE
100
AcDbTableStyle
  3
Standard
 70
     1
 71
     0
 40
1.5
 41
1.5
280
     1
281
     0
  7
ROMANS
140
3.0
170
     5
 62
     7
 63
     7
283
     0
274
    -2
284
     1
 64
     0
275
    -2
285
     1
 65
     0
276
    -2
286
     1
 66
     0
277
    -2
287
     1
 67
     0
278
    -2
288
     1
 68
     0
279
    -2
289
     1
 69
     0
  7
ROMANS
140
6.0
170
     5
 62
     1
 63
     7
283
     0
274
    -2
284
     1
 64
     0
275
    -2
285
     1
 65
     0
276
    -2
286
     1
 66
     0
277
    -2
287
     1
 67
     0
278
    -2
288
     1
 68
     0
279
    -2
289
     1
 69
     0
  7
ROMANS
140
3.5
170
     5
 62
     3
 63
     7
283
     0
274
    -2
284
     1
 64
     0
275
    -2
285
     1
 65
     0
276
    -2
286
     1
 66
     0
277
    -2
287
     1
 67
     0
278
    -2
288
     1
 68
     0
279
    -2
289
     1
 69
     0
  0
TABLESTYLE
  5
17F0
102
{ACAD_XDICTIONARY
360
17F1
102
}
102
{ACAD_REACTORS
330
17AE
102
}
330
17AE
100
AcDbTableStyle
  3
Standard
 70
     0
 71
     0
 40
1.5
 41
1.5
280
     0
281
     0
  7
ROMANS
140
4.5
170
     5
 62
     7
 63
     7
283
     0
274
    -2
284
     1
 64
     0
275
    -2
285
     1
 65
     0
276
    -2
286
     1
 66
     0
277
    -2
287
     1
 67
     0
278
    -2
288
     1
 68
     0
279
    -2
289
     1
 69
     0
  7
ROMANS
140
6.0
170
     5
 62
     1
 63
     7
283
     0
274
    -2
284
     1
 64
     0
275
    -2
285
     1
 65
     0
276
    -2
286
     1
 66
     0
277
    -2
287
     1
 67
     0
278
    -2
288
     1
 68
     0
279
    -2
289
     1
 69
     0
  7
ROMANS
140
5.0
170
     5
 62
     3
 63
     7
283
     0
274
    -2
284
     1
 64
     0
275
    -2
285
     1
 65
     0
276
    -2
286
     1
 66
     0
277
    -2
287
     1
 67
     0
278
    -2
288
     1
 68
     0
279
    -2
289
     1
 69
     0
  0
TABLESTYLE
  5
17AF
102
{ACAD_XDICTIONARY
360
1985
102
}
102
{ACAD_REACTORS
330
17AE
102
}
330
17AE
100
AcDbTableStyle
  3
Standard
 70
     0
 71
     0
 40
1.5
 41
1.5
280
     0
281
     0
  7
STANDARD
140
4.5
170
     2
 62
     0
 63
     7
283
     0
274
    -2
284
     1
 64
     0
275
    -2
285
     1
 65
     0
276
    -2
286
     1
 66
     0
277
    -2
287
     1
 67
     0
278
    -2
288
     1
 68
     0
279
    -2
289
     1
 69
     0
  7
STANDARD
140
6.0
170
     5
 62
     0
 63
     7
283
     0
274
    -2
284
     1
 64
     0
275
    -2
285
     1
 65
     0
276
    -2
286
     1
 66
     0
277
    -2
287
     1
 67
     0
278
    -2
288
     1
 68
     0
279
    -2
289
     1
 69
     0
  7
STANDARD
140
4.5
170
     5
 62
     0
 63
     7
283
     0
274
    -2
284
     1
 64
     0
275
    -2
285
     1
 65
     0
276
    -2
286
     1
 66
     0
277
    -2
287
     1
 67
     0
278
    -2
288
     1
 68
     0
279
    -2
289
     1
 69
     0
  0
VISUALSTYLE
  5
17A2
102
{ACAD_XDICTIONARY
360
24A9
102
}
102
{ACAD_REACTORS
330
179C
102
}
330
179C
100
AcDbVisualStyle
  2
2dWireframe
 70
     4
 71
     0
 72
     2
 73
     0
 90
        0
 40
-0.6
 41
-30.0
 62
     5
 63
     7
 74
     1
 91
        4
 64
     7
 65
   257
 75
     1
175
     1
 42
1.0
 92
        0
 66
   257
 43
1.0
 76
     1
 77
     6
 78
     2
 67
     7
 79
     5
170
     0
171
     0
290
     0
174
     0
 93
        1
 44
0.0
173
     0
291
     0
 45
0.0
1001
ACAD
1000
AcDbSavedByObjectVersion
1070
     0
  0
VISUALSTYLE
  5
17A4
102
{ACAD_XDICTIONARY
360
24AD
102
}
102
{ACAD_REACTORS
330
179C
102
}
330
179C
100
AcDbVisualStyle
  2
3D Hidden
 70
     6
 71
     1
 72
     2
 73
     2
 90
        0
 40
-0.6
 41
-30.0
 62
     5
 63
     7
 74
     2
 91
        2
 64
     7
 65
   257
 75
     2
175
     1
 42
40.0
 92
        0
 66
   257
 43
1.0
 76
     1
 77
     6
 78
     2
 67
     7
 79
     3
170
     0
171
     0
290
     0
174
     0
 93
        1
 44
0.0
173
     0
291
     0
 45
0.0
1001
ACAD
1000
AcDbSavedByObjectVersion
1070
     0
  0
VISUALSTYLE
  5
17A3
102
{ACAD_XDICTIONARY
360
24AB
102
}
102
{ACAD_REACTORS
330
179C
102
}
330
179C
100
AcDbVisualStyle
  2
3dWireframe
 70
     5
 71
     0
 72
     2
 73
     0
 90
        0
 40
-0.6
 41
-30.0
 62
     5
 63
     7
 74
     1
 91
        4
 64
     7
 65
   257
 75
     1
175
     1
 42
1.0
 92
        0
 66
   257
 43
1.0
 76
     1
 77
     6
 78
     2
 67
     7
 79
     5
170
     0
171
     0
290
     0
174
     0
 93
        1
 44
0.0
173
     0
291
     0
 45
0.0
1001
ACAD
1000
AcDbSavedByObjectVersion
1070
     0
  0
VISUALSTYLE
  5
17A1
102
{ACAD_XDICTIONARY
360
24A7
102
}
102
{ACAD_REACTORS
330
179C
102
}
330
179C
100
AcDbVisualStyle
  2
Basic
 70
     7
 71
     1
 72
     0
 73
     1
 90
        0
 40
-0.6
 41
-30.0
 62
     5
 63
     7
 74
     0
 91
        4
 64
     7
 65
   257
 75
     1
175
     1
 42
1.0
 92
        8
 66
     7
 43
1.0
 76
     1
 77
     6
 78
     2
 67
     7
 79
     5
170
     0
171
     0
290
     0
174
     0
 93
        1
 44
0.0
173
     0
291
     1
 45
0.0
1001
ACAD
1000
AcDbSavedByObjectVersion
1070
     0
  0
VISUALSTYLE
  5
17A8
102
{ACAD_XDICTIONARY
360
24B5
102
}
102
{ACAD_REACTORS
330
179C
102
}
330
179C
100
AcDbVisualStyle
  2
Brighten
 70
    12
 71
     2
 72
     2
 73
     0
 90
        0
 40
-0.6
 41
-30.0
 62
     5
 63
     7
 74
     1
 91
        4
 64
     7
 65
   257
 75
     1
175
     1
 42
1.0
 92
        8
 66
     7
 43
1.0
 76
     1
 77
     6
 78
     2
 67
     7
 79
     5
170
     0
171
     0
290
     0
174
     0
 93
        1
 44
50.0
173
     0
291
     1
 45
0.0
1001
ACAD
1000
AcDbSavedByObjectVersion
1070
     0
  0
VISUALSTYLE
  5
17AC
102
{ACAD_XDICTIONARY
360
24BD
102
}
102
{ACAD_REACTORS
330
179C
102
}
330
179C
100
AcDbVisualStyle
  2
ColorChange
 70
    16
 71
     2
 72
     2
 73
     3
 90
        0
 40
-0.6
 41
-30.0
 62
     5
 63
     8
 74
     1
 91
        4
 64
     7
 65
   257
 75
     1
175
     1
 42
1.0
 92
        8
 66
     8
 43
1.0
 76
     1
 77
     6
 78
     2
 67
     7
 79
     5
170
     0
171
     0
290
     0
174
     0
 93
        1
 44
0.0
173
     0
291
     1
 45
0.0
1001
ACAD
1000
AcDbSavedByObjectVersion
1070
     0
  0
VISUALSTYLE
  5
17A5
102
{ACAD_XDICTIONARY
360
24AF
102
}
102
{ACAD_REACTORS
330
179C
102
}
330
179C
100
AcDbVisualStyle
  2
Conceptual
 70
     9
 71
     3
 72
     2
 73
     0
 90
        0
 40
-0.6
 41
-30.0
 62
     5
 63
     7
 74
     2
 91
        2
 64
     7
 65
   257
 75
     1
175
     1
 42
40.0
 92
        8
 66
     7
 43
1.0
 76
     1
 77
     6
 78
     2
 67
     7
 79
     3
170
     0
171
     0
290
     0
174
     0
 93
        1
 44
0.0
173
     0
291
     0
 45
0.0
1001
ACAD
1000
AcDbSavedByObjectVersion
1070
     0
  0
VISUALSTYLE
  5
17A7
102
{ACAD_XDICTIONARY
360
24B3
102
}
102
{ACAD_REACTORS
330
179C
102
}
330
179C
100
AcDbVisualStyle
  2
Dim
 70
    11
 71
     2
 72
     2
 73
     0
 90
        0
 40
-0.6
 41
-30.0
 62
     5
 63
     7
 74
     1
 91
        4
 64
     7
 65
   257
 75
     1
175
     1
 42
1.0
 92
        8
 66
     7
 43
1.0
 76
     1
 77
     6
 78
     2
 67
     7
 79
     5
170
     0
171
     0
290
     0
174
     0
 93
        1
 44
-50.0
173
     0
291
     1
 45
0.0
1001
ACAD
1000
AcDbSavedByObjectVersion
1070
     0
  0
VISUALSTYLE
  5
247D
102
{ACAD_XDICTIONARY
360
24E3
102
}
102
{ACAD_REACTORS
330
179C
102
}
330
179C
100
AcDbVisualStyle
  2
EdgeColorOff
 70
    22
 71
     2
 72
     2
 73
     0
 90
        0
 40
-0.6
 41
-30.0
 62
     5
 63
     7
 74
     1
 91
        4
 64
     7
 65
   257
 75
     1
175
     1
 42
1.0
 92
        8
 66
     7
 43
1.0
 76
     1
 77
     6
 78
     2
 67
     7
 79
     5
170
     0
171
     0
290
     0
174
     0
 93
        1
 44
0.0
173
     0
291
     1
 45
0.0
1001
ACAD
1000
AcDbSavedByObjectVersion
1070
     0
  0
VISUALSTYLE
  5
17AB
102
{ACAD_XDICTIONARY
360
24BB
102
}
102
{ACAD_REACTORS
330
179C
102
}
330
179C
100
AcDbVisualStyle
  2
Facepattern
 70
    15
 71
     2
 72
     2
 73
     0
 90
        0
 40
-0.6
 41
-30.0
 62
     5
 63
     7
 74
     1
 91
        4
 64
     7
 65
   257
 75
     1
175
     1
 42
1.0
 92
        8
 66
     7
 43
1.0
 76
     1
 77
     6
 78
     2
 67
     7
 79
     5
170
     0
171
     0
290
     0
174
     0
 93
        1
 44
0.0
173
     0
291
     1
 45
0.0
1001
ACAD
1000
AcDbSavedByObjectVersion
1070
     0
  0
VISUALSTYLE
  5
179D
102
{ACAD_XDICTIONARY
360
249F
102
}
102
{ACAD_REACTORS
330
179C
102
}
330
179C
100
AcDbVisualStyle
  2
Flat
 70
     0
 71
     2
 72
     1
 73
     1
 90
        2
 40
-0.6
 41
30.0
 62
     5
 63
     7
 74
     0
 91
        4
 64
     7
 65
   257
 75
     1
175
     1
 42
1.0
 92
        8
 66
     7
 43
1.0
 76
     1
 77
     6
 78
     2
 67
     7
 79
     5
170
     0
171
     0
290
     0
174
     0
 93
       13
 44
0.0
173
     0
291
     1
 45
0.0
1001
ACAD
1000
AcDbSavedByObjectVersion
1070
     0
  0
VISUALSTYLE
  5
179E
102
{ACAD_XDICTIONARY
360
24A1
102
}
102
{ACAD_REACTORS
330
179C
102
}
330
179C
100
AcDbVisualStyle
  2
FlatWithEdges
 70
     1
 71
     2
 72
     1
 73
     1
 90
        2
 40
-0.6
 41
30.0
 62
     5
 63
     7
 74
     1
 91
        4
 64
     7
 65
   257
 75
     1
175
     1
 42
1.0
 92
        0
 66
   257
 43
1.0
 76
     1
 77
     6
 78
     2
 67
     7
 79
     5
170
     0
171
     0
290
     0
174
     0
 93
       13
 44
0.0
173
     0
291
     1
 45
0.0
1001
ACAD
1000
AcDbSavedByObjectVersion
1070
     0
  0
VISUALSTYLE
  5
179F
102
{ACAD_XDICTIONARY
360
24A3
102
}
102
{ACAD_REACTORS
330
179C
102
}
330
179C
100
AcDbVisualStyle
  2
Gouraud
 70
     2
 71
     2
 72
     2
 73
     1
 90
        2
 40
-0.6
 41
30.0
 62
     5
 63
     7
 74
     0
 91
        4
 64
     7
 65
   257
 75
     1
175
     1
 42
1.0
 92
        0
 66
     7
 43
1.0
 76
     1
 77
     6
 78
     2
 67
     7
 79
     5
170
     0
171
     0
290
     0
174
     0
 93
       13
 44
0.0
173
     0
291
     1
 45
0.0
1001
ACAD
1000
AcDbSavedByObjectVersion
1070
     0
  0
VISUALSTYLE
  5
17A0
102
{ACAD_XDICTIONARY
360
24A5
102
}
102
{ACAD_REACTORS
330
179C
102
}
330
179C
100
AcDbVisualStyle
  2
GouraudWithEdges
 70
     3
 71
     2
 72
     2
 73
     1
 90
        2
 40
-0.6
 41
30.0
 62
     5
 63
     7
 74
     1
 91
        4
 64
     7
 65
   257
 75
     1
175
     1
 42
1.0
 92
        0
 66
   257
 43
1.0
 76
     1
 77
     6
 78
     2
 67
     7
 79
     5
170
     0
171
     0
290
     0
174
     0
 93
       13
 44
0.0
173
     0
291
     1
 45
0.0
1001
ACAD
1000
AcDbSavedByObjectVersion
1070
     0
  0
VISUALSTYLE
  5
2475
102
{ACAD_XDICTIONARY
360
24D3
102
}
102
{ACAD_REACTORS
330
179C
102
}
330
179C
100
AcDbVisualStyle
  2
Hidden
 70
     6
 71
     1
 72
     2
 73
     2
 90
        0
 40
-0.6
 41
-30.0
 62
     5
 63
     7
 74
     2
 91
        2
 64
     7
 65
   257
 75
     2
175
     1
 42
40.0
 92
        0
 66
   257
 43
1.0
 76
     1
 77
     6
 78
     2
 67
     7
 79
     3
170
     0
171
     0
290
     0
174
     0
 93
        1
 44
0.0
173
     0
291
     0
 45
0.0
1001
ACAD
1000
AcDbSavedByObjectVersion
1070
     0
  0
VISUALSTYLE
  5
247B
102
{ACAD_XDICTIONARY
360
24DF
102
}
102
{ACAD_REACTORS
330
179C
102
}
330
179C
100
AcDbVisualStyle
  2
JitterOff
 70
    20
 71
     2
 72
     2
 73
     0
 90
        0
 40
-0.6
 41
-30.0
 62
     5
 63
     7
 74
     1
 91
        4
 64
     7
 65
   257
 75
     1
175
     1
 42
1.0
 92
       10
 66
     7
 43
1.0
 76
     1
 77
     6
 78
     2
 67
     7
 79
     5
170
     0
171
     0
290
     0
174
     0
 93
        1
 44
0.0
173
     0
291
     1
 45
0.0
1001
ACAD
1000
AcDbSavedByObjectVersion
1070
     0
  0
VISUALSTYLE
  5
17AA
102
{ACAD_XDICTIONARY
360
24B9
102
}
102
{ACAD_REACTORS
330
179C
102
}
330
179C
100
AcDbVisualStyle
  2
Linepattern
 70
    14
 71
     2
 72
     2
 73
     0
 90
        0
 40
-0.6
 41
-30.0
 62
     5
 63
     7
 74
     1
 91
        4
 64
     7
 65
   257
 75
     7
175
     7
 42
1.0
 92
        8
 66
     7
 43
1.0
 76
     1
 77
     6
 78
     2
 67
     7
 79
     5
170
     0
171
     0
290
     0
174
     0
 93
        1
 44
0.0
173
     0
291
     1
 45
0.0
1001
ACAD
1000
AcDbSavedByObjectVersion
1070
     0
  0
VISUALSTYLE
  5
247C
102
{ACAD_XDICTIONARY
360
24E1
102
}
102
{ACAD_REACTORS
330
179C
102
}
330
179C
100
AcDbVisualStyle
  2
OverhangOff
 70
    21
 71
     2
 72
     2
 73
     0
 90
        0
 40
-0.6
 41
-30.0
 62
     5
 63
     7
 74
     1
 91
        4
 64
     7
 65
   257
 75
     1
175
     1
 42
1.0
 92
        9
 66
     7
 43
1.0
 76
     1
 77
     6
 78
     2
 67
     7
 79
     5
170
     0
171
     0
290
     0
174
     0
 93
        1
 44
0.0
173
     0
291
     1
 45
0.0
1001
ACAD
1000
AcDbSavedByObjectVersion
1070
     0
  0
VISUALSTYLE
  5
17A6
102
{ACAD_XDICTIONARY
360
24B1
102
}
102
{ACAD_REACTORS
330
179C
102
}
330
179C
100
AcDbVisualStyle
  2
Realistic
 70
     8
 71
     2
 72
     2
 73
     0
 90
        0
 40
-0.6
 41
-30.0
 62
     5
 63
     7
 74
     1
 91
        0
 64
     7
 65
   257
 75
     1
175
     1
 42
1.0
 92
        8
 66
     8
 43
1.0
 76
     1
 77
     6
 78
     2
 67
     7
 79
     5
170
     0
171
     0
290
     0
174
     0
 93
       13
 44
0.0
173
     0
291
     0
 45
0.0
1001
ACAD
1000
AcDbSavedByObjectVersion
1070
     0
  0
VISUALSTYLE
  5
247A
102
{ACAD_XDICTIONARY
360
24DD
102
}
102
{ACAD_REACTORS
330
179C
102
}
330
179C
100
AcDbVisualStyle
  2
Shaded
 70
    27
 71
     2
 72
     2
 73
     1
 90
        2
 40
-0.6
 41
30.0
 62
     5
 63
     7
 74
     0
 91
        4
 64
     7
 65
   257
 75
     1
175
     1
 42
1.0
 92
        8
 66
   257
 43
1.0
 76
     1
 77
     6
 78
     2
 67
     8
 79
     3
170
     0
171
     0
290
     0
174
     0
 93
        5
 44
0.0
173
     0
291
     0
 45
0.0
1001
ACAD
1000
AcDbSavedByObjectVersion
1070
     0
  0
VISUALSTYLE
  5
2479
102
{ACAD_XDICTIONARY
360
24DB
102
}
102
{ACAD_REACTORS
330
179C
102
}
330
179C
100
AcDbVisualStyle
  2
Shaded with edges
 70
    26
 71
     2
 72
     2
 73
     1
 90
        2
 40
-0.6
 41
30.0
 62
     5
 63
     7
 74
     1
 91
       10
 64
     7
 65
   257
 75
     2
175
     1
 42
1.0
 92
        8
 66
   257
 43
1.0
 76
     1
 77
     6
 78
     2
 67
     7
 79
     3
170
     0
171
     0
290
     0
174
     0
 93
        5
 44
0.0
173
     0
291
     0
 45
0.0
1001
ACAD
1000
AcDbSavedByObjectVersion
1070
     0
  0
VISUALSTYLE
  5
2476
102
{ACAD_XDICTIONARY
360
24D5
102
}
102
{ACAD_REACTORS
330
179C
102
}
330
179C
100
AcDbVisualStyle
  2
Shades of Gray
 70
    23
 71
     2
 72
     2
 73
     3
 90
        0
 40
-0.6
 41
-30.0
 62
     5
 63
     7
 74
     2
 91
        2
 64
     7
 65
     7
 75
     1
175
     1
 42
40.0
 92
        8
 66
     7
 43
1.0
 76
     1
 77
     6
 78
     2
 67
     7
 79
     3
170
     0
171
     0
290
     0
174
     0
 93
        1
 44
0.0
173
     0
291
     0
 45
0.0
1001
ACAD
1000
AcDbSavedByObjectVersion
1070
     0
  0
VISUALSTYLE
  5
2477
102
{ACAD_XDICTIONARY
360
24D7
102
}
102
{ACAD_REACTORS
330
179C
102
}
330
179C
100
AcDbVisualStyle
  2
Sketchy
 70
    24
 71
     1
 72
     2
 73
     2
 90
        0
 40
-0.6
 41
-30.0
 62
     5
 63
     7
 74
     2
 91
        2
 64
     7
 65
     7
 75
     1
175
     1
 42
40.0
 92
       11
 66
     7
 43
1.0
 76
     1
 77
     6
 78
     2
 67
     7
 79
     6
170
     0
171
     0
290
     0
174
     0
 93
        1
 44
0.0
173
     0
291
     0
 45
0.0
1001
ACAD
1000
AcDbSavedByObjectVersion
1070
     0
  0
VISUALSTYLE
  5
17A9
102
{ACAD_XDICTIONARY
360
24B7
102
}
102
{ACAD_REACTORS
330
179C
102
}
330
179C
100
AcDbVisualStyle
  2
Thicken
 70
    13
 71
     2
 72
     2
 73
     0
 90
        0
 40
-0.6
 41
-30.0
 62
     5
 63
     7
 74
     1
 91
        4
 64
     7
 65
   257
 75
     1
175
     1
 42
1.0
 92
       12
 66
     7
 43
1.0
 76
     1
 77
     6
 78
     2
 67
     7
 79
     5
170
     0
171
     0
290
     0
174
     0
 93
        1
 44
0.0
173
     0
291
     1
 45
0.0
1001
ACAD
1000
AcDbSavedByObjectVersion
1070
     0
  0
VISUALSTYLE
  5
2474
102
{ACAD_XDICTIONARY
360
24D1
102
}
102
{ACAD_REACTORS
330
179C
102
}
330
179C
100
AcDbVisualStyle
  2
Wireframe
 70
     5
 71
     0
 72
     2
 73
     0
 90
        0
 40
-0.6
 41
-30.0
 62
     5
 63
     7
 74
     1
 91
        4
 64
     7
 65
   257
 75
     1
175
     1
 42
1.0
 92
        0
 66
   257
 43
1.0
 76
     1
 77
     6
 78
     2
 67
     7
 79
     3
170
     0
171
     0
290
     0
174
     0
 93
        1
 44
0.0
173
     0
291
     0
 45
0.0
1001
ACAD
1000
AcDbSavedByObjectVersion
1070
     0
  0
VISUALSTYLE
  5
2478
102
{ACAD_XDICTIONARY
360
24D9
102
}
102
{ACAD_REACTORS
330
179C
102
}
330
179C
100
AcDbVisualStyle
  2
X-Ray
 70
    25
 71
     2
 72
     2
 73
     1
 90
        1
 40
0.5
 41
-30.0
 62
     5
 63
     7
 74
     1
 91
        0
 64
     7
 65
   257
 75
     1
175
     1
 42
1.0
 92
        8
 66
     7
 43
1.0
 76
     1
 77
     6
 78
     2
 67
     7
 79
     3
170
     0
171
     0
290
     0
174
     0
 93
       13
 44
0.0
173
     0
291
     0
 45
0.0
1001
ACAD
1000
AcDbSavedByObjectVersion
1070
     0
  0
DICTIONARYVAR
  5
198F
102
{ACAD_REACTORS
330
198A
102
}
330
198A
100
DictionaryVariables
280
     0
  1
1:1
  0
DICTIONARYVAR
  5
198C
102
{ACAD_REACTORS
330
198A
102
}
330
198A
100
DictionaryVariables
280
     0
  1
STANDARD
  0
DICTIONARYVAR
  5
198B
102
{ACAD_REACTORS
330
198A
102
}
330
198A
100
DictionaryVariables
280
     0
  1
STANDARD
  0
DICTIONARYVAR
  5
2494
102
{ACAD_REACTORS
330
198A
102
}
330
198A
100
DictionaryVariables
280
     0
  1
1
  0
DICTIONARYVAR
  5
198D
102
{ACAD_REACTORS
330
198A
102
}
330
198A
100
DictionaryVariables
280
     0
  1
0
  0
DICTIONARYVAR
  5
2492
102
{ACAD_REACTORS
330
198A
102
}
330
198A
100
DictionaryVariables
280
     0
  1
0
  0
DICTIONARYVAR
  5
1991
102
{ACAD_REACTORS
330
198A
102
}
330
198A
100
DictionaryVariables
280
     0
  1
1
  0
DICTIONARYVAR
  5
1992
102
{ACAD_REACTORS
330
198A
102
}
330
198A
100
DictionaryVariables
280
     0
  1
15
  0
DICTIONARYVAR
  5
1990
102
{ACAD_REACTORS
330
198A
102
}
330
198A
100
DictionaryVariables
280
     0
  1
0
  0
DICTIONARYVAR
  5
198E
102
{ACAD_REACTORS
330
198A
102
}
330
198A
100
DictionaryVariables
280
     0
  1
0
  0
DICTIONARYVAR
  5
2491
102
{ACAD_REACTORS
330
198A
102
}
330
198A
100
DictionaryVariables
280
     0
  1
127
  0
DICTIONARYVAR
  5
2493
102
{ACAD_REACTORS
330
198A
102
}
330
198A
100
DictionaryVariables
280
     0
  1
0
  0
XRECORD
  5
17CF
102
{ACAD_REACTORS
330
17CE
102
}
330
17CE
100
AcDbXrecord
280
     1
 91
       12
  0
ACAD_PROXY_OBJECT
  5
17CC
102
{ACAD_REACTORS
330
17CB
102
}
330
17CB
100
AcDbProxyObject
 90
      499
 91
      508
 95
  1638427
 70
     0
 93
      153
310
407907440045004600410055004C0054007A00CC
 94
        0
1001
ACAD
1000
AcRTDxfName
1000
ACDBQSCATEGORY
  0
ACAD_PROXY_OBJECT
  5
2209
102
{ACAD_REACTORS
330
17CD
102
}
330
17CD
100
AcDbProxyObject
 90
      499
 91
      514
 95
  1638427
 70
     0
 93
     2908
310
40B520280D55480A0281203520280A0280C0000000000000A200000000000000448080C00000000000019200000000000000688120280A0280A0E88008A008C008200AA009800A80082280027802980170020E88008A008C008200AA009800A80080A180202860120C86009E008800920086008A008A220024802680228027
310
00298024802780270024802F8022002480268018801680220024802680190024EA2007400B800A200A600BE00A4008A00A8008A00B80082009A00840092008A009C00A8009200B800A8009E00A000BE00880092008A00A400A4008A00B800A8008200840060005C008800AE008E0095A8801D002E00288029802F802900228
310
02A0022802E002080268021002480228027002A0024802E002A00278028002F802200248022802900290022802E002A00278028002F802800208026002600170022002B80238020C86009E008800920086008A0085A200228029802180290024802D00248027802700228050413C
 94
        0
1001
ACAD
1000
AcRTDxfName
1000
ACDBQSPALLSTYLE
  0
XRECORD
  5
246F
102
{ACAD_REACTORS
330
246C
102
}
330
246C
100
AcDbXrecord
280
     1
  9
X25bf
  0
XRECORD
  5
246D
102
{ACAD_REACTORS
330
246C
102
}
330
246C
100
AcDbXrecord
280
     1
  2
RINFORZO 90° NYLON
  3
P-0000
280
     1
310
6465736372697A696F6E650052494E464F525A4F203930B0204E594C4F4E00444154410030362F31302F303900554D004E520052455600300044495345474E41544F5245004D6172636F20412E005343414C4100313A310024736F7572636500416E61677261666963612047657374696F6E616C6500434F44494345005854393030333947002E666D740033004445534352495A494F4E45320052414C2037303339004D4154455249414C45004E594C4F4E204341522E462E562E203330250000
 10
0.0
 20
0.0
 30
0.0
  0
XRECORD
  5
246E
102
{ACAD_REACTORS
330
246C
102
}
330
246C
100
AcDbXrecord
280
     1
  2
.cart
  3
P-24F6
  6
X25bf
280
     1
310
6465736372697A696F6E65002E6361727400444154410030392F30352F31310064697365676E61746F726500416C657373696F204F2E00717461003100554D004E52005245560030005343414C4100313A310000
 10
0.0
 20
0.0
 30
0.0
  0
XRECORD
  5
17D6
102
{ACAD_REACTORS
330
17D5
102
}
330
17D5
100
AcDbXrecord
280
     1
 90
      202
 91
      144
  0
DICTIONARY
  5
24C2
330
17C8
100
AcDbDictionary
280
     1
281
     1
  3
ACAD_XREC_ROUNDTRIP
360
24C3
  0
DICTIONARY
  5
24C0
330
17C7
100
AcDbDictionary
280
     1
281
     1
  3
ACAD_XREC_ROUNDTRIP
360
24C1
  0
DICTIONARY
  5
178D
330
178C
100
AcDbDictionary
280
     1
281
     1
  3
ACAD_XREC_ROUNDTRIP
360
249D
  3
BUMPTILE
360
178F
  3
DIFFUSETILE
360
178E
  3
OPACITYTILE
360
1792
  3
REFLECTIONTILE
360
1791
  3
REFRACTIONTILE
360
1793
  3
SPECULARTILE
360
1790
  0
DICTIONARY
  5
1785
330
1784
100
AcDbDictionary
280
     1
281
     1
  3
ACAD_XREC_ROUNDTRIP
360
249C
  3
BUMPTILE
360
1787
  3
DIFFUSETILE
360
1786
  3
OPACITYTILE
360
178A
  3
REFLECTIONTILE
360
1789
  3
REFRACTIONTILE
360
178B
  3
SPECULARTILE
360
1788
  0
DICTIONARY
  5
1795
330
1794
100
AcDbDictionary
280
     1
281
     1
  3
ACAD_XREC_ROUNDTRIP
360
249E
  3
BUMPTILE
360
1797
  3
DIFFUSETILE
360
1796
  3
OPACITYTILE
360
179A
  3
REFLECTIONTILE
360
1799
  3
REFRACTIONTILE
360
179B
  3
SPECULARTILE
360
1798
  0
DICTIONARY
  5
24C6
330
21FF
100
AcDbDictionary
280
     1
281
     1
  3
ACAD_XREC_ROUNDTRIP
360
24C7
  0
DICTIONARY
  5
24C8
330
2200
100
AcDbDictionary
280
     1
281
     1
  3
ACAD_XREC_ROUNDTRIP
360
24C9
  0
DICTIONARY
  5
24CA
330
2201
100
AcDbDictionary
280
     1
281
     1
  3
ACAD_XREC_ROUNDTRIP
360
24CB
  0
DICTIONARY
  5
24CC
330
2202
100
AcDbDictionary
280
     1
281
     1
  3
ACAD_XREC_ROUNDTRIP
360
24CD
  0
DICTIONARY
  5
24CE
330
2203
100
AcDbDictionary
280
     1
281
     1
  3
ACAD_XREC_ROUNDTRIP
360
24CF
  0
DICTIONARY
  5
17EF
330
17EE
100
AcDbDictionary
280
     1
281
     1
  3
ACAD_ROUNDTRIP_2008_TABLESTYLE_CELLSTYLEMAP
360
2496
  3
ACAD_XREC_ROUNDTRIP
360
24C4
  0
DICTIONARY
  5
17F1
330
17F0
100
AcDbDictionary
280
     1
281
     1
  3
ACAD_ROUNDTRIP_2008_TABLESTYLE_CELLSTYLEMAP
360
2497
  3
ACAD_XREC_ROUNDTRIP
360
24C5
  0
DICTIONARY
  5
1985
330
17AF
100
AcDbDictionary
280
     1
281
     1
  3
ACAD_ROUNDTRIP_2008_TABLESTYLE_CELLSTYLEMAP
360
2495
  3
ACAD_XREC_ROUNDTRIP
360
24BF
  0
DICTIONARY
  5
24A9
330
17A2
100
AcDbDictionary
280
     1
281
     1
  3
ACAD_XREC_ROUNDTRIP
360
24AA
  0
DICTIONARY
  5
24AD
330
17A4
100
AcDbDictionary
280
     1
281
     1
  3
ACAD_XREC_ROUNDTRIP
360
24AE
  0
DICTIONARY
  5
24AB
330
17A3
100
AcDbDictionary
280
     1
281
     1
  3
ACAD_XREC_ROUNDTRIP
360
24AC
  0
DICTIONARY
  5
24A7
330
17A1
100
AcDbDictionary
280
     1
281
     1
  3
ACAD_XREC_ROUNDTRIP
360
24A8
  0
DICTIONARY
  5
24B5
330
17A8
100
AcDbDictionary
280
     1
281
     1
  3
ACAD_XREC_ROUNDTRIP
360
24B6
  0
DICTIONARY
  5
24BD
330
17AC
100
AcDbDictionary
280
     1
281
     1
  3
ACAD_XREC_ROUNDTRIP
360
24BE
  0
DICTIONARY
  5
24AF
330
17A5
100
AcDbDictionary
280
     1
281
     1
  3
ACAD_XREC_ROUNDTRIP
360
24B0
  0
DICTIONARY
  5
24B3
330
17A7
100
AcDbDictionary
280
     1
281
     1
  3
ACAD_XREC_ROUNDTRIP
360
24B4
  0
DICTIONARY
  5
24E3
330
247D
100
AcDbDictionary
280
     1
281
     1
  3
ACAD_XREC_ROUNDTRIP
360
24E4
  0
DICTIONARY
  5
24BB
330
17AB
100
AcDbDictionary
280
     1
281
     1
  3
ACAD_XREC_ROUNDTRIP
360
24BC
  0
DICTIONARY
  5
249F
330
179D
100
AcDbDictionary
280
     1
281
     1
  3
ACAD_XREC_ROUNDTRIP
360
24A0
  0
DICTIONARY
  5
24A1
330
179E
100
AcDbDictionary
280
     1
281
     1
  3
ACAD_XREC_ROUNDTRIP
360
24A2
  0
DICTIONARY
  5
24A3
330
179F
100
AcDbDictionary
280
     1
281
     1
  3
ACAD_XREC_ROUNDTRIP
360
24A4
  0
DICTIONARY
  5
24A5
330
17A0
100
AcDbDictionary
280
     1
281
     1
  3
ACAD_XREC_ROUNDTRIP
360
24A6
  0
DICTIONARY
  5
24D3
330
2475
100
AcDbDictionary
280
     1
281
     1
  3
ACAD_XREC_ROUNDTRIP
360
24D4
  0
DICTIONARY
  5
24DF
330
247B
100
AcDbDictionary
280
     1
281
     1
  3
ACAD_XREC_ROUNDTRIP
360
24E0
  0
DICTIONARY
  5
24B9
330
17AA
100
AcDbDictionary
280
     1
281
     1
  3
ACAD_XREC_ROUNDTRIP
360
24BA
  0
DICTIONARY
  5
24E1
330
247C
100
AcDbDictionary
280
     1
281
     1
  3
ACAD_XREC_ROUNDTRIP
360
24E2
  0
DICTIONARY
  5
24B1
330
17A6
100
AcDbDictionary
280
     1
281
     1
  3
ACAD_XREC_ROUNDTRIP
360
24B2
  0
DICTIONARY
  5
24DD
330
247A
100
AcDbDictionary
280
     1
281
     1
  3
ACAD_XREC_ROUNDTRIP
360
24DE
  0
DICTIONARY
  5
24DB
330
2479
100
AcDbDictionary
280
     1
281
     1
  3
ACAD_XREC_ROUNDTRIP
360
24DC
  0
DICTIONARY
  5
24D5
330
2476
100
AcDbDictionary
280
     1
281
     1
  3
ACAD_XREC_ROUNDTRIP
360
24D6
  0
DICTIONARY
  5
24D7
330
2477
100
AcDbDictionary
280
     1
281
     1
  3
ACAD_XREC_ROUNDTRIP
360
24D8
  0
DICTIONARY
  5
24B7
330
17A9
100
AcDbDictionary
280
     1
281
     1
  3
ACAD_XREC_ROUNDTRIP
360
24B8
  0
DICTIONARY
  5
24D1
330
2474
100
AcDbDictionary
280
     1
281
     1
  3
ACAD_XREC_ROUNDTRIP
360
24D2
  0
DICTIONARY
  5
24D9
330
2478
100
AcDbDictionary
280
     1
281
     1
  3
ACAD_XREC_ROUNDTRIP
360
24DA
  0
XRECORD
  5
24C3
102
{ACAD_REACTORS
330
24C2
102
}
330
24C2
100
AcDbXrecord
280
     1
102
SHADEPLOT
 70
     0
102
SHADEPLOTRESLEVEL
 70
     2
102
SHADEPLOTCUSTOMDPI
 70
   300
  0
XRECORD
  5
24C1
102
{ACAD_REACTORS
330
24C0
102
}
330
24C0
100
AcDbXrecord
280
     1
102
SHADEPLOT
 70
     0
102
SHADEPLOTRESLEVEL
 70
     2
102
SHADEPLOTCUSTOMDPI
 70
   300
  0
XRECORD
  5
249D
102
{ACAD_REACTORS
330
178D
102
}
330
178D
100
AcDbXrecord
280
     1
102
MATERIAL
148
0.0
149
0.0
149
0.0
 93
        0
 94
      127
282
     0
 72
     0
 77
     0
171
     0
175
     0
179
     0
273
     0
  0
XRECORD
  5
178F
102
{ACAD_REACTORS
330
178D
102
}
330
178D
100
AcDbXrecord
280
     1
270
     1
271
     1
  0
XRECORD
  5
178E
102
{ACAD_REACTORS
330
178D
102
}
330
178D
100
AcDbXrecord
280
     1
270
     1
271
     1
  0
XRECORD
  5
1792
102
{ACAD_REACTORS
330
178D
102
}
330
178D
100
AcDbXrecord
280
     1
270
     1
271
     1
  0
XRECORD
  5
1791
102
{ACAD_REACTORS
330
178D
102
}
330
178D
100
AcDbXrecord
280
     1
270
     1
271
     1
  0
XRECORD
  5
1793
102
{ACAD_REACTORS
330
178D
102
}
330
178D
100
AcDbXrecord
280
     1
270
     1
271
     1
  0
XRECORD
  5
1790
102
{ACAD_REACTORS
330
178D
102
}
330
178D
100
AcDbXrecord
280
     1
270
     1
271
     1
  0
XRECORD
  5
249C
102
{ACAD_REACTORS
330
1785
102
}
330
1785
100
AcDbXrecord
280
     1
102
MATERIAL
148
0.0
149
0.0
149
0.0
 93
        0
 94
      127
282
     0
 72
     0
 77
     0
171
     0
175
     0
179
     0
273
     0
  0
XRECORD
  5
1787
102
{ACAD_REACTORS
330
1785
102
}
330
1785
100
AcDbXrecord
280
     1
270
     1
271
     1
  0
XRECORD
  5
1786
102
{ACAD_REACTORS
330
1785
102
}
330
1785
100
AcDbXrecord
280
     1
270
     1
271
     1
  0
XRECORD
  5
178A
102
{ACAD_REACTORS
330
1785
102
}
330
1785
100
AcDbXrecord
280
     1
270
     1
271
     1
  0
XRECORD
  5
1789
102
{ACAD_REACTORS
330
1785
102
}
330
1785
100
AcDbXrecord
280
     1
270
     1
271
     1
  0
XRECORD
  5
178B
102
{ACAD_REACTORS
330
1785
102
}
330
1785
100
AcDbXrecord
280
     1
270
     1
271
     1
  0
XRECORD
  5
1788
102
{ACAD_REACTORS
330
1785
102
}
330
1785
100
AcDbXrecord
280
     1
270
     1
271
     1
  0
XRECORD
  5
249E
102
{ACAD_REACTORS
330
1795
102
}
330
1795
100
AcDbXrecord
280
     1
102
MATERIAL
148
0.0
149
0.0
149
0.0
 93
        0
 94
      127
282
     0
 72
     0
 77
     0
171
     0
175
     0
179
     0
273
     0
  0
XRECORD
  5
1797
102
{ACAD_REACTORS
330
1795
102
}
330
1795
100
AcDbXrecord
280
     1
270
     1
271
     1
  0
XRECORD
  5
1796
102
{ACAD_REACTORS
330
1795
102
}
330
1795
100
AcDbXrecord
280
     1
270
     1
271
     1
  0
XRECORD
  5
179A
102
{ACAD_REACTORS
330
1795
102
}
330
1795
100
AcDbXrecord
280
     1
270
     1
271
     1
  0
XRECORD
  5
1799
102
{ACAD_REACTORS
330
1795
102
}
330
1795
100
AcDbXrecord
280
     1
270
     1
271
     1
  0
XRECORD
  5
179B
102
{ACAD_REACTORS
330
1795
102
}
330
1795
100
AcDbXrecord
280
     1
270
     1
271
     1
  0
XRECORD
  5
1798
102
{ACAD_REACTORS
330
1795
102
}
330
1795
100
AcDbXrecord
280
     1
270
     1
271
     1
  0
XRECORD
  5
24C7
102
{ACAD_REACTORS
330
24C6
102
}
330
24C6
100
AcDbXrecord
280
     1
102
SHADEPLOT
 70
     0
102
SHADEPLOTRESLEVEL
 70
     2
102
SHADEPLOTCUSTOMDPI
 70
   300
  0
XRECORD
  5
24C9
102
{ACAD_REACTORS
330
24C8
102
}
330
24C8
100
AcDbXrecord
280
     1
102
SHADEPLOT
 70
     0
102
SHADEPLOTRESLEVEL
 70
     2
102
SHADEPLOTCUSTOMDPI
 70
   300
  0
XRECORD
  5
24CB
102
{ACAD_REACTORS
330
24CA
102
}
330
24CA
100
AcDbXrecord
280
     1
102
SHADEPLOT
 70
     0
102
SHADEPLOTRESLEVEL
 70
     2
102
SHADEPLOTCUSTOMDPI
 70
   300
  0
XRECORD
  5
24CD
102
{ACAD_REACTORS
330
24CC
102
}
330
24CC
100
AcDbXrecord
280
     1
102
SHADEPLOT
 70
     0
102
SHADEPLOTRESLEVEL
 70
     2
102
SHADEPLOTCUSTOMDPI
 70
   300
  0
XRECORD
  5
24CF
102
{ACAD_REACTORS
330
24CE
102
}
330
24CE
100
AcDbXrecord
280
     1
102
SHADEPLOT
 70
     0
102
SHADEPLOTRESLEVEL
 70
     2
102
SHADEPLOTCUSTOMDPI
 70
   300
  0
CELLSTYLEMAP
  5
2496
102
{ACAD_REACTORS
330
17EF
102
}
330
17EF
100
AcDbCellStyleMap
 90
        3
300
CELLSTYLE
  1
TABLEFORMAT_BEGIN
 90
        5
170
     1
 91
        0
 92
    32768
 62
   257
 93
        1
300
CONTENTFORMAT
  1
CONTENTFORMAT_BEGIN
 90
        0
 91
        0
 92
      512
 93
        0
300

 40
0.0
140
1.0
 94
        5
 62
     1
340
17DC
144
6.0
309
CONTENTFORMAT_END
171
     1
301
MARGIN
  1
CELLMARGIN_BEGIN
 40
1.5
 40
1.5
 40
1.5
 40
1.5
 40
0.18
 40
0.18
309
CELLMARGIN_END
 94
        6
 95
        1
302
GRIDFORMAT
  1
GRIDFORMAT_BEGIN
 90
        0
 91
        1
 62
     0
 92
       -2
340
0
 93
        0
 40
0.045
309
GRIDFORMAT_END
 95
        2
302
GRIDFORMAT
  1
GRIDFORMAT_BEGIN
 90
        0
 91
        1
 62
     0
 92
       -2
340
0
 93
        0
 40
0.045
309
GRIDFORMAT_END
 95
        4
302
GRIDFORMAT
  1
GRIDFORMAT_BEGIN
 90
        0
 91
        1
 62
     0
 92
       -2
340
0
 93
        0
 40
0.045
309
GRIDFORMAT_END
 95
        8
302
GRIDFORMAT
  1
GRIDFORMAT_BEGIN
 90
        0
 91
        1
 62
     0
 92
       -2
340
0
 93
        0
 40
0.045
309
GRIDFORMAT_END
 95
       16
302
GRIDFORMAT
  1
GRIDFORMAT_BEGIN
 90
        0
 91
        1
 62
     0
 92
       -2
340
0
 93
        0
 40
0.045
309
GRIDFORMAT_END
 95
       32
302
GRIDFORMAT
  1
GRIDFORMAT_BEGIN
 90
        0
 91
        1
 62
     0
 92
       -2
340
0
 93
        0
 40
0.045
309
GRIDFORMAT_END
309
TABLEFORMAT_END
  1
CELLSTYLE_BEGIN
 90
        1
 91
        1
300
_TITLE
309
CELLSTYLE_END
300
CELLSTYLE
  1
TABLEFORMAT_BEGIN
 90
        5
170
     1
 91
        0
 92
        0
 62
   257
 93
        1
300
CONTENTFORMAT
  1
CONTENTFORMAT_BEGIN
 90
        0
 91
        0
 92
      512
 93
        0
300

 40
0.0
140
1.0
 94
        5
 62
     3
340
17DC
144
3.5
309
CONTENTFORMAT_END
171
     1
301
MARGIN
  1
CELLMARGIN_BEGIN
 40
1.5
 40
1.5
 40
1.5
 40
1.5
 40
0.18
 40
0.18
309
CELLMARGIN_END
 94
        6
 95
        1
302
GRIDFORMAT
  1
GRIDFORMAT_BEGIN
 90
        0
 91
        1
 62
     0
 92
       -2
340
0
 93
        0
 40
0.045
309
GRIDFORMAT_END
 95
        2
302
GRIDFORMAT
  1
GRIDFORMAT_BEGIN
 90
        0
 91
        1
 62
     0
 92
       -2
340
0
 93
        0
 40
0.045
309
GRIDFORMAT_END
 95
        4
302
GRIDFORMAT
  1
GRIDFORMAT_BEGIN
 90
        0
 91
        1
 62
     0
 92
       -2
340
0
 93
        0
 40
0.045
309
GRIDFORMAT_END
 95
        8
302
GRIDFORMAT
  1
GRIDFORMAT_BEGIN
 90
        0
 91
        1
 62
     0
 92
       -2
340
0
 93
        0
 40
0.045
309
GRIDFORMAT_END
 95
       16
302
GRIDFORMAT
  1
GRIDFORMAT_BEGIN
 90
        0
 91
        1
 62
     0
 92
       -2
340
0
 93
        0
 40
0.045
309
GRIDFORMAT_END
 95
       32
302
GRIDFORMAT
  1
GRIDFORMAT_BEGIN
 90
        0
 91
        1
 62
     0
 92
       -2
340
0
 93
        0
 40
0.045
309
GRIDFORMAT_END
309
TABLEFORMAT_END
  1
CELLSTYLE_BEGIN
 90
        2
 91
        1
300
_HEADER
309
CELLSTYLE_END
300
CELLSTYLE
  1
TABLEFORMAT_BEGIN
 90
        5
170
     1
 91
        0
 92
        0
 62
   257
 93
        1
300
CONTENTFORMAT
  1
CONTENTFORMAT_BEGIN
 90
        0
 91
        0
 92
      512
 93
        0
300

 40
0.0
140
1.0
 94
        5
 62
     7
340
17DC
144
3.0
309
CONTENTFORMAT_END
171
     1
301
MARGIN
  1
CELLMARGIN_BEGIN
 40
1.5
 40
1.5
 40
1.5
 40
1.5
 40
0.18
 40
0.18
309
CELLMARGIN_END
 94
        6
 95
        1
302
GRIDFORMAT
  1
GRIDFORMAT_BEGIN
 90
        0
 91
        1
 62
     0
 92
       -2
340
0
 93
        0
 40
0.045
309
GRIDFORMAT_END
 95
        2
302
GRIDFORMAT
  1
GRIDFORMAT_BEGIN
 90
        0
 91
        1
 62
     0
 92
       -2
340
0
 93
        0
 40
0.045
309
GRIDFORMAT_END
 95
        4
302
GRIDFORMAT
  1
GRIDFORMAT_BEGIN
 90
        0
 91
        1
 62
     0
 92
       -2
340
0
 93
        0
 40
0.045
309
GRIDFORMAT_END
 95
        8
302
GRIDFORMAT
  1
GRIDFORMAT_BEGIN
 90
        0
 91
        1
 62
     0
 92
       -2
340
0
 93
        0
 40
0.045
309
GRIDFORMAT_END
 95
       16
302
GRIDFORMAT
  1
GRIDFORMAT_BEGIN
 90
        0
 91
        1
 62
     0
 92
       -2
340
0
 93
        0
 40
0.045
309
GRIDFORMAT_END
 95
       32
302
GRIDFORMAT
  1
GRIDFORMAT_BEGIN
 90
        0
 91
        1
 62
     0
 92
       -2
340
0
 93
        0
 40
0.045
309
GRIDFORMAT_END
309
TABLEFORMAT_END
  1
CELLSTYLE_BEGIN
 90
        3
 91
        2
300
_DATA
309
CELLSTYLE_END
  0
XRECORD
  5
24C4
102
{ACAD_REACTORS
330
17EF
102
}
330
17EF
100
AcDbXrecord
280
     1
102
ACAD_ROUNDTRIP_PRE2007_TABLESTYLE
 90
      512
 91
        0
  1

 92
      512
 93
        0
  2

 94
      512
 95
        0
  3

  0
CELLSTYLEMAP
  5
2497
102
{ACAD_REACTORS
330
17F1
102
}
330
17F1
100
AcDbCellStyleMap
 90
        3
300
CELLSTYLE
  1
TABLEFORMAT_BEGIN
 90
        5
170
     1
 91
        0
 92
    32768
 62
   257
 93
        1
300
CONTENTFORMAT
  1
CONTENTFORMAT_BEGIN
 90
        0
 91
        0
 92
      512
 93
        0
300

 40
0.0
140
1.0
 94
        5
 62
     1
340
17DC
144
6.0
309
CONTENTFORMAT_END
171
     1
301
MARGIN
  1
CELLMARGIN_BEGIN
 40
1.5
 40
1.5
 40
1.5
 40
1.5
 40
0.18
 40
0.18
309
CELLMARGIN_END
 94
        6
 95
        1
302
GRIDFORMAT
  1
GRIDFORMAT_BEGIN
 90
        0
 91
        1
 62
     0
 92
       -2
340
0
 93
        0
 40
0.045
309
GRIDFORMAT_END
 95
        2
302
GRIDFORMAT
  1
GRIDFORMAT_BEGIN
 90
        0
 91
        1
 62
     0
 92
       -2
340
0
 93
        0
 40
0.045
309
GRIDFORMAT_END
 95
        4
302
GRIDFORMAT
  1
GRIDFORMAT_BEGIN
 90
        0
 91
        1
 62
     0
 92
       -2
340
0
 93
        0
 40
0.045
309
GRIDFORMAT_END
 95
        8
302
GRIDFORMAT
  1
GRIDFORMAT_BEGIN
 90
        0
 91
        1
 62
     0
 92
       -2
340
0
 93
        0
 40
0.045
309
GRIDFORMAT_END
 95
       16
302
GRIDFORMAT
  1
GRIDFORMAT_BEGIN
 90
        0
 91
        1
 62
     0
 92
       -2
340
0
 93
        0
 40
0.045
309
GRIDFORMAT_END
 95
       32
302
GRIDFORMAT
  1
GRIDFORMAT_BEGIN
 90
        0
 91
        1
 62
     0
 92
       -2
340
0
 93
        0
 40
0.045
309
GRIDFORMAT_END
309
TABLEFORMAT_END
  1
CELLSTYLE_BEGIN
 90
        1
 91
        1
300
_TITLE
309
CELLSTYLE_END
300
CELLSTYLE
  1
TABLEFORMAT_BEGIN
 90
        5
170
     1
 91
        0
 92
        0
 62
   257
 93
        1
300
CONTENTFORMAT
  1
CONTENTFORMAT_BEGIN
 90
        0
 91
        0
 92
      512
 93
        0
300

 40
0.0
140
1.0
 94
        5
 62
     3
340
17DC
144
5.0
309
CONTENTFORMAT_END
171
     1
301
MARGIN
  1
CELLMARGIN_BEGIN
 40
1.5
 40
1.5
 40
1.5
 40
1.5
 40
0.18
 40
0.18
309
CELLMARGIN_END
 94
        6
 95
        1
302
GRIDFORMAT
  1
GRIDFORMAT_BEGIN
 90
        0
 91
        1
 62
     0
 92
       -2
340
0
 93
        0
 40
0.045
309
GRIDFORMAT_END
 95
        2
302
GRIDFORMAT
  1
GRIDFORMAT_BEGIN
 90
        0
 91
        1
 62
     0
 92
       -2
340
0
 93
        0
 40
0.045
309
GRIDFORMAT_END
 95
        4
302
GRIDFORMAT
  1
GRIDFORMAT_BEGIN
 90
        0
 91
        1
 62
     0
 92
       -2
340
0
 93
        0
 40
0.045
309
GRIDFORMAT_END
 95
        8
302
GRIDFORMAT
  1
GRIDFORMAT_BEGIN
 90
        0
 91
        1
 62
     0
 92
       -2
340
0
 93
        0
 40
0.045
309
GRIDFORMAT_END
 95
       16
302
GRIDFORMAT
  1
GRIDFORMAT_BEGIN
 90
        0
 91
        1
 62
     0
 92
       -2
340
0
 93
        0
 40
0.045
309
GRIDFORMAT_END
 95
       32
302
GRIDFORMAT
  1
GRIDFORMAT_BEGIN
 90
        0
 91
        1
 62
     0
 92
       -2
340
0
 93
        0
 40
0.045
309
GRIDFORMAT_END
309
TABLEFORMAT_END
  1
CELLSTYLE_BEGIN
 90
        2
 91
        1
300
_HEADER
309
CELLSTYLE_END
300
CELLSTYLE
  1
TABLEFORMAT_BEGIN
 90
        5
170
     1
 91
        0
 92
        0
 62
   257
 93
        1
300
CONTENTFORMAT
  1
CONTENTFORMAT_BEGIN
 90
        0
 91
        0
 92
      512
 93
        0
300

 40
0.0
140
1.0
 94
        5
 62
     7
340
17DC
144
4.5
309
CONTENTFORMAT_END
171
     1
301
MARGIN
  1
CELLMARGIN_BEGIN
 40
1.5
 40
1.5
 40
1.5
 40
1.5
 40
0.18
 40
0.18
309
CELLMARGIN_END
 94
        6
 95
        1
302
GRIDFORMAT
  1
GRIDFORMAT_BEGIN
 90
        0
 91
        1
 62
     0
 92
       -2
340
0
 93
        0
 40
0.045
309
GRIDFORMAT_END
 95
        2
302
GRIDFORMAT
  1
GRIDFORMAT_BEGIN
 90
        0
 91
        1
 62
     0
 92
       -2
340
0
 93
        0
 40
0.045
309
GRIDFORMAT_END
 95
        4
302
GRIDFORMAT
  1
GRIDFORMAT_BEGIN
 90
        0
 91
        1
 62
     0
 92
       -2
340
0
 93
        0
 40
0.045
309
GRIDFORMAT_END
 95
        8
302
GRIDFORMAT
  1
GRIDFORMAT_BEGIN
 90
        0
 91
        1
 62
     0
 92
       -2
340
0
 93
        0
 40
0.045
309
GRIDFORMAT_END
 95
       16
302
GRIDFORMAT
  1
GRIDFORMAT_BEGIN
 90
        0
 91
        1
 62
     0
 92
       -2
340
0
 93
        0
 40
0.045
309
GRIDFORMAT_END
 95
       32
302
GRIDFORMAT
  1
GRIDFORMAT_BEGIN
 90
        0
 91
        1
 62
     0
 92
       -2
340
0
 93
        0
 40
0.045
309
GRIDFORMAT_END
309
TABLEFORMAT_END
  1
CELLSTYLE_BEGIN
 90
        3
 91
        2
300
_DATA
309
CELLSTYLE_END
  0
XRECORD
  5
24C5
102
{ACAD_REACTORS
330
17F1
102
}
330
17F1
100
AcDbXrecord
280
     1
102
ACAD_ROUNDTRIP_PRE2007_TABLESTYLE
 90
      512
 91
        0
  1

 92
      512
 93
        0
  2

 94
      512
 95
        0
  3

  0
CELLSTYLEMAP
  5
2495
102
{ACAD_REACTORS
330
1985
102
}
330
1985
100
AcDbCellStyleMap
 90
        3
300
CELLSTYLE
  1
TABLEFORMAT_BEGIN
 90
        5
170
     1
 91
        0
 92
    32768
 62
   257
 93
        1
300
CONTENTFORMAT
  1
CONTENTFORMAT_BEGIN
 90
        0
 91
        0
 92
      512
 93
        0
300

 40
0.0
140
1.0
 94
        5
 62
     0
340
10
144
6.0
309
CONTENTFORMAT_END
171
     1
301
MARGIN
  1
CELLMARGIN_BEGIN
 40
1.5
 40
1.5
 40
1.5
 40
1.5
 40
4.5
 40
4.5
309
CELLMARGIN_END
 94
        6
 95
        1
302
GRIDFORMAT
  1
GRIDFORMAT_BEGIN
 90
        0
 91
        1
 62
     0
 92
       -2
340
0
 93
        0
 40
1.125
309
GRIDFORMAT_END
 95
        2
302
GRIDFORMAT
  1
GRIDFORMAT_BEGIN
 90
        0
 91
        1
 62
     0
 92
       -2
340
0
 93
        0
 40
1.125
309
GRIDFORMAT_END
 95
        4
302
GRIDFORMAT
  1
GRIDFORMAT_BEGIN
 90
        0
 91
        1
 62
     0
 92
       -2
340
0
 93
        0
 40
1.125
309
GRIDFORMAT_END
 95
        8
302
GRIDFORMAT
  1
GRIDFORMAT_BEGIN
 90
        0
 91
        1
 62
     0
 92
       -2
340
0
 93
        0
 40
1.125
309
GRIDFORMAT_END
 95
       16
302
GRIDFORMAT
  1
GRIDFORMAT_BEGIN
 90
        0
 91
        1
 62
     0
 92
       -2
340
0
 93
        0
 40
1.125
309
GRIDFORMAT_END
 95
       32
302
GRIDFORMAT
  1
GRIDFORMAT_BEGIN
 90
        0
 91
        1
 62
     0
 92
       -2
340
0
 93
        0
 40
1.125
309
GRIDFORMAT_END
309
TABLEFORMAT_END
  1
CELLSTYLE_BEGIN
 90
        1
 91
        1
300
_TITLE
309
CELLSTYLE_END
300
CELLSTYLE
  1
TABLEFORMAT_BEGIN
 90
        5
170
     1
 91
        0
 92
        0
 62
   257
 93
        1
300
CONTENTFORMAT
  1
CONTENTFORMAT_BEGIN
 90
        0
 91
        0
 92
      512
 93
        0
300

 40
0.0
140
1.0
 94
        5
 62
     0
340
10
144
4.5
309
CONTENTFORMAT_END
171
     1
301
MARGIN
  1
CELLMARGIN_BEGIN
 40
1.5
 40
1.5
 40
1.5
 40
1.5
 40
4.5
 40
4.5
309
CELLMARGIN_END
 94
        6
 95
        1
302
GRIDFORMAT
  1
GRIDFORMAT_BEGIN
 90
        0
 91
        1
 62
     0
 92
       -2
340
0
 93
        0
 40
1.125
309
GRIDFORMAT_END
 95
        2
302
GRIDFORMAT
  1
GRIDFORMAT_BEGIN
 90
        0
 91
        1
 62
     0
 92
       -2
340
0
 93
        0
 40
1.125
309
GRIDFORMAT_END
 95
        4
302
GRIDFORMAT
  1
GRIDFORMAT_BEGIN
 90
        0
 91
        1
 62
     0
 92
       -2
340
0
 93
        0
 40
1.125
309
GRIDFORMAT_END
 95
        8
302
GRIDFORMAT
  1
GRIDFORMAT_BEGIN
 90
        0
 91
        1
 62
     0
 92
       -2
340
0
 93
        0
 40
1.125
309
GRIDFORMAT_END
 95
       16
302
GRIDFORMAT
  1
GRIDFORMAT_BEGIN
 90
        0
 91
        1
 62
     0
 92
       -2
340
0
 93
        0
 40
1.125
309
GRIDFORMAT_END
 95
       32
302
GRIDFORMAT
  1
GRIDFORMAT_BEGIN
 90
        0
 91
        1
 62
     0
 92
       -2
340
0
 93
        0
 40
1.125
309
GRIDFORMAT_END
309
TABLEFORMAT_END
  1
CELLSTYLE_BEGIN
 90
        2
 91
        1
300
_HEADER
309
CELLSTYLE_END
300
CELLSTYLE
  1
TABLEFORMAT_BEGIN
 90
        5
170
     1
 91
        0
 92
        0
 62
   257
 93
        1
300
CONTENTFORMAT
  1
CONTENTFORMAT_BEGIN
 90
        0
 91
        0
 92
      512
 93
        0
300

 40
0.0
140
1.0
 94
        2
 62
     0
340
10
144
4.5
309
CONTENTFORMAT_END
171
     1
301
MARGIN
  1
CELLMARGIN_BEGIN
 40
1.5
 40
1.5
 40
1.5
 40
1.5
 40
4.5
 40
4.5
309
CELLMARGIN_END
 94
        6
 95
        1
302
GRIDFORMAT
  1
GRIDFORMAT_BEGIN
 90
        0
 91
        1
 62
     0
 92
       -2
340
0
 93
        0
 40
1.125
309
GRIDFORMAT_END
 95
        2
302
GRIDFORMAT
  1
GRIDFORMAT_BEGIN
 90
        0
 91
        1
 62
     0
 92
       -2
340
0
 93
        0
 40
1.125
309
GRIDFORMAT_END
 95
        4
302
GRIDFORMAT
  1
GRIDFORMAT_BEGIN
 90
        0
 91
        1
 62
     0
 92
       -2
340
0
 93
        0
 40
1.125
309
GRIDFORMAT_END
 95
        8
302
GRIDFORMAT
  1
GRIDFORMAT_BEGIN
 90
        0
 91
        1
 62
     0
 92
       -2
340
0
 93
        0
 40
1.125
309
GRIDFORMAT_END
 95
       16
302
GRIDFORMAT
  1
GRIDFORMAT_BEGIN
 90
        0
 91
        1
 62
     0
 92
       -2
340
0
 93
        0
 40
1.125
309
GRIDFORMAT_END
 95
       32
302
GRIDFORMAT
  1
GRIDFORMAT_BEGIN
 90
        0
 91
        1
 62
     0
 92
       -2
340
0
 93
        0
 40
1.125
309
GRIDFORMAT_END
309
TABLEFORMAT_END
  1
CELLSTYLE_BEGIN
 90
        3
 91
        2
300
_DATA
309
CELLSTYLE_END
  0
XRECORD
  5
24BF
102
{ACAD_REACTORS
330
1985
102
}
330
1985
100
AcDbXrecord
280
     1
102
ACAD_ROUNDTRIP_PRE2007_TABLESTYLE
 90
      512
 91
        0
  1

 92
      512
 93
        0
  2

 94
      512
 95
        0
  3

  0
XRECORD
  5
24AA
102
{ACAD_REACTORS
330
24A9
102
}
330
24A9
100
AcDbXrecord
280
     1
102
RTVSPropertyOp0
 70
     1
102
RTVSPropertyOp1
 70
     1
102
RTVSPropertyOp2
 70
     1
102
RTVSPropertyOp3
 70
     1
102
RTVSPropertyOp4
 70
     1
102
RTVSPropertyOp5
 70
     1
102
RTVSPropertyOp6
 70
     1
102
RTVSPropertyOp7
 70
     1
102
RTVSPropertyOp8
 70
     1
102
RTVSPropertyOp9
 70
     1
102
RTVSPropertyOp10
 70
     1
102
RTVSPropertyOp11
 70
     1
102
RTVSPropertyOp12
 70
     1
102
RTVSPropertyOp13
 70
     1
102
RTVSPropertyOp14
 70
     1
102
RTVSPropertyOp15
 70
     1
102
RTVSPropertyOp16
 70
     1
102
RTVSPropertyOp17
 70
     1
102
RTVSPropertyOp18
 70
     1
102
RTVSPropertyOp19
 70
     1
102
RTVSPropertyOp20
 70
     1
102
RTVSPropertyOp21
 70
     1
102
RTVSPropertyOp22
 70
     1
102
RTVSPropertyOp23
 70
     1
102
RTVSPropertyOp24
 70
     1
102
RTVSPropertyOp25
 70
     1
102
RTVSPropertyOp26
 70
     1
102
RTVSPropertyOp27
 70
     1
102
RTVSPropertyOp28
 70
     1
102
RTVSPropertyOp29
 70
     1
102
RTVSPropertyOp30
 70
     1
102
RTVSPropertyOp31
 70
     1
102
RTVSPropertyOp32
 70
     1
  0
XRECORD
  5
24AE
102
{ACAD_REACTORS
330
24AD
102
}
330
24AD
100
AcDbXrecord
280
     1
102
RTVSPropertyOp0
 70
     1
102
RTVSPropertyOp1
 70
     1
102
RTVSPropertyOp2
 70
     1
102
RTVSPropertyOp3
 70
     1
102
RTVSPropertyOp4
 70
     1
102
RTVSPropertyOp5
 70
     1
102
RTVSPropertyOp6
 70
     1
102
RTVSPropertyOp7
 70
     1
102
RTVSPropertyOp8
 70
     1
102
RTVSPropertyOp9
 70
     1
102
RTVSPropertyOp10
 70
     1
102
RTVSPropertyOp11
 70
     1
102
RTVSPropertyOp12
 70
     1
102
RTVSPropertyOp13
 70
     1
102
RTVSPropertyOp14
 70
     1
102
RTVSPropertyOp15
 70
     1
102
RTVSPropertyOp16
 70
     1
102
RTVSPropertyOp17
 70
     1
102
RTVSPropertyOp18
 70
     1
102
RTVSPropertyOp19
 70
     1
102
RTVSPropertyOp20
 70
     1
102
RTVSPropertyOp21
 70
     1
102
RTVSPropertyOp22
 70
     1
102
RTVSPropertyOp23
 70
     1
102
RTVSPropertyOp24
 70
     1
102
RTVSPropertyOp25
 70
     1
102
RTVSPropertyOp26
 70
     1
102
RTVSPropertyOp27
 70
     1
102
RTVSPropertyOp28
 70
     1
102
RTVSPropertyOp29
 70
     1
102
RTVSPropertyOp30
 70
     1
102
RTVSPropertyOp31
 70
     1
102
RTVSPropertyOp32
 70
     1
  0
XRECORD
  5
24AC
102
{ACAD_REACTORS
330
24AB
102
}
330
24AB
100
AcDbXrecord
280
     1
102
RTVSPropertyOp0
 70
     1
102
RTVSPropertyOp1
 70
     1
102
RTVSPropertyOp2
 70
     1
102
RTVSPropertyOp3
 70
     1
102
RTVSPropertyOp4
 70
     1
102
RTVSPropertyOp5
 70
     1
102
RTVSPropertyOp6
 70
     1
102
RTVSPropertyOp7
 70
     1
102
RTVSPropertyOp8
 70
     1
102
RTVSPropertyOp9
 70
     1
102
RTVSPropertyOp10
 70
     1
102
RTVSPropertyOp11
 70
     1
102
RTVSPropertyOp12
 70
     1
102
RTVSPropertyOp13
 70
     1
102
RTVSPropertyOp14
 70
     1
102
RTVSPropertyOp15
 70
     1
102
RTVSPropertyOp16
 70
     1
102
RTVSPropertyOp17
 70
     1
102
RTVSPropertyOp18
 70
     1
102
RTVSPropertyOp19
 70
     1
102
RTVSPropertyOp20
 70
     1
102
RTVSPropertyOp21
 70
     1
102
RTVSPropertyOp22
 70
     1
102
RTVSPropertyOp23
 70
     1
102
RTVSPropertyOp24
 70
     1
102
RTVSPropertyOp25
 70
     1
102
RTVSPropertyOp26
 70
     1
102
RTVSPropertyOp27
 70
     1
102
RTVSPropertyOp28
 70
     1
102
RTVSPropertyOp29
 70
     1
102
RTVSPropertyOp30
 70
     1
102
RTVSPropertyOp31
 70
     1
102
RTVSPropertyOp32
 70
     1
  0
XRECORD
  5
24A8
102
{ACAD_REACTORS
330
24A7
102
}
330
24A7
100
AcDbXrecord
280
     1
102
RTVSPropertyOp0
 70
     1
102
RTVSPropertyOp1
 70
     1
102
RTVSPropertyOp2
 70
     1
102
RTVSPropertyOp3
 70
     1
102
RTVSPropertyOp4
 70
     1
102
RTVSPropertyOp5
 70
     1
102
RTVSPropertyOp6
 70
     1
102
RTVSPropertyOp7
 70
     1
102
RTVSPropertyOp8
 70
     1
102
RTVSPropertyOp9
 70
     1
102
RTVSPropertyOp10
 70
     1
102
RTVSPropertyOp11
 70
     1
102
RTVSPropertyOp12
 70
     1
102
RTVSPropertyOp13
 70
     1
102
RTVSPropertyOp14
 70
     1
102
RTVSPropertyOp15
 70
     1
102
RTVSPropertyOp16
 70
     1
102
RTVSPropertyOp17
 70
     1
102
RTVSPropertyOp18
 70
     1
102
RTVSPropertyOp19
 70
     1
102
RTVSPropertyOp20
 70
     1
102
RTVSPropertyOp21
 70
     1
102
RTVSPropertyOp22
 70
     1
102
RTVSPropertyOp23
 70
     1
102
RTVSPropertyOp24
 70
     1
102
RTVSPropertyOp25
 70
     1
102
RTVSPropertyOp26
 70
     1
102
RTVSPropertyOp27
 70
     1
102
RTVSPropertyOp28
 70
     1
102
RTVSPropertyOp29
 70
     1
102
RTVSPropertyOp30
 70
     1
102
RTVSPropertyOp31
 70
     1
102
RTVSPropertyOp32
 70
     1
  0
XRECORD
  5
24B6
102
{ACAD_REACTORS
330
24B5
102
}
330
24B5
100
AcDbXrecord
280
     1
102
RTVSPropertyOp0
 70
     1
102
RTVSPropertyOp1
 70
     1
102
RTVSPropertyOp2
 70
     1
102
RTVSPropertyOp3
 70
     1
102
RTVSPropertyOp4
 70
     1
102
RTVSPropertyOp5
 70
     1
102
RTVSPropertyOp6
 70
     1
102
RTVSPropertyOp7
 70
     1
102
RTVSPropertyOp8
 70
     1
102
RTVSPropertyOp9
 70
     1
102
RTVSPropertyOp10
 70
     1
102
RTVSPropertyOp11
 70
     1
102
RTVSPropertyOp12
 70
     1
102
RTVSPropertyOp13
 70
     1
102
RTVSPropertyOp14
 70
     1
102
RTVSPropertyOp15
 70
     1
102
RTVSPropertyOp16
 70
     1
102
RTVSPropertyOp17
 70
     1
102
RTVSPropertyOp18
 70
     1
102
RTVSPropertyOp19
 70
     1
102
RTVSPropertyOp20
 70
     1
102
RTVSPropertyOp21
 70
     1
102
RTVSPropertyOp22
 70
     1
102
RTVSPropertyOp23
 70
     1
102
RTVSPropertyOp24
 70
     1
102
RTVSPropertyOp25
 70
     1
102
RTVSPropertyOp26
 70
     1
102
RTVSPropertyOp27
 70
     1
102
RTVSPropertyOp28
 70
     1
102
RTVSPropertyOp29
 70
     1
102
RTVSPropertyOp30
 70
     1
102
RTVSPropertyOp31
 70
     1
102
RTVSPropertyOp32
 70
     1
  0
XRECORD
  5
24BE
102
{ACAD_REACTORS
330
24BD
102
}
330
24BD
100
AcDbXrecord
280
     1
102
RTVSPropertyOp0
 70
     1
102
RTVSPropertyOp1
 70
     1
102
RTVSPropertyOp2
 70
     1
102
RTVSPropertyOp3
 70
     1
102
RTVSPropertyOp4
 70
     1
102
RTVSPropertyOp5
 70
     1
102
RTVSPropertyOp6
 70
     1
102
RTVSPropertyOp7
 70
     1
102
RTVSPropertyOp8
 70
     1
102
RTVSPropertyOp9
 70
     1
102
RTVSPropertyOp10
 70
     1
102
RTVSPropertyOp11
 70
     1
102
RTVSPropertyOp12
 70
     1
102
RTVSPropertyOp13
 70
     1
102
RTVSPropertyOp14
 70
     1
102
RTVSPropertyOp15
 70
     1
102
RTVSPropertyOp16
 70
     1
102
RTVSPropertyOp17
 70
     1
102
RTVSPropertyOp18
 70
     1
102
RTVSPropertyOp19
 70
     1
102
RTVSPropertyOp20
 70
     1
102
RTVSPropertyOp21
 70
     1
102
RTVSPropertyOp22
 70
     1
102
RTVSPropertyOp23
 70
     1
102
RTVSPropertyOp24
 70
     1
102
RTVSPropertyOp25
 70
     1
102
RTVSPropertyOp26
 70
     1
102
RTVSPropertyOp27
 70
     1
102
RTVSPropertyOp28
 70
     1
102
RTVSPropertyOp29
 70
     1
102
RTVSPropertyOp30
 70
     1
102
RTVSPropertyOp31
 70
     1
102
RTVSPropertyOp32
 70
     1
  0
XRECORD
  5
24B0
102
{ACAD_REACTORS
330
24AF
102
}
330
24AF
100
AcDbXrecord
280
     1
102
RTVSPropertyOp0
 70
     1
102
RTVSPropertyOp1
 70
     1
102
RTVSPropertyOp2
 70
     1
102
RTVSPropertyOp3
 70
     1
102
RTVSPropertyOp4
 70
     1
102
RTVSPropertyOp5
 70
     1
102
RTVSPropertyOp6
 70
     1
102
RTVSPropertyOp7
 70
     1
102
RTVSPropertyOp8
 70
     1
102
RTVSPropertyOp9
 70
     1
102
RTVSPropertyOp10
 70
     1
102
RTVSPropertyOp11
 70
     1
102
RTVSPropertyOp12
 70
     1
102
RTVSPropertyOp13
 70
     1
102
RTVSPropertyOp14
 70
     1
102
RTVSPropertyOp15
 70
     1
102
RTVSPropertyOp16
 70
     1
102
RTVSPropertyOp17
 70
     1
102
RTVSPropertyOp18
 70
     1
102
RTVSPropertyOp19
 70
     1
102
RTVSPropertyOp20
 70
     1
102
RTVSPropertyOp21
 70
     1
102
RTVSPropertyOp22
 70
     1
102
RTVSPropertyOp23
 70
     1
102
RTVSPropertyOp24
 70
     1
102
RTVSPropertyOp25
 70
     1
102
RTVSPropertyOp26
 70
     1
102
RTVSPropertyOp27
 70
     1
102
RTVSPropertyOp28
 70
     1
102
RTVSPropertyOp29
 70
     1
102
RTVSPropertyOp30
 70
     1
102
RTVSPropertyOp31
 70
     1
102
RTVSPropertyOp32
 70
     1
  0
XRECORD
  5
24B4
102
{ACAD_REACTORS
330
24B3
102
}
330
24B3
100
AcDbXrecord
280
     1
102
RTVSPropertyOp0
 70
     1
102
RTVSPropertyOp1
 70
     1
102
RTVSPropertyOp2
 70
     1
102
RTVSPropertyOp3
 70
     1
102
RTVSPropertyOp4
 70
     1
102
RTVSPropertyOp5
 70
     1
102
RTVSPropertyOp6
 70
     1
102
RTVSPropertyOp7
 70
     1
102
RTVSPropertyOp8
 70
     1
102
RTVSPropertyOp9
 70
     1
102
RTVSPropertyOp10
 70
     1
102
RTVSPropertyOp11
 70
     1
102
RTVSPropertyOp12
 70
     1
102
RTVSPropertyOp13
 70
     1
102
RTVSPropertyOp14
 70
     1
102
RTVSPropertyOp15
 70
     1
102
RTVSPropertyOp16
 70
     1
102
RTVSPropertyOp17
 70
     1
102
RTVSPropertyOp18
 70
     1
102
RTVSPropertyOp19
 70
     1
102
RTVSPropertyOp20
 70
     1
102
RTVSPropertyOp21
 70
     1
102
RTVSPropertyOp22
 70
     1
102
RTVSPropertyOp23
 70
     1
102
RTVSPropertyOp24
 70
     1
102
RTVSPropertyOp25
 70
     1
102
RTVSPropertyOp26
 70
     1
102
RTVSPropertyOp27
 70
     1
102
RTVSPropertyOp28
 70
     1
102
RTVSPropertyOp29
 70
     1
102
RTVSPropertyOp30
 70
     1
102
RTVSPropertyOp31
 70
     1
102
RTVSPropertyOp32
 70
     1
  0
XRECORD
  5
24E4
102
{ACAD_REACTORS
330
24E3
102
}
330
24E3
100
AcDbXrecord
280
     1
102
RTVSPropertyOp0
 70
     0
102
RTVSPropertyOp1
 70
     0
102
RTVSPropertyOp2
 70
     0
102
RTVSPropertyOp3
 70
     0
102
RTVSPropertyOp4
 70
     0
102
RTVSPropertyOp5
 70
     0
102
RTVSPropertyOp6
 70
     0
102
RTVSPropertyOp7
 70
     0
102
RTVSPropertyOp8
 70
     0
102
RTVSPropertyOp9
 70
     0
102
RTVSPropertyOp10
 70
     0
102
RTVSPropertyOp11
 70
     0
102
RTVSPropertyOp12
 70
     0
102
RTVSPropertyOp13
 70
     0
102
RTVSPropertyOp14
 70
     2
102
RTVSPropertyOp15
 70
     0
102
RTVSPropertyOp16
 70
     0
102
RTVSPropertyOp17
 70
     0
102
RTVSPropertyOp18
 70
     0
102
RTVSPropertyOp19
 70
     0
102
RTVSPropertyOp20
 70
     0
102
RTVSPropertyOp21
 70
     0
102
RTVSPropertyOp22
 70
     0
102
RTVSPropertyOp23
 70
     0
102
RTVSPropertyOp24
 70
     0
102
RTVSPropertyOp25
 70
     0
102
RTVSPropertyOp26
 70
     0
102
RTVSPropertyOp27
 70
     0
102
RTVSPropertyOp28
 70
     0
102
RTVSPropertyOp29
 70
     0
102
RTVSPropertyOp30
 70
     0
102
RTVSPropertyOp31
 70
     0
102
RTVSPropertyOp32
 70
     0
  0
XRECORD
  5
24BC
102
{ACAD_REACTORS
330
24BB
102
}
330
24BB
100
AcDbXrecord
280
     1
102
RTVSPropertyOp0
 70
     1
102
RTVSPropertyOp1
 70
     1
102
RTVSPropertyOp2
 70
     1
102
RTVSPropertyOp3
 70
     1
102
RTVSPropertyOp4
 70
     1
102
RTVSPropertyOp5
 70
     1
102
RTVSPropertyOp6
 70
     1
102
RTVSPropertyOp7
 70
     1
102
RTVSPropertyOp8
 70
     1
102
RTVSPropertyOp9
 70
     1
102
RTVSPropertyOp10
 70
     1
102
RTVSPropertyOp11
 70
     1
102
RTVSPropertyOp12
 70
     1
102
RTVSPropertyOp13
 70
     1
102
RTVSPropertyOp14
 70
     1
102
RTVSPropertyOp15
 70
     1
102
RTVSPropertyOp16
 70
     1
102
RTVSPropertyOp17
 70
     1
102
RTVSPropertyOp18
 70
     1
102
RTVSPropertyOp19
 70
     1
102
RTVSPropertyOp20
 70
     1
102
RTVSPropertyOp21
 70
     1
102
RTVSPropertyOp22
 70
     1
102
RTVSPropertyOp23
 70
     1
102
RTVSPropertyOp24
 70
     1
102
RTVSPropertyOp25
 70
     1
102
RTVSPropertyOp26
 70
     1
102
RTVSPropertyOp27
 70
     1
102
RTVSPropertyOp28
 70
     1
102
RTVSPropertyOp29
 70
     1
102
RTVSPropertyOp30
 70
     1
102
RTVSPropertyOp31
 70
     1
102
RTVSPropertyOp32
 70
     1
  0
XRECORD
  5
24A0
102
{ACAD_REACTORS
330
249F
102
}
330
249F
100
AcDbXrecord
280
     1
102
RTVSPropertyOp0
 70
     1
102
RTVSPropertyOp1
 70
     1
102
RTVSPropertyOp2
 70
     1
102
RTVSPropertyOp3
 70
     1
102
RTVSPropertyOp4
 70
     1
102
RTVSPropertyOp5
 70
     1
102
RTVSPropertyOp6
 70
     1
102
RTVSPropertyOp7
 70
     1
102
RTVSPropertyOp8
 70
     1
102
RTVSPropertyOp9
 70
     1
102
RTVSPropertyOp10
 70
     1
102
RTVSPropertyOp11
 70
     1
102
RTVSPropertyOp12
 70
     1
102
RTVSPropertyOp13
 70
     1
102
RTVSPropertyOp14
 70
     1
102
RTVSPropertyOp15
 70
     1
102
RTVSPropertyOp16
 70
     1
102
RTVSPropertyOp17
 70
     1
102
RTVSPropertyOp18
 70
     1
102
RTVSPropertyOp19
 70
     1
102
RTVSPropertyOp20
 70
     1
102
RTVSPropertyOp21
 70
     1
102
RTVSPropertyOp22
 70
     1
102
RTVSPropertyOp23
 70
     1
102
RTVSPropertyOp24
 70
     1
102
RTVSPropertyOp25
 70
     1
102
RTVSPropertyOp26
 70
     1
102
RTVSPropertyOp27
 70
     1
102
RTVSPropertyOp28
 70
     1
102
RTVSPropertyOp29
 70
     1
102
RTVSPropertyOp30
 70
     1
102
RTVSPropertyOp31
 70
     1
102
RTVSPropertyOp32
 70
     1
  0
XRECORD
  5
24A2
102
{ACAD_REACTORS
330
24A1
102
}
330
24A1
100
AcDbXrecord
280
     1
102
RTVSPropertyOp0
 70
     1
102
RTVSPropertyOp1
 70
     1
102
RTVSPropertyOp2
 70
     1
102
RTVSPropertyOp3
 70
     1
102
RTVSPropertyOp4
 70
     1
102
RTVSPropertyOp5
 70
     1
102
RTVSPropertyOp6
 70
     1
102
RTVSPropertyOp7
 70
     1
102
RTVSPropertyOp8
 70
     1
102
RTVSPropertyOp9
 70
     1
102
RTVSPropertyOp10
 70
     1
102
RTVSPropertyOp11
 70
     1
102
RTVSPropertyOp12
 70
     1
102
RTVSPropertyOp13
 70
     1
102
RTVSPropertyOp14
 70
     1
102
RTVSPropertyOp15
 70
     1
102
RTVSPropertyOp16
 70
     1
102
RTVSPropertyOp17
 70
     1
102
RTVSPropertyOp18
 70
     1
102
RTVSPropertyOp19
 70
     1
102
RTVSPropertyOp20
 70
     1
102
RTVSPropertyOp21
 70
     1
102
RTVSPropertyOp22
 70
     1
102
RTVSPropertyOp23
 70
     1
102
RTVSPropertyOp24
 70
     1
102
RTVSPropertyOp25
 70
     1
102
RTVSPropertyOp26
 70
     1
102
RTVSPropertyOp27
 70
     1
102
RTVSPropertyOp28
 70
     1
102
RTVSPropertyOp29
 70
     1
102
RTVSPropertyOp30
 70
     1
102
RTVSPropertyOp31
 70
     1
102
RTVSPropertyOp32
 70
     1
  0
XRECORD
  5
24A4
102
{ACAD_REACTORS
330
24A3
102
}
330
24A3
100
AcDbXrecord
280
     1
102
RTVSPropertyOp0
 70
     1
102
RTVSPropertyOp1
 70
     1
102
RTVSPropertyOp2
 70
     1
102
RTVSPropertyOp3
 70
     1
102
RTVSPropertyOp4
 70
     1
102
RTVSPropertyOp5
 70
     1
102
RTVSPropertyOp6
 70
     1
102
RTVSPropertyOp7
 70
     1
102
RTVSPropertyOp8
 70
     1
102
RTVSPropertyOp9
 70
     1
102
RTVSPropertyOp10
 70
     1
102
RTVSPropertyOp11
 70
     1
102
RTVSPropertyOp12
 70
     1
102
RTVSPropertyOp13
 70
     1
102
RTVSPropertyOp14
 70
     1
102
RTVSPropertyOp15
 70
     1
102
RTVSPropertyOp16
 70
     1
102
RTVSPropertyOp17
 70
     1
102
RTVSPropertyOp18
 70
     1
102
RTVSPropertyOp19
 70
     1
102
RTVSPropertyOp20
 70
     1
102
RTVSPropertyOp21
 70
     1
102
RTVSPropertyOp22
 70
     1
102
RTVSPropertyOp23
 70
     1
102
RTVSPropertyOp24
 70
     1
102
RTVSPropertyOp25
 70
     1
102
RTVSPropertyOp26
 70
     1
102
RTVSPropertyOp27
 70
     1
102
RTVSPropertyOp28
 70
     1
102
RTVSPropertyOp29
 70
     1
102
RTVSPropertyOp30
 70
     1
102
RTVSPropertyOp31
 70
     1
102
RTVSPropertyOp32
 70
     1
  0
XRECORD
  5
24A6
102
{ACAD_REACTORS
330
24A5
102
}
330
24A5
100
AcDbXrecord
280
     1
102
RTVSPropertyOp0
 70
     1
102
RTVSPropertyOp1
 70
     1
102
RTVSPropertyOp2
 70
     1
102
RTVSPropertyOp3
 70
     1
102
RTVSPropertyOp4
 70
     1
102
RTVSPropertyOp5
 70
     1
102
RTVSPropertyOp6
 70
     1
102
RTVSPropertyOp7
 70
     1
102
RTVSPropertyOp8
 70
     1
102
RTVSPropertyOp9
 70
     1
102
RTVSPropertyOp10
 70
     1
102
RTVSPropertyOp11
 70
     1
102
RTVSPropertyOp12
 70
     1
102
RTVSPropertyOp13
 70
     1
102
RTVSPropertyOp14
 70
     1
102
RTVSPropertyOp15
 70
     1
102
RTVSPropertyOp16
 70
     1
102
RTVSPropertyOp17
 70
     1
102
RTVSPropertyOp18
 70
     1
102
RTVSPropertyOp19
 70
     1
102
RTVSPropertyOp20
 70
     1
102
RTVSPropertyOp21
 70
     1
102
RTVSPropertyOp22
 70
     1
102
RTVSPropertyOp23
 70
     1
102
RTVSPropertyOp24
 70
     1
102
RTVSPropertyOp25
 70
     1
102
RTVSPropertyOp26
 70
     1
102
RTVSPropertyOp27
 70
     1
102
RTVSPropertyOp28
 70
     1
102
RTVSPropertyOp29
 70
     1
102
RTVSPropertyOp30
 70
     1
102
RTVSPropertyOp31
 70
     1
102
RTVSPropertyOp32
 70
     1
  0
XRECORD
  5
24D4
102
{ACAD_REACTORS
330
24D3
102
}
330
24D3
100
AcDbXrecord
280
     1
102
RTVSPropertyOp0
 70
     1
102
RTVSPropertyOp1
 70
     1
102
RTVSPropertyOp2
 70
     1
102
RTVSPropertyOp3
 70
     1
102
RTVSPropertyOp4
 70
     1
102
RTVSPropertyOp5
 70
     1
102
RTVSPropertyOp6
 70
     1
102
RTVSPropertyOp7
 70
     1
102
RTVSPropertyOp8
 70
     1
102
RTVSPropertyOp9
 70
     1
102
RTVSPropertyOp10
 70
     1
102
RTVSPropertyOp11
 70
     1
102
RTVSPropertyOp12
 70
     1
102
RTVSPropertyOp13
 70
     1
102
RTVSPropertyOp14
 70
     1
102
RTVSPropertyOp15
 70
     1
102
RTVSPropertyOp16
 70
     1
102
RTVSPropertyOp17
 70
     1
102
RTVSPropertyOp18
 70
     1
102
RTVSPropertyOp19
 70
     1
102
RTVSPropertyOp20
 70
     1
102
RTVSPropertyOp21
 70
     1
102
RTVSPropertyOp22
 70
     1
102
RTVSPropertyOp23
 70
     1
102
RTVSPropertyOp24
 70
     1
102
RTVSPropertyOp25
 70
     1
102
RTVSPropertyOp26
 70
     1
102
RTVSPropertyOp27
 70
     1
102
RTVSPropertyOp28
 70
     1
102
RTVSPropertyOp29
 70
     1
102
RTVSPropertyOp30
 70
     1
102
RTVSPropertyOp31
 70
     1
102
RTVSPropertyOp32
 70
     1
  0
XRECORD
  5
24E0
102
{ACAD_REACTORS
330
24DF
102
}
330
24DF
100
AcDbXrecord
280
     1
102
RTVSPropertyOp0
 70
     0
102
RTVSPropertyOp1
 70
     0
102
RTVSPropertyOp2
 70
     0
102
RTVSPropertyOp3
 70
     0
102
RTVSPropertyOp4
 70
     0
102
RTVSPropertyOp5
 70
     0
102
RTVSPropertyOp6
 70
     0
102
RTVSPropertyOp7
 70
     0
102
RTVSPropertyOp8
 70
     0
102
RTVSPropertyOp9
 70
     0
102
RTVSPropertyOp10
 70
     0
102
RTVSPropertyOp11
 70
     0
102
RTVSPropertyOp12
 70
     0
102
RTVSPropertyOp13
 70
     0
102
RTVSPropertyOp14
 70
     2
102
RTVSPropertyOp15
 70
     0
102
RTVSPropertyOp16
 70
     0
102
RTVSPropertyOp17
 70
     0
102
RTVSPropertyOp18
 70
     0
102
RTVSPropertyOp19
 70
     0
102
RTVSPropertyOp20
 70
     0
102
RTVSPropertyOp21
 70
     0
102
RTVSPropertyOp22
 70
     0
102
RTVSPropertyOp23
 70
     0
102
RTVSPropertyOp24
 70
     0
102
RTVSPropertyOp25
 70
     0
102
RTVSPropertyOp26
 70
     0
102
RTVSPropertyOp27
 70
     0
102
RTVSPropertyOp28
 70
     0
102
RTVSPropertyOp29
 70
     0
102
RTVSPropertyOp30
 70
     0
102
RTVSPropertyOp31
 70
     0
102
RTVSPropertyOp32
 70
     0
  0
XRECORD
  5
24BA
102
{ACAD_REACTORS
330
24B9
102
}
330
24B9
100
AcDbXrecord
280
     1
102
RTVSPropertyOp0
 70
     1
102
RTVSPropertyOp1
 70
     1
102
RTVSPropertyOp2
 70
     1
102
RTVSPropertyOp3
 70
     1
102
RTVSPropertyOp4
 70
     1
102
RTVSPropertyOp5
 70
     1
102
RTVSPropertyOp6
 70
     1
102
RTVSPropertyOp7
 70
     1
102
RTVSPropertyOp8
 70
     1
102
RTVSPropertyOp9
 70
     1
102
RTVSPropertyOp10
 70
     1
102
RTVSPropertyOp11
 70
     1
102
RTVSPropertyOp12
 70
     1
102
RTVSPropertyOp13
 70
     1
102
RTVSPropertyOp14
 70
     1
102
RTVSPropertyOp15
 70
     1
102
RTVSPropertyOp16
 70
     1
102
RTVSPropertyOp17
 70
     1
102
RTVSPropertyOp18
 70
     1
102
RTVSPropertyOp19
 70
     1
102
RTVSPropertyOp20
 70
     1
102
RTVSPropertyOp21
 70
     1
102
RTVSPropertyOp22
 70
     1
102
RTVSPropertyOp23
 70
     1
102
RTVSPropertyOp24
 70
     1
102
RTVSPropertyOp25
 70
     1
102
RTVSPropertyOp26
 70
     1
102
RTVSPropertyOp27
 70
     1
102
RTVSPropertyOp28
 70
     1
102
RTVSPropertyOp29
 70
     1
102
RTVSPropertyOp30
 70
     1
102
RTVSPropertyOp31
 70
     1
102
RTVSPropertyOp32
 70
     1
  0
XRECORD
  5
24E2
102
{ACAD_REACTORS
330
24E1
102
}
330
24E1
100
AcDbXrecord
280
     1
102
RTVSPropertyOp0
 70
     0
102
RTVSPropertyOp1
 70
     0
102
RTVSPropertyOp2
 70
     0
102
RTVSPropertyOp3
 70
     0
102
RTVSPropertyOp4
 70
     0
102
RTVSPropertyOp5
 70
     0
102
RTVSPropertyOp6
 70
     0
102
RTVSPropertyOp7
 70
     0
102
RTVSPropertyOp8
 70
     0
102
RTVSPropertyOp9
 70
     0
102
RTVSPropertyOp10
 70
     0
102
RTVSPropertyOp11
 70
     0
102
RTVSPropertyOp12
 70
     0
102
RTVSPropertyOp13
 70
     0
102
RTVSPropertyOp14
 70
     2
102
RTVSPropertyOp15
 70
     0
102
RTVSPropertyOp16
 70
     0
102
RTVSPropertyOp17
 70
     0
102
RTVSPropertyOp18
 70
     0
102
RTVSPropertyOp19
 70
     0
102
RTVSPropertyOp20
 70
     0
102
RTVSPropertyOp21
 70
     0
102
RTVSPropertyOp22
 70
     0
102
RTVSPropertyOp23
 70
     0
102
RTVSPropertyOp24
 70
     0
102
RTVSPropertyOp25
 70
     0
102
RTVSPropertyOp26
 70
     0
102
RTVSPropertyOp27
 70
     0
102
RTVSPropertyOp28
 70
     0
102
RTVSPropertyOp29
 70
     0
102
RTVSPropertyOp30
 70
     0
102
RTVSPropertyOp31
 70
     0
102
RTVSPropertyOp32
 70
     0
  0
XRECORD
  5
24B2
102
{ACAD_REACTORS
330
24B1
102
}
330
24B1
100
AcDbXrecord
280
     1
102
RTVSPropertyOp0
 70
     1
102
RTVSPropertyOp1
 70
     1
102
RTVSPropertyOp2
 70
     1
102
RTVSPropertyOp3
 70
     1
102
RTVSPropertyOp4
 70
     1
102
RTVSPropertyOp5
 70
     1
102
RTVSPropertyOp6
 70
     1
102
RTVSPropertyOp7
 70
     1
102
RTVSPropertyOp8
 70
     1
102
RTVSPropertyOp9
 70
     1
102
RTVSPropertyOp10
 70
     1
102
RTVSPropertyOp11
 70
     1
102
RTVSPropertyOp12
 70
     1
102
RTVSPropertyOp13
 70
     1
102
RTVSPropertyOp14
 70
     1
102
RTVSPropertyOp15
 70
     1
102
RTVSPropertyOp16
 70
     1
102
RTVSPropertyOp17
 70
     1
102
RTVSPropertyOp18
 70
     1
102
RTVSPropertyOp19
 70
     1
102
RTVSPropertyOp20
 70
     1
102
RTVSPropertyOp21
 70
     1
102
RTVSPropertyOp22
 70
     1
102
RTVSPropertyOp23
 70
     1
102
RTVSPropertyOp24
 70
     1
102
RTVSPropertyOp25
 70
     1
102
RTVSPropertyOp26
 70
     1
102
RTVSPropertyOp27
 70
     1
102
RTVSPropertyOp28
 70
     1
102
RTVSPropertyOp29
 70
     1
102
RTVSPropertyOp30
 70
     1
102
RTVSPropertyOp31
 70
     1
102
RTVSPropertyOp32
 70
     1
  0
XRECORD
  5
24DE
102
{ACAD_REACTORS
330
24DD
102
}
330
24DD
100
AcDbXrecord
280
     1
102
RTVSPropertyOp0
 70
     1
102
RTVSPropertyOp1
 70
     1
102
RTVSPropertyOp2
 70
     1
102
RTVSPropertyOp3
 70
     1
102
RTVSPropertyOp4
 70
     1
102
RTVSPropertyOp5
 70
     1
102
RTVSPropertyOp6
 70
     1
102
RTVSPropertyOp7
 70
     1
102
RTVSPropertyOp8
 70
     1
102
RTVSPropertyOp9
 70
     1
102
RTVSPropertyOp10
 70
     1
102
RTVSPropertyOp11
 70
     1
102
RTVSPropertyOp12
 70
     1
102
RTVSPropertyOp13
 70
     1
102
RTVSPropertyOp14
 70
     1
102
RTVSPropertyOp15
 70
     1
102
RTVSPropertyOp16
 70
     1
102
RTVSPropertyOp17
 70
     1
102
RTVSPropertyOp18
 70
     1
102
RTVSPropertyOp19
 70
     1
102
RTVSPropertyOp20
 70
     1
102
RTVSPropertyOp21
 70
     1
102
RTVSPropertyOp22
 70
     1
102
RTVSPropertyOp23
 70
     1
102
RTVSPropertyOp24
 70
     1
102
RTVSPropertyOp25
 70
     1
102
RTVSPropertyOp26
 70
     1
102
RTVSPropertyOp27
 70
     1
102
RTVSPropertyOp28
 70
     1
102
RTVSPropertyOp29
 70
     1
102
RTVSPropertyOp30
 70
     1
102
RTVSPropertyOp31
 70
     1
102
RTVSPropertyOp32
 70
     1
  0
XRECORD
  5
24DC
102
{ACAD_REACTORS
330
24DB
102
}
330
24DB
100
AcDbXrecord
280
     1
102
RTVSPropertyOp0
 70
     1
102
RTVSPropertyOp1
 70
     1
102
RTVSPropertyOp2
 70
     1
102
RTVSPropertyOp3
 70
     1
102
RTVSPropertyOp4
 70
     1
102
RTVSPropertyOp5
 70
     1
102
RTVSPropertyOp6
 70
     1
102
RTVSPropertyOp7
 70
     1
102
RTVSPropertyOp8
 70
     1
102
RTVSPropertyOp9
 70
     1
102
RTVSPropertyOp10
 70
     1
102
RTVSPropertyOp11
 70
     1
102
RTVSPropertyOp12
 70
     1
102
RTVSPropertyOp13
 70
     1
102
RTVSPropertyOp14
 70
     1
102
RTVSPropertyOp15
 70
     1
102
RTVSPropertyOp16
 70
     1
102
RTVSPropertyOp17
 70
     1
102
RTVSPropertyOp18
 70
     1
102
RTVSPropertyOp19
 70
     1
102
RTVSPropertyOp20
 70
     1
102
RTVSPropertyOp21
 70
     1
102
RTVSPropertyOp22
 70
     1
102
RTVSPropertyOp23
 70
     1
102
RTVSPropertyOp24
 70
     1
102
RTVSPropertyOp25
 70
     1
102
RTVSPropertyOp26
 70
     1
102
RTVSPropertyOp27
 70
     1
102
RTVSPropertyOp28
 70
     1
102
RTVSPropertyOp29
 70
     1
102
RTVSPropertyOp30
 70
     1
102
RTVSPropertyOp31
 70
     1
102
RTVSPropertyOp32
 70
     1
  0
XRECORD
  5
24D6
102
{ACAD_REACTORS
330
24D5
102
}
330
24D5
100
AcDbXrecord
280
     1
102
RTVSPropertyOp0
 70
     1
102
RTVSPropertyOp1
 70
     1
102
RTVSPropertyOp2
 70
     1
102
RTVSPropertyOp3
 70
     1
102
RTVSPropertyOp4
 70
     1
102
RTVSPropertyOp5
 70
     1
102
RTVSPropertyOp6
 70
     1
102
RTVSPropertyOp7
 70
     1
102
RTVSPropertyOp8
 70
     1
102
RTVSPropertyOp9
 70
     1
102
RTVSPropertyOp10
 70
     1
102
RTVSPropertyOp11
 70
     1
102
RTVSPropertyOp12
 70
     1
102
RTVSPropertyOp13
 70
     1
102
RTVSPropertyOp14
 70
     1
102
RTVSPropertyOp15
 70
     1
102
RTVSPropertyOp16
 70
     1
102
RTVSPropertyOp17
 70
     1
102
RTVSPropertyOp18
 70
     1
102
RTVSPropertyOp19
 70
     1
102
RTVSPropertyOp20
 70
     1
102
RTVSPropertyOp21
 70
     1
102
RTVSPropertyOp22
 70
     1
102
RTVSPropertyOp23
 70
     1
102
RTVSPropertyOp24
 70
     1
102
RTVSPropertyOp25
 70
     1
102
RTVSPropertyOp26
 70
     1
102
RTVSPropertyOp27
 70
     1
102
RTVSPropertyOp28
 70
     1
102
RTVSPropertyOp29
 70
     1
102
RTVSPropertyOp30
 70
     1
102
RTVSPropertyOp31
 70
     1
102
RTVSPropertyOp32
 70
     1
  0
XRECORD
  5
24D8
102
{ACAD_REACTORS
330
24D7
102
}
330
24D7
100
AcDbXrecord
280
     1
102
RTVSPropertyOp0
 70
     1
102
RTVSPropertyOp1
 70
     1
102
RTVSPropertyOp2
 70
     1
102
RTVSPropertyOp3
 70
     1
102
RTVSPropertyOp4
 70
     1
102
RTVSPropertyOp5
 70
     1
102
RTVSPropertyOp6
 70
     1
102
RTVSPropertyOp7
 70
     1
102
RTVSPropertyOp8
 70
     1
102
RTVSPropertyOp9
 70
     1
102
RTVSPropertyOp10
 70
     1
102
RTVSPropertyOp11
 70
     1
102
RTVSPropertyOp12
 70
     1
102
RTVSPropertyOp13
 70
     1
102
RTVSPropertyOp14
 70
     1
102
RTVSPropertyOp15
 70
     1
102
RTVSPropertyOp16
 70
     1
102
RTVSPropertyOp17
 70
     1
102
RTVSPropertyOp18
 70
     1
102
RTVSPropertyOp19
 70
     1
102
RTVSPropertyOp20
 70
     1
102
RTVSPropertyOp21
 70
     1
102
RTVSPropertyOp22
 70
     1
102
RTVSPropertyOp23
 70
     1
102
RTVSPropertyOp24
 70
     1
102
RTVSPropertyOp25
 70
     1
102
RTVSPropertyOp26
 70
     1
102
RTVSPropertyOp27
 70
     1
102
RTVSPropertyOp28
 70
     1
102
RTVSPropertyOp29
 70
     1
102
RTVSPropertyOp30
 70
     1
102
RTVSPropertyOp31
 70
     1
102
RTVSPropertyOp32
 70
     1
  0
XRECORD
  5
24B8
102
{ACAD_REACTORS
330
24B7
102
}
330
24B7
100
AcDbXrecord
280
     1
102
RTVSPropertyOp0
 70
     1
102
RTVSPropertyOp1
 70
     1
102
RTVSPropertyOp2
 70
     1
102
RTVSPropertyOp3
 70
     1
102
RTVSPropertyOp4
 70
     1
102
RTVSPropertyOp5
 70
     1
102
RTVSPropertyOp6
 70
     1
102
RTVSPropertyOp7
 70
     1
102
RTVSPropertyOp8
 70
     1
102
RTVSPropertyOp9
 70
     1
102
RTVSPropertyOp10
 70
     1
102
RTVSPropertyOp11
 70
     1
102
RTVSPropertyOp12
 70
     1
102
RTVSPropertyOp13
 70
     1
102
RTVSPropertyOp14
 70
     1
102
RTVSPropertyOp15
 70
     1
102
RTVSPropertyOp16
 70
     1
102
RTVSPropertyOp17
 70
     1
102
RTVSPropertyOp18
 70
     1
102
RTVSPropertyOp19
 70
     1
102
RTVSPropertyOp20
 70
     1
102
RTVSPropertyOp21
 70
     1
102
RTVSPropertyOp22
 70
     1
102
RTVSPropertyOp23
 70
     1
102
RTVSPropertyOp24
 70
     1
102
RTVSPropertyOp25
 70
     1
102
RTVSPropertyOp26
 70
     1
102
RTVSPropertyOp27
 70
     1
102
RTVSPropertyOp28
 70
     1
102
RTVSPropertyOp29
 70
     1
102
RTVSPropertyOp30
 70
     1
102
RTVSPropertyOp31
 70
     1
102
RTVSPropertyOp32
 70
     1
  0
XRECORD
  5
24D2
102
{ACAD_REACTORS
330
24D1
102
}
330
24D1
100
AcDbXrecord
280
     1
102
RTVSPropertyOp0
 70
     1
102
RTVSPropertyOp1
 70
     1
102
RTVSPropertyOp2
 70
     1
102
RTVSPropertyOp3
 70
     1
102
RTVSPropertyOp4
 70
     1
102
RTVSPropertyOp5
 70
     1
102
RTVSPropertyOp6
 70
     1
102
RTVSPropertyOp7
 70
     1
102
RTVSPropertyOp8
 70
     1
102
RTVSPropertyOp9
 70
     1
102
RTVSPropertyOp10
 70
     1
102
RTVSPropertyOp11
 70
     1
102
RTVSPropertyOp12
 70
     1
102
RTVSPropertyOp13
 70
     1
102
RTVSPropertyOp14
 70
     1
102
RTVSPropertyOp15
 70
     1
102
RTVSPropertyOp16
 70
     1
102
RTVSPropertyOp17
 70
     1
102
RTVSPropertyOp18
 70
     1
102
RTVSPropertyOp19
 70
     1
102
RTVSPropertyOp20
 70
     1
102
RTVSPropertyOp21
 70
     1
102
RTVSPropertyOp22
 70
     1
102
RTVSPropertyOp23
 70
     1
102
RTVSPropertyOp24
 70
     1
102
RTVSPropertyOp25
 70
     1
102
RTVSPropertyOp26
 70
     1
102
RTVSPropertyOp27
 70
     1
102
RTVSPropertyOp28
 70
     1
102
RTVSPropertyOp29
 70
     1
102
RTVSPropertyOp30
 70
     1
102
RTVSPropertyOp31
 70
     1
102
RTVSPropertyOp32
 70
     1
  0
XRECORD
  5
24DA
102
{ACAD_REACTORS
330
24D9
102
}
330
24D9
100
AcDbXrecord
280
     1
102
RTVSPropertyOp0
 70
     1
102
RTVSPropertyOp1
 70
     1
102
RTVSPropertyOp2
 70
     1
102
RTVSPropertyOp3
 70
     1
102
RTVSPropertyOp4
 70
     1
102
RTVSPropertyOp5
 70
     1
102
RTVSPropertyOp6
 70
     1
102
RTVSPropertyOp7
 70
     1
102
RTVSPropertyOp8
 70
     1
102
RTVSPropertyOp9
 70
     1
102
RTVSPropertyOp10
 70
     1
102
RTVSPropertyOp11
 70
     1
102
RTVSPropertyOp12
 70
     1
102
RTVSPropertyOp13
 70
     1
102
RTVSPropertyOp14
 70
     1
102
RTVSPropertyOp15
 70
     1
102
RTVSPropertyOp16
 70
     1
102
RTVSPropertyOp17
 70
     1
102
RTVSPropertyOp18
 70
     1
102
RTVSPropertyOp19
 70
     1
102
RTVSPropertyOp20
 70
     1
102
RTVSPropertyOp21
 70
     1
102
RTVSPropertyOp22
 70
     1
102
RTVSPropertyOp23
 70
     1
102
RTVSPropertyOp24
 70
     1
102
RTVSPropertyOp25
 70
     1
102
RTVSPropertyOp26
 70
     1
102
RTVSPropertyOp27
 70
     1
102
RTVSPropertyOp28
 70
     1
102
RTVSPropertyOp29
 70
     1
102
RTVSPropertyOp30
 70
     1
102
RTVSPropertyOp31
 70
     1
102
RTVSPropertyOp32
 70
     1
  0
ENDSEC
  0
EOF
