ISO-10303-21;
HEADER;
/****************************************************************
 * Generated by software with PDE/Lib inside                    *
 * PDElib Version v4.4, created Mon 02/23/2004                  *
 * International Technegroup Inc. (www.iti-oh.com)              *
 ****************************************************************/
FILE_DESCRIPTION(('STEP AP203'),'2;1');
FILE_NAME('28.002.00.stp','2011-02-14T10:37:35',(''),(''),'2009.3.110','THINKDESIGN','');
FILE_SCHEMA(('CONFIG_CONTROL_DESIGN'));
ENDSEC;
DATA;
#2=CARTESIAN_POINT('',(-18.500265486727095,-5.329071E-015,15.000000010000001));
#3=DIRECTION('',(0.0,0.0,-1.0));
#4=DIRECTION('',(-1.0,0.0,0.0));
#5=AXIS2_PLACEMENT_3D('',#2,#3,#4);
#6=CYLINDRICAL_SURFACE('',#5,2.749999999999999);
#7=CARTESIAN_POINT('',(-18.500265486727095,2.749999999999993,15.0));
#8=VERTEX_POINT('',#7);
#9=CARTESIAN_POINT('',(-18.500265486727095,-2.750000000000005,15.0));
#10=VERTEX_POINT('',#9);
#11=CARTESIAN_POINT('',(-18.500265486727095,-5.329071E-015,15.0));
#12=DIRECTION('',(0.0,0.0,-1.0));
#13=DIRECTION('',(0.0,-1.0,0.0));
#14=AXIS2_PLACEMENT_3D('',#11,#12,#13);
#15=CIRCLE('',#14,2.749999999999999);
#16=EDGE_CURVE('',#8,#10,#15,.T.);
#17=ORIENTED_EDGE('',*,*,#16,.F.);
#18=CARTESIAN_POINT('',(-18.500265486727095,2.749999999999993,0.0));
#19=VERTEX_POINT('',#18);
#20=CARTESIAN_POINT('',(-18.500265486727095,2.749999999999993,15.0));
#21=DIRECTION('',(0.0,0.0,-1.0));
#22=VECTOR('',#21,15.0);
#23=LINE('',#20,#22);
#24=EDGE_CURVE('',#8,#19,#23,.T.);
#25=ORIENTED_EDGE('',*,*,#24,.T.);
#26=CARTESIAN_POINT('',(-18.500265486727095,-2.750000000000005,0.0));
#27=VERTEX_POINT('',#26);
#28=CARTESIAN_POINT('',(-18.500265486727095,-5.329071E-015,0.0));
#29=DIRECTION('',(0.0,0.0,1.0));
#30=DIRECTION('',(1.0,0.0,0.0));
#31=AXIS2_PLACEMENT_3D('',#28,#29,#30);
#32=CIRCLE('',#31,2.750000000000000);
#33=EDGE_CURVE('',#27,#19,#32,.T.);
#34=ORIENTED_EDGE('',*,*,#33,.F.);
#35=CARTESIAN_POINT('',(-18.500265486727095,-2.750000000000005,15.0));
#36=DIRECTION('',(0.0,0.0,-1.0));
#37=VECTOR('',#36,15.0);
#38=LINE('',#35,#37);
#39=EDGE_CURVE('',#10,#27,#38,.T.);
#40=ORIENTED_EDGE('',*,*,#39,.F.);
#41=EDGE_LOOP('',(#17,#25,#34,#40));
#42=FACE_OUTER_BOUND('',#41,.T.);
#43=ADVANCED_FACE('',(#42),#6,.F.);
#44=CARTESIAN_POINT('',(-50.000265486727095,1.776357E-015,-0.000000010000008));
#45=DIRECTION('',(0.0,0.0,1.0));
#46=DIRECTION('',(0.0,1.0,0.0));
#47=AXIS2_PLACEMENT_3D('',#44,#45,#46);
#48=CYLINDRICAL_SURFACE('',#47,3.500000000000000);
#49=CARTESIAN_POINT('',(-46.500265486727095,1.776357E-015,0.0));
#50=VERTEX_POINT('',#49);
#51=CARTESIAN_POINT('',(-53.500265486727102,1.776357E-015,0.0));
#52=VERTEX_POINT('',#51);
#53=CARTESIAN_POINT('',(-50.000265486727095,1.776357E-015,0.0));
#54=DIRECTION('',(0.0,0.0,-1.0));
#55=DIRECTION('',(1.0,0.0,0.0));
#56=AXIS2_PLACEMENT_3D('',#53,#54,#55);
#57=CIRCLE('',#56,3.500000000000000);
#58=EDGE_CURVE('',#50,#52,#57,.T.);
#59=ORIENTED_EDGE('',*,*,#58,.T.);
#60=CARTESIAN_POINT('',(-53.500265486727102,1.776357E-015,5.000000000000005));
#61=VERTEX_POINT('',#60);
#62=CARTESIAN_POINT('',(-53.500265486727102,1.776357E-015,-7.105427E-015));
#63=DIRECTION('',(0.0,0.0,1.0));
#64=VECTOR('',#63,5.000000000000013);
#65=LINE('',#62,#64);
#66=EDGE_CURVE('',#52,#61,#65,.T.);
#67=ORIENTED_EDGE('',*,*,#66,.T.);
#68=CARTESIAN_POINT('',(-46.500265486727095,1.776357E-015,5.000000000000005));
#69=VERTEX_POINT('',#68);
#70=CARTESIAN_POINT('',(-50.000265486727095,1.776357E-015,5.000000000000005));
#71=DIRECTION('',(0.0,0.0,-1.0));
#72=DIRECTION('',(-1.0,0.0,0.0));
#73=AXIS2_PLACEMENT_3D('',#70,#71,#72);
#74=CIRCLE('',#73,3.500000000000003);
#75=EDGE_CURVE('',#69,#61,#74,.T.);
#76=ORIENTED_EDGE('',*,*,#75,.F.);
#77=CARTESIAN_POINT('',(-46.500265486727095,1.776357E-015,-7.105427E-015));
#78=DIRECTION('',(0.0,0.0,1.0));
#79=VECTOR('',#78,5.000000000000013);
#80=LINE('',#77,#79);
#81=EDGE_CURVE('',#50,#69,#80,.T.);
#82=ORIENTED_EDGE('',*,*,#81,.F.);
#83=EDGE_LOOP('',(#59,#67,#76,#82));
#84=FACE_OUTER_BOUND('',#83,.T.);
#85=ADVANCED_FACE('',(#84),#48,.F.);
#86=CARTESIAN_POINT('',(-31.500000000000007,-16.500000000000000,15.0));
#87=DIRECTION('',(0.0,0.0,1.0));
#88=DIRECTION('',(1.0,0.0,0.0));
#89=AXIS2_PLACEMENT_3D('',#86,#87,#88);
#90=PLANE('',#89);
#91=CARTESIAN_POINT('',(-30.000000000000007,14.999999999999998,15.000000000000005));
#92=VERTEX_POINT('',#91);
#93=CARTESIAN_POINT('',(-30.000000000000007,-14.999999999999998,15.0));
#94=VERTEX_POINT('',#93);
#95=CARTESIAN_POINT('',(-30.000000000000007,15.000000000000005,15.000000000000005));
#96=DIRECTION('',(0.0,-1.0,0.0));
#97=VECTOR('',#96,30.000000000000004);
#98=LINE('',#95,#97);
#99=EDGE_CURVE('',#92,#94,#98,.T.);
#100=ORIENTED_EDGE('',*,*,#99,.T.);
#101=CARTESIAN_POINT('',(0.0,-14.999999999999998,15.0));
#102=VERTEX_POINT('',#101);
#103=CARTESIAN_POINT('',(-30.000000000000007,-14.999999999999998,15.0));
#104=DIRECTION('',(1.0,0.0,0.0));
#105=VECTOR('',#104,30.000000000000007);
#106=LINE('',#103,#105);
#107=EDGE_CURVE('',#94,#102,#106,.T.);
#108=ORIENTED_EDGE('',*,*,#107,.T.);
#109=CARTESIAN_POINT('',(0.0,14.999999999999998,15.0));
#110=VERTEX_POINT('',#109);
#111=CARTESIAN_POINT('',(0.0,-14.999999999999998,15.0));
#112=DIRECTION('',(0.0,1.0,0.0));
#113=VECTOR('',#112,29.999999999999996);
#114=LINE('',#111,#113);
#115=EDGE_CURVE('',#102,#110,#114,.T.);
#116=ORIENTED_EDGE('',*,*,#115,.T.);
#117=CARTESIAN_POINT('',(0.0,14.999999999999998,15.0));
#118=DIRECTION('',(-1.0,0.0,0.0));
#119=VECTOR('',#118,30.000000000000007);
#120=LINE('',#117,#119);
#121=EDGE_CURVE('',#110,#92,#120,.T.);
#122=ORIENTED_EDGE('',*,*,#121,.T.);
#123=EDGE_LOOP('',(#100,#108,#116,#122));
#124=FACE_OUTER_BOUND('',#123,.T.);
#125=CARTESIAN_POINT('',(-18.500265486727095,-5.329071E-015,15.0));
#126=DIRECTION('',(0.0,0.0,-1.0));
#127=DIRECTION('',(0.0,-1.0,0.0));
#128=AXIS2_PLACEMENT_3D('',#125,#126,#127);
#129=CIRCLE('',#128,2.749999999999999);
#130=EDGE_CURVE('',#10,#8,#129,.T.);
#131=ORIENTED_EDGE('',*,*,#130,.T.);
#132=ORIENTED_EDGE('',*,*,#16,.T.);
#133=EDGE_LOOP('',(#131,#132));
#134=FACE_BOUND('',#133,.T.);
#135=ADVANCED_FACE('',(#124,#134),#90,.T.);
#136=CARTESIAN_POINT('',(-73.500000000000000,-16.500000000000000,0.0));
#137=DIRECTION('',(0.0,0.0,1.0));
#138=DIRECTION('',(1.0,0.0,0.0));
#139=AXIS2_PLACEMENT_3D('',#136,#137,#138);
#140=PLANE('',#139);
#141=CARTESIAN_POINT('',(-70.0,14.999999999999998,0.0));
#142=VERTEX_POINT('',#141);
#143=CARTESIAN_POINT('',(-70.0,-14.999999999999998,0.0));
#144=VERTEX_POINT('',#143);
#145=CARTESIAN_POINT('',(-70.0,14.999999999999998,0.0));
#146=DIRECTION('',(0.0,-1.0,0.0));
#147=VECTOR('',#146,29.999999999999996);
#148=LINE('',#145,#147);
#149=EDGE_CURVE('',#142,#144,#148,.T.);
#150=ORIENTED_EDGE('',*,*,#149,.F.);
#151=CARTESIAN_POINT('',(0.0,14.999999999999998,0.0));
#152=VERTEX_POINT('',#151);
#153=CARTESIAN_POINT('',(0.0,14.999999999999998,0.0));
#154=DIRECTION('',(-1.0,0.0,0.0));
#155=VECTOR('',#154,70.0);
#156=LINE('',#153,#155);
#157=EDGE_CURVE('',#152,#142,#156,.T.);
#158=ORIENTED_EDGE('',*,*,#157,.F.);
#159=CARTESIAN_POINT('',(0.0,-14.999999999999998,0.0));
#160=VERTEX_POINT('',#159);
#161=CARTESIAN_POINT('',(0.0,-14.999999999999998,0.0));
#162=DIRECTION('',(0.0,1.0,0.0));
#163=VECTOR('',#162,29.999999999999996);
#164=LINE('',#161,#163);
#165=EDGE_CURVE('',#160,#152,#164,.T.);
#166=ORIENTED_EDGE('',*,*,#165,.F.);
#167=CARTESIAN_POINT('',(-70.0,-14.999999999999998,0.0));
#168=DIRECTION('',(1.0,0.0,0.0));
#169=VECTOR('',#168,70.0);
#170=LINE('',#167,#169);
#171=EDGE_CURVE('',#144,#160,#170,.T.);
#172=ORIENTED_EDGE('',*,*,#171,.F.);
#173=EDGE_LOOP('',(#150,#158,#166,#172));
#174=FACE_OUTER_BOUND('',#173,.T.);
#175=ORIENTED_EDGE('',*,*,#33,.T.);
#176=CARTESIAN_POINT('',(-18.500265486727095,-5.329071E-015,0.0));
#177=DIRECTION('',(0.0,0.0,1.0));
#178=DIRECTION('',(1.0,0.0,0.0));
#179=AXIS2_PLACEMENT_3D('',#176,#177,#178);
#180=CIRCLE('',#179,2.750000000000000);
#181=EDGE_CURVE('',#19,#27,#180,.T.);
#182=ORIENTED_EDGE('',*,*,#181,.T.);
#183=EDGE_LOOP('',(#175,#182));
#184=FACE_BOUND('',#183,.T.);
#185=ORIENTED_EDGE('',*,*,#58,.F.);
#186=CARTESIAN_POINT('',(-50.000265486727095,1.776357E-015,0.0));
#187=DIRECTION('',(0.0,0.0,-1.0));
#188=DIRECTION('',(1.0,0.0,0.0));
#189=AXIS2_PLACEMENT_3D('',#186,#187,#188);
#190=CIRCLE('',#189,3.500000000000000);
#191=EDGE_CURVE('',#52,#50,#190,.T.);
#192=ORIENTED_EDGE('',*,*,#191,.F.);
#193=EDGE_LOOP('',(#185,#192));
#194=FACE_BOUND('',#193,.T.);
#195=ADVANCED_FACE('',(#174,#184,#194),#140,.F.);
#196=CARTESIAN_POINT('',(-70.0,-16.500000000000000,5.249999999999998));
#197=DIRECTION('',(1.0,0.0,0.0));
#198=DIRECTION('',(0.0,0.0,-1.0));
#199=AXIS2_PLACEMENT_3D('',#196,#197,#198);
#200=PLANE('',#199);
#201=CARTESIAN_POINT('',(-70.0,-14.999999999999995,4.999999999999998));
#202=VERTEX_POINT('',#201);
#203=CARTESIAN_POINT('',(-70.0,-14.999999999999998,4.999999999999998));
#204=DIRECTION('',(0.0,0.0,-1.0));
#205=VECTOR('',#204,4.999999999999998);
#206=LINE('',#203,#205);
#207=EDGE_CURVE('',#202,#144,#206,.T.);
#208=ORIENTED_EDGE('',*,*,#207,.F.);
#209=CARTESIAN_POINT('',(-70.0,14.999999999999998,4.999999999999998));
#210=VERTEX_POINT('',#209);
#211=CARTESIAN_POINT('',(-70.0,15.000000000000005,4.999999999999998));
#212=DIRECTION('',(0.0,-1.0,0.0));
#213=VECTOR('',#212,30.0);
#214=LINE('',#211,#213);
#215=EDGE_CURVE('',#210,#202,#214,.T.);
#216=ORIENTED_EDGE('',*,*,#215,.F.);
#217=CARTESIAN_POINT('',(-70.0,14.999999999999998,4.999999999999998));
#218=DIRECTION('',(0.0,0.0,-1.0));
#219=VECTOR('',#218,4.999999999999998);
#220=LINE('',#217,#219);
#221=EDGE_CURVE('',#210,#142,#220,.T.);
#222=ORIENTED_EDGE('',*,*,#221,.T.);
#223=ORIENTED_EDGE('',*,*,#149,.T.);
#224=EDGE_LOOP('',(#208,#216,#222,#223));
#225=FACE_OUTER_BOUND('',#224,.T.);
#226=ADVANCED_FACE('',(#225),#200,.F.);
#227=CARTESIAN_POINT('',(-73.500000000000000,-14.999999999999998,-0.750000000000000));
#228=DIRECTION('',(0.0,1.0,0.0));
#229=DIRECTION('',(0.0,0.0,1.0));
#230=AXIS2_PLACEMENT_3D('',#227,#228,#229);
#231=PLANE('',#230);
#232=CARTESIAN_POINT('',(-30.000000000000007,-14.999999999999995,5.000000000000002));
#233=VERTEX_POINT('',#232);
#234=CARTESIAN_POINT('',(-30.000000000000007,-14.999999999999995,5.000000000000002));
#235=DIRECTION('',(0.0,0.0,1.0));
#236=VECTOR('',#235,9.999999999999998);
#237=LINE('',#234,#236);
#238=EDGE_CURVE('',#233,#94,#237,.T.);
#239=ORIENTED_EDGE('',*,*,#238,.F.);
#240=CARTESIAN_POINT('',(-70.0,-14.999999999999995,5.000000000000002));
#241=DIRECTION('',(1.0,0.0,0.0));
#242=VECTOR('',#241,40.0);
#243=LINE('',#240,#242);
#244=EDGE_CURVE('',#202,#233,#243,.T.);
#245=ORIENTED_EDGE('',*,*,#244,.F.);
#246=ORIENTED_EDGE('',*,*,#207,.T.);
#247=ORIENTED_EDGE('',*,*,#171,.T.);
#248=CARTESIAN_POINT('',(0.0,-14.999999999999998,15.0));
#249=DIRECTION('',(0.0,0.0,-1.0));
#250=VECTOR('',#249,15.0);
#251=LINE('',#248,#250);
#252=EDGE_CURVE('',#102,#160,#251,.T.);
#253=ORIENTED_EDGE('',*,*,#252,.F.);
#254=ORIENTED_EDGE('',*,*,#107,.F.);
#255=EDGE_LOOP('',(#239,#245,#246,#247,#253,#254));
#256=FACE_OUTER_BOUND('',#255,.T.);
#257=ADVANCED_FACE('',(#256),#231,.F.);
#258=CARTESIAN_POINT('',(0.0,-16.500000000000000,-0.750000000000000));
#259=DIRECTION('',(-1.0,0.0,0.0));
#260=DIRECTION('',(0.0,0.0,1.0));
#261=AXIS2_PLACEMENT_3D('',#258,#259,#260);
#262=PLANE('',#261);
#263=ORIENTED_EDGE('',*,*,#165,.T.);
#264=CARTESIAN_POINT('',(0.0,14.999999999999998,15.0));
#265=DIRECTION('',(0.0,0.0,-1.0));
#266=VECTOR('',#265,15.0);
#267=LINE('',#264,#266);
#268=EDGE_CURVE('',#110,#152,#267,.T.);
#269=ORIENTED_EDGE('',*,*,#268,.F.);
#270=ORIENTED_EDGE('',*,*,#115,.F.);
#271=ORIENTED_EDGE('',*,*,#252,.T.);
#272=EDGE_LOOP('',(#263,#269,#270,#271));
#273=FACE_OUTER_BOUND('',#272,.T.);
#274=ADVANCED_FACE('',(#273),#262,.F.);
#275=CARTESIAN_POINT('',(-73.500000000000000,14.999999999999998,15.750000000000005));
#276=DIRECTION('',(0.0,-1.0,0.0));
#277=DIRECTION('',(0.0,0.0,-1.0));
#278=AXIS2_PLACEMENT_3D('',#275,#276,#277);
#279=PLANE('',#278);
#280=ORIENTED_EDGE('',*,*,#221,.F.);
#281=CARTESIAN_POINT('',(-30.000000000000007,14.999999999999998,5.000000000000002));
#282=VERTEX_POINT('',#281);
#283=CARTESIAN_POINT('',(-70.0,14.999999999999998,5.000000000000002));
#284=DIRECTION('',(1.0,0.0,0.0));
#285=VECTOR('',#284,39.999999999999993);
#286=LINE('',#283,#285);
#287=EDGE_CURVE('',#210,#282,#286,.T.);
#288=ORIENTED_EDGE('',*,*,#287,.T.);
#289=CARTESIAN_POINT('',(-30.000000000000007,14.999999999999998,5.000000000000002));
#290=DIRECTION('',(0.0,0.0,1.0));
#291=VECTOR('',#290,10.000000000000004);
#292=LINE('',#289,#291);
#293=EDGE_CURVE('',#282,#92,#292,.T.);
#294=ORIENTED_EDGE('',*,*,#293,.T.);
#295=ORIENTED_EDGE('',*,*,#121,.F.);
#296=ORIENTED_EDGE('',*,*,#268,.T.);
#297=ORIENTED_EDGE('',*,*,#157,.T.);
#298=EDGE_LOOP('',(#280,#288,#294,#295,#296,#297));
#299=FACE_OUTER_BOUND('',#298,.T.);
#300=ADVANCED_FACE('',(#299),#279,.F.);
#301=CARTESIAN_POINT('',(-50.000265486727095,-1.776357E-015,-0.000000010000008));
#302=DIRECTION('',(0.0,0.0,1.0));
#303=DIRECTION('',(0.0,-1.0,0.0));
#304=AXIS2_PLACEMENT_3D('',#301,#302,#303);
#305=CYLINDRICAL_SURFACE('',#304,3.500000000000000);
#306=ORIENTED_EDGE('',*,*,#66,.F.);
#307=ORIENTED_EDGE('',*,*,#191,.T.);
#308=ORIENTED_EDGE('',*,*,#81,.T.);
#309=CARTESIAN_POINT('',(-50.000265486727095,1.776357E-015,5.000000000000005));
#310=DIRECTION('',(0.0,0.0,-1.0));
#311=DIRECTION('',(-1.0,0.0,0.0));
#312=AXIS2_PLACEMENT_3D('',#309,#310,#311);
#313=CIRCLE('',#312,3.500000000000003);
#314=EDGE_CURVE('',#61,#69,#313,.T.);
#315=ORIENTED_EDGE('',*,*,#314,.F.);
#316=EDGE_LOOP('',(#306,#307,#308,#315));
#317=FACE_OUTER_BOUND('',#316,.T.);
#318=ADVANCED_FACE('',(#317),#305,.F.);
#319=CARTESIAN_POINT('',(-18.500265486727095,-5.329071E-015,15.000000010000001));
#320=DIRECTION('',(0.0,0.0,-1.0));
#321=DIRECTION('',(1.0,0.0,0.0));
#322=AXIS2_PLACEMENT_3D('',#319,#320,#321);
#323=CYLINDRICAL_SURFACE('',#322,2.749999999999999);
#324=ORIENTED_EDGE('',*,*,#24,.F.);
#325=ORIENTED_EDGE('',*,*,#130,.F.);
#326=ORIENTED_EDGE('',*,*,#39,.T.);
#327=ORIENTED_EDGE('',*,*,#181,.F.);
#328=EDGE_LOOP('',(#324,#325,#326,#327));
#329=FACE_OUTER_BOUND('',#328,.T.);
#330=ADVANCED_FACE('',(#329),#323,.F.);
#331=CARTESIAN_POINT('',(-28.000000000000007,-16.500000000000000,5.000000000000002));
#332=DIRECTION('',(0.0,0.0,-1.0));
#333=DIRECTION('',(-1.0,0.0,0.0));
#334=AXIS2_PLACEMENT_3D('',#331,#332,#333);
#335=PLANE('',#334);
#336=ORIENTED_EDGE('',*,*,#215,.T.);
#337=ORIENTED_EDGE('',*,*,#244,.T.);
#338=CARTESIAN_POINT('',(-30.000000000000007,15.000000000000005,5.000000000000002));
#339=DIRECTION('',(0.0,-1.0,0.0));
#340=VECTOR('',#339,30.0);
#341=LINE('',#338,#340);
#342=EDGE_CURVE('',#282,#233,#341,.T.);
#343=ORIENTED_EDGE('',*,*,#342,.F.);
#344=ORIENTED_EDGE('',*,*,#287,.F.);
#345=EDGE_LOOP('',(#336,#337,#343,#344));
#346=FACE_OUTER_BOUND('',#345,.T.);
#347=ORIENTED_EDGE('',*,*,#75,.T.);
#348=ORIENTED_EDGE('',*,*,#314,.T.);
#349=EDGE_LOOP('',(#347,#348));
#350=FACE_BOUND('',#349,.T.);
#351=ADVANCED_FACE('',(#346,#350),#335,.F.);
#352=CARTESIAN_POINT('',(-30.000000000000007,-16.500000000000000,15.500000000000005));
#353=DIRECTION('',(1.0,0.0,0.0));
#354=DIRECTION('',(0.0,0.0,-1.0));
#355=AXIS2_PLACEMENT_3D('',#352,#353,#354);
#356=PLANE('',#355);
#357=ORIENTED_EDGE('',*,*,#342,.T.);
#358=ORIENTED_EDGE('',*,*,#238,.T.);
#359=ORIENTED_EDGE('',*,*,#99,.F.);
#360=ORIENTED_EDGE('',*,*,#293,.F.);
#361=EDGE_LOOP('',(#357,#358,#359,#360));
#362=FACE_OUTER_BOUND('',#361,.T.);
#363=ADVANCED_FACE('',(#362),#356,.F.);
#364=CLOSED_SHELL('',(#43,#85,#135,#195,#226,#257,#274,#300,#318,#330,#351,#363));
#365=MANIFOLD_SOLID_BREP('Importato1',#364);
#371=(NAMED_UNIT(*)PLANE_ANGLE_UNIT()SI_UNIT($,.RADIAN.));
#372=DIMENSIONAL_EXPONENTS(0.0,0.0,0.0,0.0,0.0,0.0,0.0);
#373=PLANE_ANGLE_MEASURE_WITH_UNIT(PLANE_ANGLE_MEASURE(0.017453292500000),#371);
#377=(CONVERSION_BASED_UNIT('DEGREE',#373)NAMED_UNIT(#372)PLANE_ANGLE_UNIT());
#381=(NAMED_UNIT(*)SI_UNIT($,.STERADIAN.)SOLID_ANGLE_UNIT());
#385=(LENGTH_UNIT()NAMED_UNIT(*)SI_UNIT(.MILLI.,.METRE.));
#387=UNCERTAINTY_MEASURE_WITH_UNIT(LENGTH_MEASURE(0.001000000000000),#385,'DISTANCE_ACCURACY_VALUE','');
#389=(GEOMETRIC_REPRESENTATION_CONTEXT(3)GLOBAL_UNCERTAINTY_ASSIGNED_CONTEXT((#387))GLOBAL_UNIT_ASSIGNED_CONTEXT((#377,#381,#385))REPRESENTATION_CONTEXT('thinkdesign','2009.3.110'));
#390=ADVANCED_BREP_SHAPE_REPRESENTATION('',(#365),#389);
#391=APPLICATION_CONTEXT('configuration controlled 3D designs of mechanical parts and assemblies');
#392=APPLICATION_PROTOCOL_DEFINITION('International Standard','config_control_design',1995,#391);
#393=MECHANICAL_CONTEXT('None',#391,'mechanical');
#394=PRODUCT('None','None','None',(#393));
#395=PRODUCT_RELATED_PRODUCT_CATEGORY('detail',$,(#394));
#396=PRODUCT_CATEGORY('part',$);
#397=PRODUCT_CATEGORY_RELATIONSHIP('None','None',#396,#395);
#398=PERSON('PERSON1','None','None',$,$,$);
#399=ORGANIZATION('','None','None');
#400=PERSON_AND_ORGANIZATION(#398,#399);
#401=PERSON_AND_ORGANIZATION_ROLE('design_owner');
#402=CC_DESIGN_PERSON_AND_ORGANIZATION_ASSIGNMENT(#400,#401,(#394));
#403=PRODUCT_DEFINITION_FORMATION_WITH_SPECIFIED_SOURCE('None','None',#394,.NOT_KNOWN.);
#404=PERSON('PERSON2','None','None',$,$,$);
#405=ORGANIZATION('','None','None');
#406=PERSON_AND_ORGANIZATION(#404,#405);
#407=PERSON_AND_ORGANIZATION_ROLE('creator');
#408=CC_DESIGN_PERSON_AND_ORGANIZATION_ASSIGNMENT(#406,#407,(#403));
#409=PERSON('PERSON3','None','None',$,$,$);
#410=ORGANIZATION('','None','None');
#411=PERSON_AND_ORGANIZATION(#409,#410);
#412=PERSON_AND_ORGANIZATION_ROLE('part_supplier');
#413=CC_DESIGN_PERSON_AND_ORGANIZATION_ASSIGNMENT(#411,#412,(#403));
#414=APPROVAL_STATUS('approved');
#415=APPROVAL(#414,'None');
#416=PERSON('PERSON4','None','None',$,$,$);
#417=ORGANIZATION('','None','None');
#418=PERSON_AND_ORGANIZATION(#416,#417);
#419=APPROVAL_ROLE('None');
#420=APPROVAL_PERSON_ORGANIZATION(#418,#415,#419);
#421=CALENDAR_DATE(2011,14,2);
#422=COORDINATED_UNIVERSAL_TIME_OFFSET(0,0,.AHEAD.);
#423=LOCAL_TIME(10,37,35.0,#422);
#424=DATE_AND_TIME(#421,#423);
#425=APPROVAL_DATE_TIME(#424,#415);
#426=CC_DESIGN_APPROVAL(#415,(#403));
#427=SECURITY_CLASSIFICATION_LEVEL('unclassified');
#428=SECURITY_CLASSIFICATION('None','None',#427);
#429=CC_DESIGN_SECURITY_CLASSIFICATION(#428,(#403));
#430=APPROVAL_STATUS('approved');
#431=APPROVAL(#430,'None');
#432=PERSON('PERSON5','None','None',$,$,$);
#433=ORGANIZATION('','None','None');
#434=PERSON_AND_ORGANIZATION(#432,#433);
#435=APPROVAL_ROLE('None');
#436=APPROVAL_PERSON_ORGANIZATION(#434,#431,#435);
#437=CALENDAR_DATE(2011,14,2);
#438=COORDINATED_UNIVERSAL_TIME_OFFSET(0,0,.AHEAD.);
#439=LOCAL_TIME(10,37,35.0,#438);
#440=DATE_AND_TIME(#437,#439);
#441=APPROVAL_DATE_TIME(#440,#431);
#442=CC_DESIGN_APPROVAL(#431,(#428));
#443=PERSON('PERSON6','None','None',$,$,$);
#444=ORGANIZATION('','None','None');
#445=PERSON_AND_ORGANIZATION(#443,#444);
#446=PERSON_AND_ORGANIZATION_ROLE('classification_officer');
#447=CC_DESIGN_PERSON_AND_ORGANIZATION_ASSIGNMENT(#445,#446,(#428));
#448=DATE_TIME_ROLE('classification_date');
#449=CALENDAR_DATE(2011,14,2);
#450=COORDINATED_UNIVERSAL_TIME_OFFSET(0,0,.AHEAD.);
#451=LOCAL_TIME(10,37,35.0,#450);
#452=DATE_AND_TIME(#449,#451);
#453=CC_DESIGN_DATE_AND_TIME_ASSIGNMENT(#452,#448,(#428));
#454=DESIGN_CONTEXT('part definition',#391,'design');
#455=DOCUMENT_TYPE('cad_filename');
#456=DOCUMENT('None','None','None',#455);
#457=PRODUCT_DEFINITION_WITH_ASSOCIATED_DOCUMENTS('None','None',#403,#454,(#456));
#458=PERSON('PERSON7','None','None',$,$,$);
#459=ORGANIZATION('','None','None');
#460=PERSON_AND_ORGANIZATION(#458,#459);
#461=PERSON_AND_ORGANIZATION_ROLE('creator');
#462=CC_DESIGN_PERSON_AND_ORGANIZATION_ASSIGNMENT(#460,#461,(#457));
#463=DATE_TIME_ROLE('creation_date');
#464=CALENDAR_DATE(2011,14,2);
#465=COORDINATED_UNIVERSAL_TIME_OFFSET(0,0,.AHEAD.);
#466=LOCAL_TIME(10,37,35.0,#465);
#467=DATE_AND_TIME(#464,#466);
#468=CC_DESIGN_DATE_AND_TIME_ASSIGNMENT(#467,#463,(#457));
#469=APPROVAL_STATUS('approved');
#470=APPROVAL(#469,'None');
#471=PERSON('PERSON8','None','None',$,$,$);
#472=ORGANIZATION('','None','None');
#473=PERSON_AND_ORGANIZATION(#471,#472);
#474=APPROVAL_ROLE('None');
#475=APPROVAL_PERSON_ORGANIZATION(#473,#470,#474);
#476=CALENDAR_DATE(2011,14,2);
#477=COORDINATED_UNIVERSAL_TIME_OFFSET(0,0,.AHEAD.);
#478=LOCAL_TIME(10,37,35.0,#477);
#479=DATE_AND_TIME(#476,#478);
#480=APPROVAL_DATE_TIME(#479,#470);
#481=CC_DESIGN_APPROVAL(#470,(#457));
#482=PRODUCT_DEFINITION_SHAPE('None','None',#457);
#483=SHAPE_DEFINITION_REPRESENTATION(#482,#390);
#484=DIMENSIONAL_EXPONENTS(0.0,0.0,0.0,0.0,0.0,0.0,0.0);
#485=DIMENSIONAL_EXPONENTS(1.0,0.0,0.0,0.0,0.0,0.0,0.0);
ENDSEC;
END-ISO-10303-21;
