ISO-10303-21;
HEADER;
/* Generated by software containing ST-Developer
 * from STEP Tools, Inc. (www.steptools.com) 
 */

FILE_DESCRIPTION(
/* description */ ('GOMMINO DISTANZIALE \X2\FFFD\X0\ 6,5'),
/* implementation_level */ '2;1');

FILE_NAME(
/* name */ 
'Q:\\Catalogo\\2_Accessori Dierre\\Per Download Web\\CATALOGO ACCESSOR
I PER RIPARI\\PAGINA 72\\DDIXX0000079.stp',
/* time_stamp */ '2018-01-30T15:33:09+01:00',
/* author */ ('fzagni'),
/* organization */ (''),
/* preprocessor_version */ 'ST-DEVELOPER v16.1',
/* originating_system */ 'Autodesk Inventor 2016',
/* authorisation */ '');

FILE_SCHEMA (('AUTOMOTIVE_DESIGN { 1 0 10303 214 3 1 1 }'));
ENDSEC;

DATA;
#10=MECHANICAL_DESIGN_GEOMETRIC_PRESENTATION_REPRESENTATION('',(#13),#143);
#11=SHAPE_REPRESENTATION_RELATIONSHIP('SRR','None',#152,#12);
#12=ADVANCED_BREP_SHAPE_REPRESENTATION('',(#14),#142);
#13=STYLED_ITEM('',(#161),#14);
#14=MANIFOLD_SOLID_BREP('Solido1',#81);
#15=PLANE('',#89);
#16=PLANE('',#93);
#17=PLANE('',#94);
#18=FACE_BOUND('',#31,.T.);
#19=FACE_BOUND('',#33,.T.);
#20=FACE_BOUND('',#35,.T.);
#21=FACE_BOUND('',#37,.T.);
#22=FACE_BOUND('',#39,.T.);
#23=FACE_BOUND('',#41,.T.);
#24=FACE_OUTER_BOUND('',#30,.T.);
#25=FACE_OUTER_BOUND('',#32,.T.);
#26=FACE_OUTER_BOUND('',#34,.T.);
#27=FACE_OUTER_BOUND('',#36,.T.);
#28=FACE_OUTER_BOUND('',#38,.T.);
#29=FACE_OUTER_BOUND('',#40,.T.);
#30=EDGE_LOOP('',(#60));
#31=EDGE_LOOP('',(#61));
#32=EDGE_LOOP('',(#62));
#33=EDGE_LOOP('',(#63));
#34=EDGE_LOOP('',(#64));
#35=EDGE_LOOP('',(#65));
#36=EDGE_LOOP('',(#66));
#37=EDGE_LOOP('',(#67));
#38=EDGE_LOOP('',(#68));
#39=EDGE_LOOP('',(#69));
#40=EDGE_LOOP('',(#70));
#41=EDGE_LOOP('',(#71));
#42=CIRCLE('',#84,4.5);
#43=CIRCLE('',#85,4.5);
#44=CIRCLE('',#87,5.5);
#45=CIRCLE('',#88,5.5);
#46=CIRCLE('',#91,8.5);
#47=CIRCLE('',#92,8.5);
#48=VERTEX_POINT('',#123);
#49=VERTEX_POINT('',#125);
#50=VERTEX_POINT('',#128);
#51=VERTEX_POINT('',#130);
#52=VERTEX_POINT('',#134);
#53=VERTEX_POINT('',#136);
#54=EDGE_CURVE('',#48,#48,#42,.T.);
#55=EDGE_CURVE('',#49,#49,#43,.T.);
#56=EDGE_CURVE('',#50,#50,#44,.T.);
#57=EDGE_CURVE('',#51,#51,#45,.T.);
#58=EDGE_CURVE('',#52,#52,#46,.T.);
#59=EDGE_CURVE('',#53,#53,#47,.T.);
#60=ORIENTED_EDGE('',*,*,#54,.F.);
#61=ORIENTED_EDGE('',*,*,#55,.F.);
#62=ORIENTED_EDGE('',*,*,#56,.F.);
#63=ORIENTED_EDGE('',*,*,#57,.F.);
#64=ORIENTED_EDGE('',*,*,#56,.T.);
#65=ORIENTED_EDGE('',*,*,#55,.T.);
#66=ORIENTED_EDGE('',*,*,#58,.F.);
#67=ORIENTED_EDGE('',*,*,#59,.F.);
#68=ORIENTED_EDGE('',*,*,#59,.T.);
#69=ORIENTED_EDGE('',*,*,#54,.T.);
#70=ORIENTED_EDGE('',*,*,#58,.T.);
#71=ORIENTED_EDGE('',*,*,#57,.T.);
#72=CYLINDRICAL_SURFACE('',#83,4.5);
#73=CYLINDRICAL_SURFACE('',#86,5.5);
#74=CYLINDRICAL_SURFACE('',#90,8.5);
#75=ADVANCED_FACE('',(#24,#18),#72,.F.);
#76=ADVANCED_FACE('',(#25,#19),#73,.T.);
#77=ADVANCED_FACE('',(#26,#20),#15,.T.);
#78=ADVANCED_FACE('',(#27,#21),#74,.T.);
#79=ADVANCED_FACE('',(#28,#22),#16,.F.);
#80=ADVANCED_FACE('',(#29,#23),#17,.T.);
#81=CLOSED_SHELL('',(#75,#76,#77,#78,#79,#80));
#82=AXIS2_PLACEMENT_3D('placement',#121,#95,#96);
#83=AXIS2_PLACEMENT_3D('',#122,#97,#98);
#84=AXIS2_PLACEMENT_3D('',#124,#99,#100);
#85=AXIS2_PLACEMENT_3D('',#126,#101,#102);
#86=AXIS2_PLACEMENT_3D('',#127,#103,#104);
#87=AXIS2_PLACEMENT_3D('',#129,#105,#106);
#88=AXIS2_PLACEMENT_3D('',#131,#107,#108);
#89=AXIS2_PLACEMENT_3D('',#132,#109,#110);
#90=AXIS2_PLACEMENT_3D('',#133,#111,#112);
#91=AXIS2_PLACEMENT_3D('',#135,#113,#114);
#92=AXIS2_PLACEMENT_3D('',#137,#115,#116);
#93=AXIS2_PLACEMENT_3D('',#138,#117,#118);
#94=AXIS2_PLACEMENT_3D('',#139,#119,#120);
#95=DIRECTION('axis',(0.,0.,1.));
#96=DIRECTION('refdir',(1.,0.,0.));
#97=DIRECTION('center_axis',(0.,0.,1.));
#98=DIRECTION('ref_axis',(1.,0.,0.));
#99=DIRECTION('center_axis',(0.,0.,1.));
#100=DIRECTION('ref_axis',(1.,0.,0.));
#101=DIRECTION('center_axis',(0.,0.,-1.));
#102=DIRECTION('ref_axis',(1.,0.,0.));
#103=DIRECTION('center_axis',(0.,0.,1.));
#104=DIRECTION('ref_axis',(-1.,0.,0.));
#105=DIRECTION('center_axis',(0.,0.,1.));
#106=DIRECTION('ref_axis',(-1.,0.,0.));
#107=DIRECTION('center_axis',(0.,0.,-1.));
#108=DIRECTION('ref_axis',(-1.,0.,0.));
#109=DIRECTION('center_axis',(0.,0.,1.));
#110=DIRECTION('ref_axis',(1.,0.,0.));
#111=DIRECTION('center_axis',(0.,0.,1.));
#112=DIRECTION('ref_axis',(-1.,0.,0.));
#113=DIRECTION('center_axis',(0.,0.,1.));
#114=DIRECTION('ref_axis',(-1.,0.,0.));
#115=DIRECTION('center_axis',(0.,0.,-1.));
#116=DIRECTION('ref_axis',(-1.,0.,0.));
#117=DIRECTION('center_axis',(0.,0.,1.));
#118=DIRECTION('ref_axis',(1.,0.,0.));
#119=DIRECTION('center_axis',(0.,0.,1.));
#120=DIRECTION('ref_axis',(1.,0.,0.));
#121=CARTESIAN_POINT('',(0.,0.,0.));
#122=CARTESIAN_POINT('Origin',(0.,0.,-19.95914961727));
#123=CARTESIAN_POINT('',(-4.5,-5.51091059616309E-16,0.));
#124=CARTESIAN_POINT('Origin',(0.,0.,0.));
#125=CARTESIAN_POINT('',(4.5,0.,4.5));
#126=CARTESIAN_POINT('Origin',(0.,0.,4.5));
#127=CARTESIAN_POINT('Origin',(0.,0.,1.));
#128=CARTESIAN_POINT('',(5.5,6.73555739531044E-16,4.5));
#129=CARTESIAN_POINT('Origin',(0.,0.,4.5));
#130=CARTESIAN_POINT('',(5.5,6.73555739531044E-16,1.));
#131=CARTESIAN_POINT('Origin',(0.,0.,1.));
#132=CARTESIAN_POINT('Origin',(-2.24345254752611E-16,8.41078048958452E-17,
4.5));
#133=CARTESIAN_POINT('Origin',(0.,0.,0.));
#134=CARTESIAN_POINT('',(8.5,1.04094977927525E-15,1.));
#135=CARTESIAN_POINT('Origin',(0.,0.,1.));
#136=CARTESIAN_POINT('',(8.5,1.04094977927525E-15,0.));
#137=CARTESIAN_POINT('Origin',(0.,0.,0.));
#138=CARTESIAN_POINT('Origin',(-5.22127393223979E-16,-2.17690789142188E-16,
0.));
#139=CARTESIAN_POINT('Origin',(-5.22127393223979E-16,-2.17690789142188E-16,
1.));
#140=UNCERTAINTY_MEASURE_WITH_UNIT(LENGTH_MEASURE(0.01),#144,
'DISTANCE_ACCURACY_VALUE',
'Maximum model space distance between geometric entities at asserted c
onnectivities');
#141=UNCERTAINTY_MEASURE_WITH_UNIT(LENGTH_MEASURE(1.E-6),#144,
'DISTANCE_ACCURACY_VALUE',
'Maximum model space distance between geometric entities at asserted c
onnectivities');
#142=(
GEOMETRIC_REPRESENTATION_CONTEXT(3)
GLOBAL_UNCERTAINTY_ASSIGNED_CONTEXT((#140))
GLOBAL_UNIT_ASSIGNED_CONTEXT((#144,#147,#145))
REPRESENTATION_CONTEXT('','3D')
);
#143=(
GEOMETRIC_REPRESENTATION_CONTEXT(3)
GLOBAL_UNCERTAINTY_ASSIGNED_CONTEXT((#141))
GLOBAL_UNIT_ASSIGNED_CONTEXT((#144,#147,#145))
REPRESENTATION_CONTEXT('','3D')
);
#144=(
LENGTH_UNIT()
NAMED_UNIT(*)
SI_UNIT(.MILLI.,.METRE.)
);
#145=(
NAMED_UNIT(*)
SI_UNIT($,.STERADIAN.)
SOLID_ANGLE_UNIT()
);
#146=DIMENSIONAL_EXPONENTS(0.,0.,0.,0.,0.,0.,0.);
#147=(
CONVERSION_BASED_UNIT('degree',#149)
NAMED_UNIT(#146)
PLANE_ANGLE_UNIT()
);
#148=(
NAMED_UNIT(*)
PLANE_ANGLE_UNIT()
SI_UNIT($,.RADIAN.)
);
#149=PLANE_ANGLE_MEASURE_WITH_UNIT(PLANE_ANGLE_MEASURE(0.01745329252),#148);
#150=SHAPE_DEFINITION_REPRESENTATION(#151,#152);
#151=PRODUCT_DEFINITION_SHAPE('',$,#154);
#152=SHAPE_REPRESENTATION('',(#82),#142);
#153=PRODUCT_DEFINITION_CONTEXT('part definition',#158,'design');
#154=PRODUCT_DEFINITION('XT90151','XT90151',#155,#153);
#155=PRODUCT_DEFINITION_FORMATION('','A',#160);
#156=PRODUCT_RELATED_PRODUCT_CATEGORY('XT90151','XT90151',(#160));
#157=APPLICATION_PROTOCOL_DEFINITION('international standard',
'automotive_design',2009,#158);
#158=APPLICATION_CONTEXT(
'Core Data for Automotive Mechanical Design Process');
#159=PRODUCT_CONTEXT('part definition',#158,'mechanical');
#160=PRODUCT('XT90151','XT90151',$,(#159));
#161=PRESENTATION_STYLE_ASSIGNMENT((#162));
#162=SURFACE_STYLE_USAGE(.BOTH.,#163);
#163=SURFACE_SIDE_STYLE('',(#164));
#164=SURFACE_STYLE_FILL_AREA(#165);
#165=FILL_AREA_STYLE('',(#166));
#166=FILL_AREA_STYLE_COLOUR('',#167);
#167=COLOUR_RGB('',0.956862745098039,0.96078431372549,0.964705882352941);
ENDSEC;
END-ISO-10303-21;
