ISO-10303-21;
HEADER;
/* Generated by software containing ST-Developer
 * from STEP Tools, Inc. (www.steptools.com) 
 */

FILE_DESCRIPTION(
/* description */ ('CURSORE ZINC. 13X20 M8 CON MOLLA'),
/* implementation_level */ '2;1');

FILE_NAME(
/* name */ 
'Q:\\Catalogo\\2_Accessori Dierre\\Per Download Web e catalogo cartace
o\\CATALOGO ELEMENTI ASSEMBLAGGIO\\PAGINA 10\\DDDCU0000038.stp',
/* time_stamp */ '2019-07-04T15:03:55+02:00',
/* author */ ('fzagni'),
/* organization */ (''),
/* preprocessor_version */ 'ST-DEVELOPER v17.2',
/* originating_system */ 'Autodesk Inventor 2019',
/* authorisation */ '');

FILE_SCHEMA (('AUTOMOTIVE_DESIGN { 1 0 10303 214 3 1 1 }'));
ENDSEC;

DATA;
#10=MECHANICAL_DESIGN_GEOMETRIC_PRESENTATION_REPRESENTATION('',(#13),#564);
#11=SHAPE_REPRESENTATION_RELATIONSHIP('SRR','None',#571,#12);
#12=ADVANCED_BREP_SHAPE_REPRESENTATION('',(#14),#563);
#13=STYLED_ITEM('',(#580),#14);
#14=MANIFOLD_SOLID_BREP('Importato1',#334);
#15=FACE_BOUND('',#59,.T.);
#16=FACE_BOUND('',#62,.T.);
#17=PLANE('',#357);
#18=PLANE('',#359);
#19=PLANE('',#362);
#20=PLANE('',#363);
#21=PLANE('',#364);
#22=PLANE('',#365);
#23=PLANE('',#366);
#24=PLANE('',#372);
#25=PLANE('',#373);
#26=PLANE('',#374);
#27=PLANE('',#375);
#28=PLANE('',#376);
#29=PLANE('',#377);
#30=PLANE('',#378);
#31=FACE_OUTER_BOUND('',#48,.T.);
#32=FACE_OUTER_BOUND('',#49,.T.);
#33=FACE_OUTER_BOUND('',#50,.T.);
#34=FACE_OUTER_BOUND('',#51,.T.);
#35=FACE_OUTER_BOUND('',#52,.T.);
#36=FACE_OUTER_BOUND('',#53,.T.);
#37=FACE_OUTER_BOUND('',#54,.T.);
#38=FACE_OUTER_BOUND('',#55,.T.);
#39=FACE_OUTER_BOUND('',#56,.T.);
#40=FACE_OUTER_BOUND('',#57,.T.);
#41=FACE_OUTER_BOUND('',#58,.T.);
#42=FACE_OUTER_BOUND('',#60,.T.);
#43=FACE_OUTER_BOUND('',#61,.T.);
#44=FACE_OUTER_BOUND('',#63,.T.);
#45=FACE_OUTER_BOUND('',#64,.T.);
#46=FACE_OUTER_BOUND('',#65,.T.);
#47=FACE_OUTER_BOUND('',#66,.T.);
#48=EDGE_LOOP('',(#224,#225,#226,#227));
#49=EDGE_LOOP('',(#228,#229,#230,#231,#232,#233));
#50=EDGE_LOOP('',(#234,#235,#236,#237));
#51=EDGE_LOOP('',(#238,#239,#240,#241));
#52=EDGE_LOOP('',(#242,#243,#244,#245,#246));
#53=EDGE_LOOP('',(#247,#248,#249,#250,#251));
#54=EDGE_LOOP('',(#252,#253,#254,#255,#256,#257));
#55=EDGE_LOOP('',(#258,#259,#260,#261));
#56=EDGE_LOOP('',(#262,#263,#264,#265));
#57=EDGE_LOOP('',(#266,#267,#268,#269,#270,#271));
#58=EDGE_LOOP('',(#272,#273,#274,#275));
#59=EDGE_LOOP('',(#276,#277));
#60=EDGE_LOOP('',(#278,#279,#280,#281));
#61=EDGE_LOOP('',(#282,#283,#284,#285,#286,#287,#288,#289));
#62=EDGE_LOOP('',(#290,#291));
#63=EDGE_LOOP('',(#292,#293,#294,#295,#296,#297));
#64=EDGE_LOOP('',(#298,#299,#300,#301,#302,#303));
#65=EDGE_LOOP('',(#304,#305,#306,#307,#308,#309));
#66=EDGE_LOOP('',(#310,#311,#312,#313));
#67=LINE('',#474,#104);
#68=LINE('',#477,#105);
#69=LINE('',#480,#106);
#70=LINE('',#484,#107);
#71=LINE('',#486,#108);
#72=LINE('',#487,#109);
#73=LINE('',#490,#110);
#74=LINE('',#491,#111);
#75=LINE('',#495,#112);
#76=LINE('',#498,#113);
#77=LINE('',#500,#114);
#78=LINE('',#501,#115);
#79=LINE('',#504,#116);
#80=LINE('',#506,#117);
#81=LINE('',#507,#118);
#82=LINE('',#509,#119);
#83=LINE('',#512,#120);
#84=LINE('',#514,#121);
#85=LINE('',#515,#122);
#86=LINE('',#518,#123);
#87=LINE('',#520,#124);
#88=LINE('',#521,#125);
#89=LINE('',#528,#126);
#90=LINE('',#535,#127);
#91=LINE('',#537,#128);
#92=LINE('',#539,#129);
#93=LINE('',#540,#130);
#94=LINE('',#544,#131);
#95=LINE('',#546,#132);
#96=LINE('',#548,#133);
#97=LINE('',#549,#134);
#98=LINE('',#551,#135);
#99=LINE('',#552,#136);
#100=LINE('',#554,#137);
#101=LINE('',#555,#138);
#102=LINE('',#557,#139);
#103=LINE('',#558,#140);
#104=VECTOR('',#385,10.);
#105=VECTOR('',#388,10.);
#106=VECTOR('',#391,10.);
#107=VECTOR('',#394,10.);
#108=VECTOR('',#395,20.);
#109=VECTOR('',#396,10.);
#110=VECTOR('',#399,10.);
#111=VECTOR('',#400,10.);
#112=VECTOR('',#405,10.);
#113=VECTOR('',#408,10.);
#114=VECTOR('',#409,10.);
#115=VECTOR('',#410,10.);
#116=VECTOR('',#413,10.);
#117=VECTOR('',#414,10.);
#118=VECTOR('',#415,10.);
#119=VECTOR('',#418,10.);
#120=VECTOR('',#421,20.);
#121=VECTOR('',#422,2.99999999999999);
#122=VECTOR('',#423,20.);
#123=VECTOR('',#426,20.);
#124=VECTOR('',#427,2.99999999999999);
#125=VECTOR('',#428,20.);
#126=VECTOR('',#435,3.4);
#127=VECTOR('',#442,9.00000000000001);
#128=VECTOR('',#443,10.);
#129=VECTOR('',#444,9.00000000000001);
#130=VECTOR('',#445,10.);
#131=VECTOR('',#448,2.99999999999999);
#132=VECTOR('',#449,20.);
#133=VECTOR('',#450,2.99999999999999);
#134=VECTOR('',#451,20.);
#135=VECTOR('',#454,13.);
#136=VECTOR('',#455,13.);
#137=VECTOR('',#458,2.8284271247462);
#138=VECTOR('',#459,2.8284271247462);
#139=VECTOR('',#462,2.8284271247462);
#140=VECTOR('',#463,2.8284271247462);
#141=CIRCLE('',#355,2.);
#142=CIRCLE('',#356,2.);
#143=CIRCLE('',#358,2.);
#144=CIRCLE('',#361,2.);
#145=CIRCLE('',#368,3.4);
#146=CIRCLE('',#369,3.4);
#147=CIRCLE('',#370,3.4);
#148=CIRCLE('',#371,3.4);
#149=VERTEX_POINT('',#470);
#150=VERTEX_POINT('',#471);
#151=VERTEX_POINT('',#473);
#152=VERTEX_POINT('',#475);
#153=VERTEX_POINT('',#479);
#154=VERTEX_POINT('',#481);
#155=VERTEX_POINT('',#483);
#156=VERTEX_POINT('',#485);
#157=VERTEX_POINT('',#489);
#158=VERTEX_POINT('',#493);
#159=VERTEX_POINT('',#497);
#160=VERTEX_POINT('',#499);
#161=VERTEX_POINT('',#503);
#162=VERTEX_POINT('',#505);
#163=VERTEX_POINT('',#511);
#164=VERTEX_POINT('',#513);
#165=VERTEX_POINT('',#517);
#166=VERTEX_POINT('',#519);
#167=VERTEX_POINT('',#523);
#168=VERTEX_POINT('',#524);
#169=VERTEX_POINT('',#527);
#170=VERTEX_POINT('',#529);
#171=VERTEX_POINT('',#533);
#172=VERTEX_POINT('',#534);
#173=VERTEX_POINT('',#536);
#174=VERTEX_POINT('',#538);
#175=VERTEX_POINT('',#542);
#176=VERTEX_POINT('',#543);
#177=VERTEX_POINT('',#545);
#178=VERTEX_POINT('',#547);
#179=EDGE_CURVE('',#149,#150,#141,.T.);
#180=EDGE_CURVE('',#150,#151,#67,.T.);
#181=EDGE_CURVE('',#151,#152,#142,.T.);
#182=EDGE_CURVE('',#152,#149,#68,.T.);
#183=EDGE_CURVE('',#153,#151,#69,.T.);
#184=EDGE_CURVE('',#154,#153,#143,.T.);
#185=EDGE_CURVE('',#155,#154,#70,.T.);
#186=EDGE_CURVE('',#155,#156,#71,.T.);
#187=EDGE_CURVE('',#156,#152,#72,.T.);
#188=EDGE_CURVE('',#150,#157,#73,.T.);
#189=EDGE_CURVE('',#153,#157,#74,.T.);
#190=EDGE_CURVE('',#157,#158,#144,.T.);
#191=EDGE_CURVE('',#158,#154,#75,.T.);
#192=EDGE_CURVE('',#159,#156,#76,.T.);
#193=EDGE_CURVE('',#159,#160,#77,.T.);
#194=EDGE_CURVE('',#160,#149,#78,.T.);
#195=EDGE_CURVE('',#161,#158,#79,.T.);
#196=EDGE_CURVE('',#161,#162,#80,.T.);
#197=EDGE_CURVE('',#155,#162,#81,.T.);
#198=EDGE_CURVE('',#160,#161,#82,.T.);
#199=EDGE_CURVE('',#156,#163,#83,.T.);
#200=EDGE_CURVE('',#164,#163,#84,.T.);
#201=EDGE_CURVE('',#159,#164,#85,.T.);
#202=EDGE_CURVE('',#165,#162,#86,.T.);
#203=EDGE_CURVE('',#165,#166,#87,.T.);
#204=EDGE_CURVE('',#166,#155,#88,.T.);
#205=EDGE_CURVE('',#167,#168,#145,.T.);
#206=EDGE_CURVE('',#168,#167,#146,.T.);
#207=EDGE_CURVE('',#168,#169,#89,.T.);
#208=EDGE_CURVE('',#169,#170,#147,.T.);
#209=EDGE_CURVE('',#170,#169,#148,.T.);
#210=EDGE_CURVE('',#171,#172,#90,.T.);
#211=EDGE_CURVE('',#171,#173,#91,.T.);
#212=EDGE_CURVE('',#173,#174,#92,.T.);
#213=EDGE_CURVE('',#174,#172,#93,.T.);
#214=EDGE_CURVE('',#175,#176,#94,.T.);
#215=EDGE_CURVE('',#175,#177,#95,.T.);
#216=EDGE_CURVE('',#177,#178,#96,.T.);
#217=EDGE_CURVE('',#178,#176,#97,.T.);
#218=EDGE_CURVE('',#176,#164,#98,.T.);
#219=EDGE_CURVE('',#178,#165,#99,.T.);
#220=EDGE_CURVE('',#173,#166,#100,.T.);
#221=EDGE_CURVE('',#177,#174,#101,.T.);
#222=EDGE_CURVE('',#163,#171,#102,.T.);
#223=EDGE_CURVE('',#172,#175,#103,.T.);
#224=ORIENTED_EDGE('',*,*,#179,.T.);
#225=ORIENTED_EDGE('',*,*,#180,.T.);
#226=ORIENTED_EDGE('',*,*,#181,.T.);
#227=ORIENTED_EDGE('',*,*,#182,.T.);
#228=ORIENTED_EDGE('',*,*,#181,.F.);
#229=ORIENTED_EDGE('',*,*,#183,.F.);
#230=ORIENTED_EDGE('',*,*,#184,.F.);
#231=ORIENTED_EDGE('',*,*,#185,.F.);
#232=ORIENTED_EDGE('',*,*,#186,.T.);
#233=ORIENTED_EDGE('',*,*,#187,.T.);
#234=ORIENTED_EDGE('',*,*,#180,.F.);
#235=ORIENTED_EDGE('',*,*,#188,.T.);
#236=ORIENTED_EDGE('',*,*,#189,.F.);
#237=ORIENTED_EDGE('',*,*,#183,.T.);
#238=ORIENTED_EDGE('',*,*,#184,.T.);
#239=ORIENTED_EDGE('',*,*,#189,.T.);
#240=ORIENTED_EDGE('',*,*,#190,.T.);
#241=ORIENTED_EDGE('',*,*,#191,.T.);
#242=ORIENTED_EDGE('',*,*,#182,.F.);
#243=ORIENTED_EDGE('',*,*,#187,.F.);
#244=ORIENTED_EDGE('',*,*,#192,.F.);
#245=ORIENTED_EDGE('',*,*,#193,.T.);
#246=ORIENTED_EDGE('',*,*,#194,.T.);
#247=ORIENTED_EDGE('',*,*,#191,.F.);
#248=ORIENTED_EDGE('',*,*,#195,.F.);
#249=ORIENTED_EDGE('',*,*,#196,.T.);
#250=ORIENTED_EDGE('',*,*,#197,.F.);
#251=ORIENTED_EDGE('',*,*,#185,.T.);
#252=ORIENTED_EDGE('',*,*,#179,.F.);
#253=ORIENTED_EDGE('',*,*,#194,.F.);
#254=ORIENTED_EDGE('',*,*,#198,.T.);
#255=ORIENTED_EDGE('',*,*,#195,.T.);
#256=ORIENTED_EDGE('',*,*,#190,.F.);
#257=ORIENTED_EDGE('',*,*,#188,.F.);
#258=ORIENTED_EDGE('',*,*,#192,.T.);
#259=ORIENTED_EDGE('',*,*,#199,.T.);
#260=ORIENTED_EDGE('',*,*,#200,.F.);
#261=ORIENTED_EDGE('',*,*,#201,.F.);
#262=ORIENTED_EDGE('',*,*,#197,.T.);
#263=ORIENTED_EDGE('',*,*,#202,.F.);
#264=ORIENTED_EDGE('',*,*,#203,.T.);
#265=ORIENTED_EDGE('',*,*,#204,.T.);
#266=ORIENTED_EDGE('',*,*,#205,.F.);
#267=ORIENTED_EDGE('',*,*,#206,.F.);
#268=ORIENTED_EDGE('',*,*,#207,.T.);
#269=ORIENTED_EDGE('',*,*,#208,.T.);
#270=ORIENTED_EDGE('',*,*,#209,.T.);
#271=ORIENTED_EDGE('',*,*,#207,.F.);
#272=ORIENTED_EDGE('',*,*,#210,.F.);
#273=ORIENTED_EDGE('',*,*,#211,.T.);
#274=ORIENTED_EDGE('',*,*,#212,.T.);
#275=ORIENTED_EDGE('',*,*,#213,.T.);
#276=ORIENTED_EDGE('',*,*,#205,.T.);
#277=ORIENTED_EDGE('',*,*,#206,.T.);
#278=ORIENTED_EDGE('',*,*,#214,.F.);
#279=ORIENTED_EDGE('',*,*,#215,.T.);
#280=ORIENTED_EDGE('',*,*,#216,.T.);
#281=ORIENTED_EDGE('',*,*,#217,.T.);
#282=ORIENTED_EDGE('',*,*,#218,.F.);
#283=ORIENTED_EDGE('',*,*,#217,.F.);
#284=ORIENTED_EDGE('',*,*,#219,.T.);
#285=ORIENTED_EDGE('',*,*,#202,.T.);
#286=ORIENTED_EDGE('',*,*,#196,.F.);
#287=ORIENTED_EDGE('',*,*,#198,.F.);
#288=ORIENTED_EDGE('',*,*,#193,.F.);
#289=ORIENTED_EDGE('',*,*,#201,.T.);
#290=ORIENTED_EDGE('',*,*,#209,.F.);
#291=ORIENTED_EDGE('',*,*,#208,.F.);
#292=ORIENTED_EDGE('',*,*,#212,.F.);
#293=ORIENTED_EDGE('',*,*,#220,.T.);
#294=ORIENTED_EDGE('',*,*,#203,.F.);
#295=ORIENTED_EDGE('',*,*,#219,.F.);
#296=ORIENTED_EDGE('',*,*,#216,.F.);
#297=ORIENTED_EDGE('',*,*,#221,.T.);
#298=ORIENTED_EDGE('',*,*,#200,.T.);
#299=ORIENTED_EDGE('',*,*,#222,.T.);
#300=ORIENTED_EDGE('',*,*,#210,.T.);
#301=ORIENTED_EDGE('',*,*,#223,.T.);
#302=ORIENTED_EDGE('',*,*,#214,.T.);
#303=ORIENTED_EDGE('',*,*,#218,.T.);
#304=ORIENTED_EDGE('',*,*,#220,.F.);
#305=ORIENTED_EDGE('',*,*,#211,.F.);
#306=ORIENTED_EDGE('',*,*,#222,.F.);
#307=ORIENTED_EDGE('',*,*,#199,.F.);
#308=ORIENTED_EDGE('',*,*,#186,.F.);
#309=ORIENTED_EDGE('',*,*,#204,.F.);
#310=ORIENTED_EDGE('',*,*,#221,.F.);
#311=ORIENTED_EDGE('',*,*,#215,.F.);
#312=ORIENTED_EDGE('',*,*,#223,.F.);
#313=ORIENTED_EDGE('',*,*,#213,.F.);
#314=CYLINDRICAL_SURFACE('',#354,2.);
#315=CYLINDRICAL_SURFACE('',#360,2.);
#316=CYLINDRICAL_SURFACE('',#367,3.4);
#317=ADVANCED_FACE('',(#31),#314,.T.);
#318=ADVANCED_FACE('',(#32),#17,.T.);
#319=ADVANCED_FACE('',(#33),#18,.T.);
#320=ADVANCED_FACE('',(#34),#315,.T.);
#321=ADVANCED_FACE('',(#35),#19,.T.);
#322=ADVANCED_FACE('',(#36),#20,.T.);
#323=ADVANCED_FACE('',(#37),#21,.T.);
#324=ADVANCED_FACE('',(#38),#22,.T.);
#325=ADVANCED_FACE('',(#39),#23,.T.);
#326=ADVANCED_FACE('',(#40),#316,.F.);
#327=ADVANCED_FACE('',(#41,#15),#24,.T.);
#328=ADVANCED_FACE('',(#42),#25,.T.);
#329=ADVANCED_FACE('',(#43,#16),#26,.T.);
#330=ADVANCED_FACE('',(#44),#27,.F.);
#331=ADVANCED_FACE('',(#45),#28,.T.);
#332=ADVANCED_FACE('',(#46),#29,.F.);
#333=ADVANCED_FACE('',(#47),#30,.F.);
#334=CLOSED_SHELL('',(#317,#318,#319,#320,#321,#322,#323,#324,#325,#326,
#327,#328,#329,#330,#331,#332,#333));
#335=DERIVED_UNIT_ELEMENT(#337,1.);
#336=DERIVED_UNIT_ELEMENT(#566,3.);
#337=(
MASS_UNIT()
NAMED_UNIT(*)
SI_UNIT($,.GRAM.)
);
#338=DERIVED_UNIT((#335,#336));
#339=MEASURE_REPRESENTATION_ITEM('density measure',
POSITIVE_RATIO_MEASURE(7.85),#338);
#340=PROPERTY_DEFINITION_REPRESENTATION(#345,#342);
#341=PROPERTY_DEFINITION_REPRESENTATION(#346,#343);
#342=REPRESENTATION('material name',(#344),#563);
#343=REPRESENTATION('density',(#339),#563);
#344=DESCRIPTIVE_REPRESENTATION_ITEM('Acciaio','Acciaio');
#345=PROPERTY_DEFINITION('material property','material name',#573);
#346=PROPERTY_DEFINITION('material property','density of part',#573);
#347=DATE_TIME_ROLE('creation_date');
#348=APPLIED_DATE_AND_TIME_ASSIGNMENT(#349,#347,(#573));
#349=DATE_AND_TIME(#350,#351);
#350=CALENDAR_DATE(2013,23,10);
#351=LOCAL_TIME(22,0,0.,#352);
#352=COORDINATED_UNIVERSAL_TIME_OFFSET(0,0,.BEHIND.);
#353=AXIS2_PLACEMENT_3D('placement',#468,#379,#380);
#354=AXIS2_PLACEMENT_3D('',#469,#381,#382);
#355=AXIS2_PLACEMENT_3D('',#472,#383,#384);
#356=AXIS2_PLACEMENT_3D('',#476,#386,#387);
#357=AXIS2_PLACEMENT_3D('',#478,#389,#390);
#358=AXIS2_PLACEMENT_3D('',#482,#392,#393);
#359=AXIS2_PLACEMENT_3D('',#488,#397,#398);
#360=AXIS2_PLACEMENT_3D('',#492,#401,#402);
#361=AXIS2_PLACEMENT_3D('',#494,#403,#404);
#362=AXIS2_PLACEMENT_3D('',#496,#406,#407);
#363=AXIS2_PLACEMENT_3D('',#502,#411,#412);
#364=AXIS2_PLACEMENT_3D('',#508,#416,#417);
#365=AXIS2_PLACEMENT_3D('',#510,#419,#420);
#366=AXIS2_PLACEMENT_3D('',#516,#424,#425);
#367=AXIS2_PLACEMENT_3D('',#522,#429,#430);
#368=AXIS2_PLACEMENT_3D('',#525,#431,#432);
#369=AXIS2_PLACEMENT_3D('',#526,#433,#434);
#370=AXIS2_PLACEMENT_3D('',#530,#436,#437);
#371=AXIS2_PLACEMENT_3D('',#531,#438,#439);
#372=AXIS2_PLACEMENT_3D('',#532,#440,#441);
#373=AXIS2_PLACEMENT_3D('',#541,#446,#447);
#374=AXIS2_PLACEMENT_3D('',#550,#452,#453);
#375=AXIS2_PLACEMENT_3D('',#553,#456,#457);
#376=AXIS2_PLACEMENT_3D('',#556,#460,#461);
#377=AXIS2_PLACEMENT_3D('',#559,#464,#465);
#378=AXIS2_PLACEMENT_3D('',#560,#466,#467);
#379=DIRECTION('axis',(0.,0.,1.));
#380=DIRECTION('refdir',(1.,0.,0.));
#381=DIRECTION('center_axis',(-1.,3.70074341541719E-15,0.));
#382=DIRECTION('ref_axis',(-3.14018491736755E-15,-0.707106781186548,-0.707106781186548));
#383=DIRECTION('center_axis',(1.,3.64291929955129E-16,0.));
#384=DIRECTION('ref_axis',(-3.14018491736755E-15,-0.707106781186548,-0.707106781186548));
#385=DIRECTION('',(1.,-3.70074341541719E-15,0.));
#386=DIRECTION('center_axis',(-1.,-3.29597460435593E-16,0.));
#387=DIRECTION('ref_axis',(-3.14018491736755E-15,-0.707106781186548,-0.707106781186548));
#388=DIRECTION('',(-1.,3.70074341541719E-15,0.));
#389=DIRECTION('center_axis',(1.,3.29597460435593E-16,0.));
#390=DIRECTION('ref_axis',(3.29597460435593E-16,-1.,0.));
#391=DIRECTION('',(3.29597460435593E-16,-1.,0.));
#392=DIRECTION('center_axis',(-1.,-3.29597460435593E-16,0.));
#393=DIRECTION('ref_axis',(0.,0.707106781186548,-0.707106781186548));
#394=DIRECTION('',(0.,0.,-1.));
#395=DIRECTION('',(0.,-1.,0.));
#396=DIRECTION('',(0.,0.,-1.));
#397=DIRECTION('center_axis',(0.,0.,-1.));
#398=DIRECTION('ref_axis',(-1.,0.,0.));
#399=DIRECTION('',(-3.64291929955129E-16,1.,0.));
#400=DIRECTION('',(-1.,0.,0.));
#401=DIRECTION('center_axis',(1.,0.,0.));
#402=DIRECTION('ref_axis',(0.,0.707106781186548,-0.707106781186548));
#403=DIRECTION('center_axis',(1.,3.64291929955129E-16,0.));
#404=DIRECTION('ref_axis',(0.,0.707106781186548,-0.707106781186548));
#405=DIRECTION('',(1.,0.,0.));
#406=DIRECTION('center_axis',(-3.70074341541719E-15,-1.,0.));
#407=DIRECTION('ref_axis',(-1.,3.70074341541719E-15,0.));
#408=DIRECTION('',(0.,0.,-1.));
#409=DIRECTION('',(-1.,3.70074341541719E-15,0.));
#410=DIRECTION('',(0.,0.,-1.));
#411=DIRECTION('center_axis',(0.,1.,0.));
#412=DIRECTION('ref_axis',(1.,0.,0.));
#413=DIRECTION('',(0.,0.,-1.));
#414=DIRECTION('',(1.,0.,0.));
#415=DIRECTION('',(0.,0.,1.));
#416=DIRECTION('center_axis',(-1.,-3.64291929955129E-16,0.));
#417=DIRECTION('ref_axis',(-3.64291929955129E-16,1.,0.));
#418=DIRECTION('',(-3.64291929955129E-16,1.,0.));
#419=DIRECTION('center_axis',(-1.,0.,0.));
#420=DIRECTION('ref_axis',(0.,0.,1.));
#421=DIRECTION('',(0.,-1.,0.));
#422=DIRECTION('',(0.,0.,-1.));
#423=DIRECTION('',(0.,-1.,0.));
#424=DIRECTION('center_axis',(-1.,0.,0.));
#425=DIRECTION('ref_axis',(0.,0.,1.));
#426=DIRECTION('',(0.,-1.,0.));
#427=DIRECTION('',(0.,0.,-1.));
#428=DIRECTION('',(0.,-1.,0.));
#429=DIRECTION('center_axis',(0.,0.,1.));
#430=DIRECTION('ref_axis',(-1.,0.,0.));
#431=DIRECTION('center_axis',(0.,0.,1.));
#432=DIRECTION('ref_axis',(0.,1.,0.));
#433=DIRECTION('center_axis',(0.,0.,1.));
#434=DIRECTION('ref_axis',(0.,1.,0.));
#435=DIRECTION('',(0.,0.,1.));
#436=DIRECTION('center_axis',(0.,0.,1.));
#437=DIRECTION('ref_axis',(0.,-1.,0.));
#438=DIRECTION('center_axis',(0.,0.,1.));
#439=DIRECTION('ref_axis',(0.,-1.,0.));
#440=DIRECTION('center_axis',(0.,0.,-1.));
#441=DIRECTION('ref_axis',(-1.,0.,0.));
#442=DIRECTION('',(1.,0.,0.));
#443=DIRECTION('',(-6.12323359809178E-17,1.,0.));
#444=DIRECTION('',(1.,0.,0.));
#445=DIRECTION('',(-6.12323359809178E-17,-1.,0.));
#446=DIRECTION('center_axis',(1.,0.,0.));
#447=DIRECTION('ref_axis',(0.,0.,-1.));
#448=DIRECTION('',(0.,0.,1.));
#449=DIRECTION('',(0.,1.,0.));
#450=DIRECTION('',(0.,0.,1.));
#451=DIRECTION('',(0.,-1.,0.));
#452=DIRECTION('center_axis',(0.,0.,1.));
#453=DIRECTION('ref_axis',(1.,0.,0.));
#454=DIRECTION('',(-1.,0.,0.));
#455=DIRECTION('',(-1.,0.,0.));
#456=DIRECTION('center_axis',(0.,-1.,0.));
#457=DIRECTION('ref_axis',(0.,0.,-1.));
#458=DIRECTION('',(-0.707106781186548,0.,0.707106781186547));
#459=DIRECTION('',(-0.707106781186547,0.,-0.707106781186548));
#460=DIRECTION('center_axis',(0.,-1.,0.));
#461=DIRECTION('ref_axis',(0.,0.,-1.));
#462=DIRECTION('',(0.707106781186548,0.,-0.707106781186547));
#463=DIRECTION('',(0.707106781186547,0.,0.707106781186548));
#464=DIRECTION('center_axis',(0.707106781186548,4.32978E-17,0.707106781186547));
#465=DIRECTION('ref_axis',(0.707106781186547,0.,-0.707106781186548));
#466=DIRECTION('center_axis',(-0.707106781186548,4.32978E-17,0.707106781186547));
#467=DIRECTION('ref_axis',(0.707106781186547,0.,0.707106781186548));
#468=CARTESIAN_POINT('',(0.,0.,0.));
#469=CARTESIAN_POINT('Origin',(-6.53750000000001,-6.,-8.00000000000001));
#470=CARTESIAN_POINT('',(-6.65,-8.,-8.00000000000001));
#471=CARTESIAN_POINT('',(-6.65,-6.,-10.));
#472=CARTESIAN_POINT('Origin',(-6.65,-6.,-8.00000000000001));
#473=CARTESIAN_POINT('',(-6.5,-6.,-10.));
#474=CARTESIAN_POINT('',(-6.53750000000001,-6.,-10.));
#475=CARTESIAN_POINT('',(-6.5,-8.,-8.00000000000001));
#476=CARTESIAN_POINT('Origin',(-6.50000000000006,-6.,-8.00000000000001));
#477=CARTESIAN_POINT('',(-6.53750000000002,-8.,-8.00000000000001));
#478=CARTESIAN_POINT('Origin',(-6.50000000000001,8.,4.99999999999999));
#479=CARTESIAN_POINT('',(-6.50000000000001,6.,-10.));
#480=CARTESIAN_POINT('',(-6.50000000000001,8.,-10.));
#481=CARTESIAN_POINT('',(-6.50000000000001,8.,-8.00000000000001));
#482=CARTESIAN_POINT('Origin',(-6.50000000000001,6.,-8.00000000000001));
#483=CARTESIAN_POINT('',(-6.50000000000001,8.,1.5));
#484=CARTESIAN_POINT('',(-6.50000000000001,8.,4.99999999999999));
#485=CARTESIAN_POINT('',(-6.5,-8.,1.5));
#486=CARTESIAN_POINT('',(-6.50000000000001,10.,1.5));
#487=CARTESIAN_POINT('',(-6.5,-8.,4.99999999999999));
#488=CARTESIAN_POINT('Origin',(-6.57500000000001,0.,-10.));
#489=CARTESIAN_POINT('',(-6.65000000000001,6.,-10.));
#490=CARTESIAN_POINT('',(-6.65,-8.,-10.));
#491=CARTESIAN_POINT('',(-6.61250000000001,6.,-10.));
#492=CARTESIAN_POINT('Origin',(-6.61250000000001,6.,-8.00000000000001));
#493=CARTESIAN_POINT('',(-6.65000000000001,8.,-8.00000000000001));
#494=CARTESIAN_POINT('Origin',(-6.65,6.,-8.00000000000001));
#495=CARTESIAN_POINT('',(-6.61250000000001,8.,-8.00000000000001));
#496=CARTESIAN_POINT('Origin',(-6.5,-8.,4.99999999999999));
#497=CARTESIAN_POINT('',(-6.5,-8.,5.99999999999999));
#498=CARTESIAN_POINT('',(-6.50000000000001,-8.,3.42499999999999));
#499=CARTESIAN_POINT('',(-6.65,-8.,5.99999999999999));
#500=CARTESIAN_POINT('',(-6.5,-8.,5.99999999999999));
#501=CARTESIAN_POINT('',(-6.65,-8.,4.99999999999999));
#502=CARTESIAN_POINT('Origin',(-6.65000000000001,8.,4.99999999999999));
#503=CARTESIAN_POINT('',(-6.65000000000001,8.,5.99999999999999));
#504=CARTESIAN_POINT('',(-6.65000000000001,8.,4.99999999999999));
#505=CARTESIAN_POINT('',(-6.50000000000001,8.,5.99999999999999));
#506=CARTESIAN_POINT('',(-6.65000000000001,8.,5.99999999999999));
#507=CARTESIAN_POINT('',(-6.50000000000001,8.,3.42499999999999));
#508=CARTESIAN_POINT('Origin',(-6.65,-8.,4.99999999999999));
#509=CARTESIAN_POINT('',(-6.65,-8.,5.99999999999999));
#510=CARTESIAN_POINT('Origin',(-6.50000000000001,11.,1.85));
#511=CARTESIAN_POINT('',(-6.50000000000001,-10.,1.5));
#512=CARTESIAN_POINT('',(-6.50000000000001,10.,1.5));
#513=CARTESIAN_POINT('',(-6.50000000000001,-10.,5.99999999999999));
#514=CARTESIAN_POINT('',(-6.50000000000001,-10.,4.99999999999999));
#515=CARTESIAN_POINT('',(-6.50000000000001,10.,5.99999999999999));
#516=CARTESIAN_POINT('Origin',(-6.50000000000001,11.,1.85));
#517=CARTESIAN_POINT('',(-6.50000000000001,10.,5.99999999999999));
#518=CARTESIAN_POINT('',(-6.50000000000001,10.,5.99999999999999));
#519=CARTESIAN_POINT('',(-6.50000000000001,10.,1.5));
#520=CARTESIAN_POINT('',(-6.50000000000001,10.,4.99999999999999));
#521=CARTESIAN_POINT('',(-6.50000000000001,10.,1.5));
#522=CARTESIAN_POINT('Origin',(0.,-6.123234E-25,-1.E-8));
#523=CARTESIAN_POINT('',(0.,3.4,-2.0819E-16));
#524=CARTESIAN_POINT('',(3.4,4.16379911097777E-16,0.));
#525=CARTESIAN_POINT('Origin',(0.,0.,0.));
#526=CARTESIAN_POINT('Origin',(0.,0.,0.));
#527=CARTESIAN_POINT('',(3.4,4.16379911097777E-16,5.99999999999999));
#528=CARTESIAN_POINT('',(3.4,4.16379911097777E-16,-1.E-8));
#529=CARTESIAN_POINT('',(0.,3.4,5.99999999999999));
#530=CARTESIAN_POINT('Origin',(0.,3.061617E-16,5.99999999999999));
#531=CARTESIAN_POINT('Origin',(0.,3.061617E-16,5.99999999999999));
#532=CARTESIAN_POINT('Origin',(-4.95000000000001,-11.,-1.35373E-14));
#533=CARTESIAN_POINT('',(-4.99999999999999,-10.,-1.36002320516582E-14));
#534=CARTESIAN_POINT('',(5.,-10.,-1.36002320516582E-14));
#535=CARTESIAN_POINT('',(-4.50000000000001,-10.,-1.359853E-14));
#536=CARTESIAN_POINT('',(-4.99999999999999,10.,-1.36002320516582E-14));
#537=CARTESIAN_POINT('',(-5.,-1.99005091937978E-17,-1.34961486430996E-14));
#538=CARTESIAN_POINT('',(5.,10.,-1.36002320516582E-14));
#539=CARTESIAN_POINT('',(-4.50000000000001,10.,-1.482318E-14));
#540=CARTESIAN_POINT('',(5.,-2.55645002720331E-16,-1.36002320516582E-14));
#541=CARTESIAN_POINT('Origin',(6.5,-11.,1.85));
#542=CARTESIAN_POINT('',(6.5,-10.,1.5));
#543=CARTESIAN_POINT('',(6.5,-10.,5.99999999999999));
#544=CARTESIAN_POINT('',(6.5,-10.,2.));
#545=CARTESIAN_POINT('',(6.5,10.,1.5));
#546=CARTESIAN_POINT('',(6.5,-10.,1.5));
#547=CARTESIAN_POINT('',(6.5,10.,5.99999999999999));
#548=CARTESIAN_POINT('',(6.5,10.,2.));
#549=CARTESIAN_POINT('',(6.5,10.,5.99999999999999));
#550=CARTESIAN_POINT('Origin',(-7.15000000000001,11.,5.99999999999999));
#551=CARTESIAN_POINT('',(6.5,-10.,5.99999999999999));
#552=CARTESIAN_POINT('',(6.5,10.,5.99999999999999));
#553=CARTESIAN_POINT('Origin',(-7.15000000000001,10.,-0.250000000000015));
#554=CARTESIAN_POINT('',(-4.5,10.,-0.500000000000008));
#555=CARTESIAN_POINT('',(6.50000000000001,10.,1.5));
#556=CARTESIAN_POINT('Origin',(-7.15000000000001,-10.,-0.250000000000014));
#557=CARTESIAN_POINT('',(-6.50000000000001,-10.,1.5));
#558=CARTESIAN_POINT('',(4.5,-10.,-0.500000000000013));
#559=CARTESIAN_POINT('Origin',(-4.4,11.,-0.600000000000009));
#560=CARTESIAN_POINT('Origin',(6.60000000000001,11.,1.6));
#561=UNCERTAINTY_MEASURE_WITH_UNIT(LENGTH_MEASURE(0.01),#565,
'DISTANCE_ACCURACY_VALUE',
'Maximum model space distance between geometric entities at asserted c
onnectivities');
#562=UNCERTAINTY_MEASURE_WITH_UNIT(LENGTH_MEASURE(0.01),#565,
'DISTANCE_ACCURACY_VALUE',
'Maximum model space distance between geometric entities at asserted c
onnectivities');
#563=(
GEOMETRIC_REPRESENTATION_CONTEXT(3)
GLOBAL_UNCERTAINTY_ASSIGNED_CONTEXT((#561))
GLOBAL_UNIT_ASSIGNED_CONTEXT((#565,#567,#568))
REPRESENTATION_CONTEXT('','3D')
);
#564=(
GEOMETRIC_REPRESENTATION_CONTEXT(3)
GLOBAL_UNCERTAINTY_ASSIGNED_CONTEXT((#562))
GLOBAL_UNIT_ASSIGNED_CONTEXT((#565,#567,#568))
REPRESENTATION_CONTEXT('','3D')
);
#565=(
LENGTH_UNIT()
NAMED_UNIT(*)
SI_UNIT(.MILLI.,.METRE.)
);
#566=(
LENGTH_UNIT()
NAMED_UNIT(*)
SI_UNIT(.CENTI.,.METRE.)
);
#567=(
NAMED_UNIT(*)
PLANE_ANGLE_UNIT()
SI_UNIT($,.RADIAN.)
);
#568=(
NAMED_UNIT(*)
SI_UNIT($,.STERADIAN.)
SOLID_ANGLE_UNIT()
);
#569=SHAPE_DEFINITION_REPRESENTATION(#570,#571);
#570=PRODUCT_DEFINITION_SHAPE('',$,#573);
#571=SHAPE_REPRESENTATION('',(#353),#563);
#572=PRODUCT_DEFINITION_CONTEXT('part definition',#577,'design');
#573=PRODUCT_DEFINITION('26.068.00','DDDCU0000038 (26.068.00)',#574,#572);
#574=PRODUCT_DEFINITION_FORMATION('A',$,#579);
#575=PRODUCT_RELATED_PRODUCT_CATEGORY('DDDCU0000038 (26.068.00)',
'DDDCU0000038 (26.068.00)',(#579));
#576=APPLICATION_PROTOCOL_DEFINITION('international standard',
'automotive_design',2009,#577);
#577=APPLICATION_CONTEXT(
'Core Data for Automotive Mechanical Design Process');
#578=PRODUCT_CONTEXT('part definition',#577,'mechanical');
#579=PRODUCT('26.068.00','DDDCU0000038 (26.068.00)',
'CURSORE ZINC. 13X20 M8 CON MOLLA',(#578));
#580=PRESENTATION_STYLE_ASSIGNMENT((#581));
#581=SURFACE_STYLE_USAGE(.BOTH.,#584);
#582=SURFACE_STYLE_RENDERING_WITH_PROPERTIES($,#588,(#583));
#583=SURFACE_STYLE_TRANSPARENT(1.);
#584=SURFACE_SIDE_STYLE('',(#585,#582));
#585=SURFACE_STYLE_FILL_AREA(#586);
#586=FILL_AREA_STYLE('',(#587));
#587=FILL_AREA_STYLE_COLOUR('',#588);
#588=COLOUR_RGB('',0.83921568627451,0.886274509803922,0.854901960784314);
ENDSEC;
END-ISO-10303-21;
