ISO-10303-21;
HEADER;
/* Generated by software containing ST-Developer
 * from STEP Tools, Inc. (www.steptools.com) 
 */

FILE_DESCRIPTION(
/* description */ ('Translator using VaultInventorServer'),
/* implementation_level */ '2;1');

FILE_NAME(
/* name */ 'C:\\DIERRE19\\Designs\\DIERRE\\DD\\DDDCU0000036_A.stp',
/* time_stamp */ '2022-07-21T08:17:38+02:00',
/* author */ ('fzagni'),
/* organization */ (''),
/* preprocessor_version */ 'ST-DEVELOPER v18.1',
/* originating_system */ 'Autodesk Inventor 2022',
/* authorisation */ '');

FILE_SCHEMA (('AUTOMOTIVE_DESIGN { 1 0 10303 214 3 1 1 }'));
ENDSEC;

DATA;
#10=MECHANICAL_DESIGN_GEOMETRIC_PRESENTATION_REPRESENTATION('',(#13),#547);
#11=SHAPE_REPRESENTATION_RELATIONSHIP('SRR','None',#554,#12);
#12=ADVANCED_BREP_SHAPE_REPRESENTATION('',(#14),#546);
#13=STYLED_ITEM('',(#563),#14);
#14=MANIFOLD_SOLID_BREP('Solido1',#324);
#15=FACE_BOUND('',#60,.T.);
#16=FACE_BOUND('',#65,.T.);
#17=PLANE('',#350);
#18=PLANE('',#351);
#19=PLANE('',#355);
#20=PLANE('',#356);
#21=PLANE('',#357);
#22=PLANE('',#358);
#23=PLANE('',#359);
#24=PLANE('',#363);
#25=PLANE('',#364);
#26=PLANE('',#365);
#27=PLANE('',#366);
#28=PLANE('',#367);
#29=PLANE('',#368);
#30=PLANE('',#369);
#31=FACE_OUTER_BOUND('',#48,.T.);
#32=FACE_OUTER_BOUND('',#49,.T.);
#33=FACE_OUTER_BOUND('',#50,.T.);
#34=FACE_OUTER_BOUND('',#51,.T.);
#35=FACE_OUTER_BOUND('',#52,.T.);
#36=FACE_OUTER_BOUND('',#53,.T.);
#37=FACE_OUTER_BOUND('',#54,.T.);
#38=FACE_OUTER_BOUND('',#55,.T.);
#39=FACE_OUTER_BOUND('',#56,.T.);
#40=FACE_OUTER_BOUND('',#57,.T.);
#41=FACE_OUTER_BOUND('',#58,.T.);
#42=FACE_OUTER_BOUND('',#59,.T.);
#43=FACE_OUTER_BOUND('',#61,.T.);
#44=FACE_OUTER_BOUND('',#62,.T.);
#45=FACE_OUTER_BOUND('',#63,.T.);
#46=FACE_OUTER_BOUND('',#64,.T.);
#47=FACE_OUTER_BOUND('',#66,.T.);
#48=EDGE_LOOP('',(#218,#219,#220,#221));
#49=EDGE_LOOP('',(#222,#223,#224,#225));
#50=EDGE_LOOP('',(#226,#227,#228,#229,#230,#231));
#51=EDGE_LOOP('',(#232,#233,#234,#235));
#52=EDGE_LOOP('',(#236,#237,#238,#239,#240));
#53=EDGE_LOOP('',(#241,#242,#243,#244,#245));
#54=EDGE_LOOP('',(#246,#247,#248,#249,#250,#251));
#55=EDGE_LOOP('',(#252,#253,#254,#255));
#56=EDGE_LOOP('',(#256,#257,#258,#259));
#57=EDGE_LOOP('',(#260,#261,#262,#263));
#58=EDGE_LOOP('',(#264,#265,#266,#267,#268,#269));
#59=EDGE_LOOP('',(#270,#271,#272,#273));
#60=EDGE_LOOP('',(#274));
#61=EDGE_LOOP('',(#275,#276,#277,#278,#279,#280));
#62=EDGE_LOOP('',(#281,#282,#283,#284));
#63=EDGE_LOOP('',(#285,#286,#287,#288));
#64=EDGE_LOOP('',(#289,#290,#291,#292,#293,#294,#295,#296));
#65=EDGE_LOOP('',(#297));
#66=EDGE_LOOP('',(#298,#299,#300,#301,#302,#303));
#67=LINE('',#461,#104);
#68=LINE('',#464,#105);
#69=LINE('',#467,#106);
#70=LINE('',#469,#107);
#71=LINE('',#470,#108);
#72=LINE('',#473,#109);
#73=LINE('',#475,#110);
#74=LINE('',#477,#111);
#75=LINE('',#481,#112);
#76=LINE('',#485,#113);
#77=LINE('',#487,#114);
#78=LINE('',#488,#115);
#79=LINE('',#491,#116);
#80=LINE('',#493,#117);
#81=LINE('',#494,#118);
#82=LINE('',#496,#119);
#83=LINE('',#499,#120);
#84=LINE('',#501,#121);
#85=LINE('',#502,#122);
#86=LINE('',#505,#123);
#87=LINE('',#507,#124);
#88=LINE('',#508,#125);
#89=LINE('',#513,#126);
#90=LINE('',#517,#127);
#91=LINE('',#519,#128);
#92=LINE('',#520,#129);
#93=LINE('',#523,#130);
#94=LINE('',#525,#131);
#95=LINE('',#526,#132);
#96=LINE('',#529,#133);
#97=LINE('',#531,#134);
#98=LINE('',#532,#135);
#99=LINE('',#535,#136);
#100=LINE('',#536,#137);
#101=LINE('',#539,#138);
#102=LINE('',#540,#139);
#103=LINE('',#542,#140);
#104=VECTOR('',#376,10.);
#105=VECTOR('',#379,10.);
#106=VECTOR('',#382,10.);
#107=VECTOR('',#383,10.);
#108=VECTOR('',#384,10.);
#109=VECTOR('',#387,10.);
#110=VECTOR('',#388,10.);
#111=VECTOR('',#389,10.);
#112=VECTOR('',#394,10.);
#113=VECTOR('',#399,10.);
#114=VECTOR('',#400,10.);
#115=VECTOR('',#401,10.);
#116=VECTOR('',#404,10.);
#117=VECTOR('',#405,10.);
#118=VECTOR('',#406,10.);
#119=VECTOR('',#409,10.);
#120=VECTOR('',#412,10.);
#121=VECTOR('',#413,10.);
#122=VECTOR('',#414,10.);
#123=VECTOR('',#417,10.);
#124=VECTOR('',#418,10.);
#125=VECTOR('',#419,10.);
#126=VECTOR('',#424,2.4585);
#127=VECTOR('',#429,10.);
#128=VECTOR('',#430,10.);
#129=VECTOR('',#431,10.);
#130=VECTOR('',#434,10.);
#131=VECTOR('',#435,10.);
#132=VECTOR('',#436,10.);
#133=VECTOR('',#439,10.);
#134=VECTOR('',#440,10.);
#135=VECTOR('',#441,10.);
#136=VECTOR('',#444,10.);
#137=VECTOR('',#445,10.);
#138=VECTOR('',#448,10.);
#139=VECTOR('',#449,10.);
#140=VECTOR('',#452,10.);
#141=CIRCLE('',#348,2.);
#142=CIRCLE('',#349,2.);
#143=CIRCLE('',#352,2.);
#144=CIRCLE('',#354,2.);
#145=CIRCLE('',#361,2.4585);
#146=CIRCLE('',#362,2.4585);
#147=VERTEX_POINT('',#457);
#148=VERTEX_POINT('',#458);
#149=VERTEX_POINT('',#460);
#150=VERTEX_POINT('',#462);
#151=VERTEX_POINT('',#466);
#152=VERTEX_POINT('',#468);
#153=VERTEX_POINT('',#472);
#154=VERTEX_POINT('',#474);
#155=VERTEX_POINT('',#476);
#156=VERTEX_POINT('',#480);
#157=VERTEX_POINT('',#484);
#158=VERTEX_POINT('',#486);
#159=VERTEX_POINT('',#490);
#160=VERTEX_POINT('',#492);
#161=VERTEX_POINT('',#498);
#162=VERTEX_POINT('',#500);
#163=VERTEX_POINT('',#504);
#164=VERTEX_POINT('',#506);
#165=VERTEX_POINT('',#510);
#166=VERTEX_POINT('',#512);
#167=VERTEX_POINT('',#516);
#168=VERTEX_POINT('',#518);
#169=VERTEX_POINT('',#522);
#170=VERTEX_POINT('',#524);
#171=VERTEX_POINT('',#528);
#172=VERTEX_POINT('',#530);
#173=VERTEX_POINT('',#534);
#174=VERTEX_POINT('',#538);
#175=EDGE_CURVE('',#147,#148,#141,.T.);
#176=EDGE_CURVE('',#148,#149,#67,.T.);
#177=EDGE_CURVE('',#149,#150,#142,.T.);
#178=EDGE_CURVE('',#150,#147,#68,.T.);
#179=EDGE_CURVE('',#150,#151,#69,.T.);
#180=EDGE_CURVE('',#152,#151,#70,.T.);
#181=EDGE_CURVE('',#147,#152,#71,.T.);
#182=EDGE_CURVE('',#153,#149,#72,.T.);
#183=EDGE_CURVE('',#154,#153,#73,.T.);
#184=EDGE_CURVE('',#155,#154,#74,.T.);
#185=EDGE_CURVE('',#151,#155,#143,.T.);
#186=EDGE_CURVE('',#155,#156,#75,.T.);
#187=EDGE_CURVE('',#156,#152,#144,.T.);
#188=EDGE_CURVE('',#157,#154,#76,.T.);
#189=EDGE_CURVE('',#157,#158,#77,.T.);
#190=EDGE_CURVE('',#158,#156,#78,.T.);
#191=EDGE_CURVE('',#148,#159,#79,.T.);
#192=EDGE_CURVE('',#159,#160,#80,.T.);
#193=EDGE_CURVE('',#153,#160,#81,.T.);
#194=EDGE_CURVE('',#158,#159,#82,.T.);
#195=EDGE_CURVE('',#161,#160,#83,.T.);
#196=EDGE_CURVE('',#162,#161,#84,.T.);
#197=EDGE_CURVE('',#153,#162,#85,.T.);
#198=EDGE_CURVE('',#163,#154,#86,.T.);
#199=EDGE_CURVE('',#164,#163,#87,.T.);
#200=EDGE_CURVE('',#157,#164,#88,.T.);
#201=EDGE_CURVE('',#165,#165,#145,.T.);
#202=EDGE_CURVE('',#165,#166,#89,.T.);
#203=EDGE_CURVE('',#166,#166,#146,.T.);
#204=EDGE_CURVE('',#162,#167,#90,.T.);
#205=EDGE_CURVE('',#167,#168,#91,.T.);
#206=EDGE_CURVE('',#168,#163,#92,.T.);
#207=EDGE_CURVE('',#169,#167,#93,.T.);
#208=EDGE_CURVE('',#170,#169,#94,.T.);
#209=EDGE_CURVE('',#168,#170,#95,.T.);
#210=EDGE_CURVE('',#161,#171,#96,.T.);
#211=EDGE_CURVE('',#171,#172,#97,.T.);
#212=EDGE_CURVE('',#169,#172,#98,.T.);
#213=EDGE_CURVE('',#172,#173,#99,.T.);
#214=EDGE_CURVE('',#173,#170,#100,.T.);
#215=EDGE_CURVE('',#174,#171,#101,.T.);
#216=EDGE_CURVE('',#173,#174,#102,.T.);
#217=EDGE_CURVE('',#174,#164,#103,.T.);
#218=ORIENTED_EDGE('',*,*,#175,.T.);
#219=ORIENTED_EDGE('',*,*,#176,.T.);
#220=ORIENTED_EDGE('',*,*,#177,.T.);
#221=ORIENTED_EDGE('',*,*,#178,.T.);
#222=ORIENTED_EDGE('',*,*,#178,.F.);
#223=ORIENTED_EDGE('',*,*,#179,.T.);
#224=ORIENTED_EDGE('',*,*,#180,.F.);
#225=ORIENTED_EDGE('',*,*,#181,.F.);
#226=ORIENTED_EDGE('',*,*,#177,.F.);
#227=ORIENTED_EDGE('',*,*,#182,.F.);
#228=ORIENTED_EDGE('',*,*,#183,.F.);
#229=ORIENTED_EDGE('',*,*,#184,.F.);
#230=ORIENTED_EDGE('',*,*,#185,.F.);
#231=ORIENTED_EDGE('',*,*,#179,.F.);
#232=ORIENTED_EDGE('',*,*,#185,.T.);
#233=ORIENTED_EDGE('',*,*,#186,.T.);
#234=ORIENTED_EDGE('',*,*,#187,.T.);
#235=ORIENTED_EDGE('',*,*,#180,.T.);
#236=ORIENTED_EDGE('',*,*,#186,.F.);
#237=ORIENTED_EDGE('',*,*,#184,.T.);
#238=ORIENTED_EDGE('',*,*,#188,.F.);
#239=ORIENTED_EDGE('',*,*,#189,.T.);
#240=ORIENTED_EDGE('',*,*,#190,.T.);
#241=ORIENTED_EDGE('',*,*,#176,.F.);
#242=ORIENTED_EDGE('',*,*,#191,.T.);
#243=ORIENTED_EDGE('',*,*,#192,.T.);
#244=ORIENTED_EDGE('',*,*,#193,.F.);
#245=ORIENTED_EDGE('',*,*,#182,.T.);
#246=ORIENTED_EDGE('',*,*,#175,.F.);
#247=ORIENTED_EDGE('',*,*,#181,.T.);
#248=ORIENTED_EDGE('',*,*,#187,.F.);
#249=ORIENTED_EDGE('',*,*,#190,.F.);
#250=ORIENTED_EDGE('',*,*,#194,.T.);
#251=ORIENTED_EDGE('',*,*,#191,.F.);
#252=ORIENTED_EDGE('',*,*,#193,.T.);
#253=ORIENTED_EDGE('',*,*,#195,.F.);
#254=ORIENTED_EDGE('',*,*,#196,.F.);
#255=ORIENTED_EDGE('',*,*,#197,.F.);
#256=ORIENTED_EDGE('',*,*,#188,.T.);
#257=ORIENTED_EDGE('',*,*,#198,.F.);
#258=ORIENTED_EDGE('',*,*,#199,.F.);
#259=ORIENTED_EDGE('',*,*,#200,.F.);
#260=ORIENTED_EDGE('',*,*,#201,.F.);
#261=ORIENTED_EDGE('',*,*,#202,.T.);
#262=ORIENTED_EDGE('',*,*,#203,.F.);
#263=ORIENTED_EDGE('',*,*,#202,.F.);
#264=ORIENTED_EDGE('',*,*,#204,.T.);
#265=ORIENTED_EDGE('',*,*,#205,.T.);
#266=ORIENTED_EDGE('',*,*,#206,.T.);
#267=ORIENTED_EDGE('',*,*,#198,.T.);
#268=ORIENTED_EDGE('',*,*,#183,.T.);
#269=ORIENTED_EDGE('',*,*,#197,.T.);
#270=ORIENTED_EDGE('',*,*,#205,.F.);
#271=ORIENTED_EDGE('',*,*,#207,.F.);
#272=ORIENTED_EDGE('',*,*,#208,.F.);
#273=ORIENTED_EDGE('',*,*,#209,.F.);
#274=ORIENTED_EDGE('',*,*,#203,.T.);
#275=ORIENTED_EDGE('',*,*,#204,.F.);
#276=ORIENTED_EDGE('',*,*,#196,.T.);
#277=ORIENTED_EDGE('',*,*,#210,.T.);
#278=ORIENTED_EDGE('',*,*,#211,.T.);
#279=ORIENTED_EDGE('',*,*,#212,.F.);
#280=ORIENTED_EDGE('',*,*,#207,.T.);
#281=ORIENTED_EDGE('',*,*,#212,.T.);
#282=ORIENTED_EDGE('',*,*,#213,.T.);
#283=ORIENTED_EDGE('',*,*,#214,.T.);
#284=ORIENTED_EDGE('',*,*,#208,.T.);
#285=ORIENTED_EDGE('',*,*,#213,.F.);
#286=ORIENTED_EDGE('',*,*,#211,.F.);
#287=ORIENTED_EDGE('',*,*,#215,.F.);
#288=ORIENTED_EDGE('',*,*,#216,.F.);
#289=ORIENTED_EDGE('',*,*,#195,.T.);
#290=ORIENTED_EDGE('',*,*,#192,.F.);
#291=ORIENTED_EDGE('',*,*,#194,.F.);
#292=ORIENTED_EDGE('',*,*,#189,.F.);
#293=ORIENTED_EDGE('',*,*,#200,.T.);
#294=ORIENTED_EDGE('',*,*,#217,.F.);
#295=ORIENTED_EDGE('',*,*,#215,.T.);
#296=ORIENTED_EDGE('',*,*,#210,.F.);
#297=ORIENTED_EDGE('',*,*,#201,.T.);
#298=ORIENTED_EDGE('',*,*,#206,.F.);
#299=ORIENTED_EDGE('',*,*,#209,.T.);
#300=ORIENTED_EDGE('',*,*,#214,.F.);
#301=ORIENTED_EDGE('',*,*,#216,.T.);
#302=ORIENTED_EDGE('',*,*,#217,.T.);
#303=ORIENTED_EDGE('',*,*,#199,.T.);
#304=CYLINDRICAL_SURFACE('',#347,2.);
#305=CYLINDRICAL_SURFACE('',#353,2.);
#306=CYLINDRICAL_SURFACE('',#360,2.4585);
#307=ADVANCED_FACE('',(#31),#304,.T.);
#308=ADVANCED_FACE('',(#32),#17,.T.);
#309=ADVANCED_FACE('',(#33),#18,.T.);
#310=ADVANCED_FACE('',(#34),#305,.T.);
#311=ADVANCED_FACE('',(#35),#19,.T.);
#312=ADVANCED_FACE('',(#36),#20,.T.);
#313=ADVANCED_FACE('',(#37),#21,.T.);
#314=ADVANCED_FACE('',(#38),#22,.T.);
#315=ADVANCED_FACE('',(#39),#23,.T.);
#316=ADVANCED_FACE('',(#40),#306,.F.);
#317=ADVANCED_FACE('',(#41),#24,.T.);
#318=ADVANCED_FACE('',(#42,#15),#25,.T.);
#319=ADVANCED_FACE('',(#43),#26,.T.);
#320=ADVANCED_FACE('',(#44),#27,.T.);
#321=ADVANCED_FACE('',(#45),#28,.T.);
#322=ADVANCED_FACE('',(#46,#16),#29,.T.);
#323=ADVANCED_FACE('',(#47),#30,.T.);
#324=CLOSED_SHELL('',(#307,#308,#309,#310,#311,#312,#313,#314,#315,#316,
#317,#318,#319,#320,#321,#322,#323));
#325=DERIVED_UNIT_ELEMENT(#328,1.);
#326=DERIVED_UNIT_ELEMENT(#549,-3.);
#327=DIMENSIONAL_EXPONENTS(1.,0.,0.,0.,0.,0.,0.);
#328=(
CONVERSION_BASED_UNIT('gram',#330)
MASS_UNIT()
NAMED_UNIT(#327)
);
#329=(
MASS_UNIT()
NAMED_UNIT(*)
SI_UNIT(.KILO.,.GRAM.)
);
#330=MASS_MEASURE_WITH_UNIT(MASS_MEASURE(0.001),#329);
#331=DERIVED_UNIT((#325,#326));
#332=MEASURE_REPRESENTATION_ITEM('density measure',
POSITIVE_RATIO_MEASURE(7.85),#331);
#333=PROPERTY_DEFINITION_REPRESENTATION(#338,#335);
#334=PROPERTY_DEFINITION_REPRESENTATION(#339,#336);
#335=REPRESENTATION('material name',(#337),#546);
#336=REPRESENTATION('density',(#332),#546);
#337=DESCRIPTIVE_REPRESENTATION_ITEM('Acciaio S235JR','Acciaio S235JR');
#338=PROPERTY_DEFINITION('material property','material name',#556);
#339=PROPERTY_DEFINITION('material property','density of part',#556);
#340=DATE_TIME_ROLE('creation_date');
#341=APPLIED_DATE_AND_TIME_ASSIGNMENT(#342,#340,(#556));
#342=DATE_AND_TIME(#343,#344);
#343=CALENDAR_DATE(2017,8,9);
#344=LOCAL_TIME(0,0,0.,#345);
#345=COORDINATED_UNIVERSAL_TIME_OFFSET(0,0,.BEHIND.);
#346=AXIS2_PLACEMENT_3D('placement',#455,#370,#371);
#347=AXIS2_PLACEMENT_3D('',#456,#372,#373);
#348=AXIS2_PLACEMENT_3D('',#459,#374,#375);
#349=AXIS2_PLACEMENT_3D('',#463,#377,#378);
#350=AXIS2_PLACEMENT_3D('',#465,#380,#381);
#351=AXIS2_PLACEMENT_3D('',#471,#385,#386);
#352=AXIS2_PLACEMENT_3D('',#478,#390,#391);
#353=AXIS2_PLACEMENT_3D('',#479,#392,#393);
#354=AXIS2_PLACEMENT_3D('',#482,#395,#396);
#355=AXIS2_PLACEMENT_3D('',#483,#397,#398);
#356=AXIS2_PLACEMENT_3D('',#489,#402,#403);
#357=AXIS2_PLACEMENT_3D('',#495,#407,#408);
#358=AXIS2_PLACEMENT_3D('',#497,#410,#411);
#359=AXIS2_PLACEMENT_3D('',#503,#415,#416);
#360=AXIS2_PLACEMENT_3D('',#509,#420,#421);
#361=AXIS2_PLACEMENT_3D('',#511,#422,#423);
#362=AXIS2_PLACEMENT_3D('',#514,#425,#426);
#363=AXIS2_PLACEMENT_3D('',#515,#427,#428);
#364=AXIS2_PLACEMENT_3D('',#521,#432,#433);
#365=AXIS2_PLACEMENT_3D('',#527,#437,#438);
#366=AXIS2_PLACEMENT_3D('',#533,#442,#443);
#367=AXIS2_PLACEMENT_3D('',#537,#446,#447);
#368=AXIS2_PLACEMENT_3D('',#541,#450,#451);
#369=AXIS2_PLACEMENT_3D('',#543,#453,#454);
#370=DIRECTION('axis',(0.,0.,1.));
#371=DIRECTION('refdir',(1.,0.,0.));
#372=DIRECTION('center_axis',(-1.,7.40148683083426E-15,0.));
#373=DIRECTION('ref_axis',(-5.49532360539321E-15,-0.707106781186548,-0.707106781186547));
#374=DIRECTION('center_axis',(1.,2.77555756156289E-16,0.));
#375=DIRECTION('ref_axis',(-5.49532360539321E-15,-0.707106781186548,-0.707106781186547));
#376=DIRECTION('',(1.,-7.40148683083426E-15,0.));
#377=DIRECTION('center_axis',(-1.,-4.85722573273506E-16,0.));
#378=DIRECTION('ref_axis',(-5.49532360539321E-15,-0.707106781186548,-0.707106781186547));
#379=DIRECTION('',(-1.,7.40148683083426E-15,0.));
#380=DIRECTION('center_axis',(-7.40148683083426E-15,-1.,0.));
#381=DIRECTION('ref_axis',(1.,-7.40148683083426E-15,0.));
#382=DIRECTION('',(0.,0.,1.));
#383=DIRECTION('',(1.,-7.40148683083426E-15,0.));
#384=DIRECTION('',(0.,0.,1.));
#385=DIRECTION('center_axis',(1.,4.85722573273506E-16,0.));
#386=DIRECTION('ref_axis',(-4.85722573273506E-16,1.,0.));
#387=DIRECTION('',(4.85722573273506E-16,-1.,0.));
#388=DIRECTION('',(0.,0.,-1.));
#389=DIRECTION('',(-4.85722573273506E-16,1.,0.));
#390=DIRECTION('center_axis',(-1.,-4.85722573273506E-16,0.));
#391=DIRECTION('ref_axis',(-5.49532360539321E-15,-0.707106781186548,0.707106781186547));
#392=DIRECTION('center_axis',(1.,-7.40148683083426E-15,0.));
#393=DIRECTION('ref_axis',(-5.49532360539321E-15,-0.707106781186548,0.707106781186547));
#394=DIRECTION('',(-1.,7.40148683083426E-15,0.));
#395=DIRECTION('center_axis',(1.,2.77555756156289E-16,0.));
#396=DIRECTION('ref_axis',(-5.49532360539321E-15,-0.707106781186548,0.707106781186547));
#397=DIRECTION('center_axis',(0.,0.,1.));
#398=DIRECTION('ref_axis',(1.,0.,0.));
#399=DIRECTION('',(3.70074341541719E-16,-1.,0.));
#400=DIRECTION('',(-1.,7.40148683083442E-15,0.));
#401=DIRECTION('',(2.77555756156289E-16,-1.,0.));
#402=DIRECTION('center_axis',(0.,0.,-1.));
#403=DIRECTION('ref_axis',(-1.,0.,0.));
#404=DIRECTION('',(-2.77555756156289E-16,1.,0.));
#405=DIRECTION('',(1.,-7.40148683083442E-15,0.));
#406=DIRECTION('',(-3.70074341541719E-16,1.,0.));
#407=DIRECTION('center_axis',(-1.,-2.77555756156289E-16,0.));
#408=DIRECTION('ref_axis',(2.77555756156289E-16,-1.,0.));
#409=DIRECTION('',(0.,0.,-1.));
#410=DIRECTION('center_axis',(-1.,-3.70074341541719E-16,0.));
#411=DIRECTION('ref_axis',(3.70074341541719E-16,-1.,0.));
#412=DIRECTION('',(0.,0.,1.));
#413=DIRECTION('',(-3.70074341541719E-16,1.,0.));
#414=DIRECTION('',(0.,0.,-1.));
#415=DIRECTION('center_axis',(-1.,-3.70074341541719E-16,0.));
#416=DIRECTION('ref_axis',(3.70074341541719E-16,-1.,0.));
#417=DIRECTION('',(0.,0.,-1.));
#418=DIRECTION('',(3.70074341541719E-16,-1.,0.));
#419=DIRECTION('',(0.,0.,1.));
#420=DIRECTION('center_axis',(-3.41607084500048E-16,1.,0.));
#421=DIRECTION('ref_axis',(-1.,-3.41607084500048E-16,0.));
#422=DIRECTION('center_axis',(3.41607084500048E-16,-1.,0.));
#423=DIRECTION('ref_axis',(-1.,-3.41607084500048E-16,0.));
#424=DIRECTION('',(3.41607084500048E-16,-1.,0.));
#425=DIRECTION('center_axis',(-3.06161699786838E-16,1.,0.));
#426=DIRECTION('ref_axis',(-1.,-3.41607084500048E-16,0.));
#427=DIRECTION('center_axis',(-0.707106781186547,-0.707106781186548,0.));
#428=DIRECTION('ref_axis',(0.,0.,1.));
#429=DIRECTION('',(0.707106781186548,-0.707106781186547,0.));
#430=DIRECTION('',(0.,0.,1.));
#431=DIRECTION('',(-0.707106781186548,0.707106781186547,0.));
#432=DIRECTION('center_axis',(3.06161699786838E-16,-1.,0.));
#433=DIRECTION('ref_axis',(1.,3.06161699786838E-16,0.));
#434=DIRECTION('',(-1.,-3.06161699786838E-16,0.));
#435=DIRECTION('',(0.,0.,-1.));
#436=DIRECTION('',(1.,3.06161699786838E-16,0.));
#437=DIRECTION('center_axis',(0.,0.,-1.));
#438=DIRECTION('ref_axis',(-1.,0.,0.));
#439=DIRECTION('',(1.,3.41607084500048E-16,0.));
#440=DIRECTION('',(3.70074341541719E-16,-1.,0.));
#441=DIRECTION('',(0.707106781186547,0.707106781186548,0.));
#442=DIRECTION('center_axis',(0.707106781186548,-0.707106781186547,0.));
#443=DIRECTION('ref_axis',(0.,0.,-1.));
#444=DIRECTION('',(0.,0.,1.));
#445=DIRECTION('',(-0.707106781186547,-0.707106781186548,0.));
#446=DIRECTION('center_axis',(1.,3.70074341541719E-16,0.));
#447=DIRECTION('ref_axis',(-3.70074341541719E-16,1.,0.));
#448=DIRECTION('',(0.,0.,-1.));
#449=DIRECTION('',(-3.70074341541719E-16,1.,0.));
#450=DIRECTION('center_axis',(-3.41607084500048E-16,1.,0.));
#451=DIRECTION('ref_axis',(-1.,-3.41607084500048E-16,0.));
#452=DIRECTION('',(-1.,-3.41607084500048E-16,0.));
#453=DIRECTION('center_axis',(0.,0.,1.));
#454=DIRECTION('ref_axis',(1.,0.,0.));
#455=CARTESIAN_POINT('',(0.,0.,0.));
#456=CARTESIAN_POINT('Origin',(-6.61250000000001,-8.,-6.));
#457=CARTESIAN_POINT('',(-6.65,-10.,-6.));
#458=CARTESIAN_POINT('',(-6.65,-8.,-8.));
#459=CARTESIAN_POINT('Origin',(-6.65000000000011,-8.,-6.));
#460=CARTESIAN_POINT('',(-6.5,-8.,-8.));
#461=CARTESIAN_POINT('',(-6.61250000000001,-8.,-8.));
#462=CARTESIAN_POINT('',(-6.49999999999999,-10.,-6.));
#463=CARTESIAN_POINT('Origin',(-6.49999999999998,-8.,-6.));
#464=CARTESIAN_POINT('',(-6.61250000000003,-10.,-6.));
#465=CARTESIAN_POINT('Origin',(-6.65,-10.,0.));
#466=CARTESIAN_POINT('',(-6.49999999999999,-10.,6.));
#467=CARTESIAN_POINT('',(-6.49999999999999,-10.,0.));
#468=CARTESIAN_POINT('',(-6.65,-10.,6.));
#469=CARTESIAN_POINT('',(-6.61250000000003,-10.,6.));
#470=CARTESIAN_POINT('',(-6.65,-10.,0.));
#471=CARTESIAN_POINT('Origin',(-6.49999999999999,-10.,0.));
#472=CARTESIAN_POINT('',(-6.5,1.5,-8.));
#473=CARTESIAN_POINT('',(-6.49999999999999,-10.,-8.));
#474=CARTESIAN_POINT('',(-6.5,1.5,8.));
#475=CARTESIAN_POINT('',(-6.5,1.5,0.));
#476=CARTESIAN_POINT('',(-6.5,-8.,8.));
#477=CARTESIAN_POINT('',(-6.49999999999999,-10.,8.));
#478=CARTESIAN_POINT('Origin',(-6.49999999999998,-8.,6.));
#479=CARTESIAN_POINT('Origin',(-6.61250000000001,-8.,6.));
#480=CARTESIAN_POINT('',(-6.65,-8.,8.));
#481=CARTESIAN_POINT('',(-6.61250000000001,-8.,8.));
#482=CARTESIAN_POINT('Origin',(-6.65000000000011,-8.,6.));
#483=CARTESIAN_POINT('Origin',(-6.575,-2.,8.));
#484=CARTESIAN_POINT('',(-6.5,6.,8.));
#485=CARTESIAN_POINT('',(-6.5,2.,8.));
#486=CARTESIAN_POINT('',(-6.65,6.,8.));
#487=CARTESIAN_POINT('',(-6.5,6.,8.));
#488=CARTESIAN_POINT('',(-6.65,6.,8.));
#489=CARTESIAN_POINT('Origin',(-6.575,-2.,-8.));
#490=CARTESIAN_POINT('',(-6.65,6.,-8.));
#491=CARTESIAN_POINT('',(-6.65,6.,-8.));
#492=CARTESIAN_POINT('',(-6.5,6.,-8.));
#493=CARTESIAN_POINT('',(-6.5,6.,-8.));
#494=CARTESIAN_POINT('',(-6.5,2.,-8.));
#495=CARTESIAN_POINT('Origin',(-6.65,6.,0.));
#496=CARTESIAN_POINT('',(-6.65,6.,0.));
#497=CARTESIAN_POINT('Origin',(-6.5,6.,0.));
#498=CARTESIAN_POINT('',(-6.5,6.,-10.));
#499=CARTESIAN_POINT('',(-6.5,6.,0.));
#500=CARTESIAN_POINT('',(-6.5,1.5,-10.));
#501=CARTESIAN_POINT('',(-6.5,-5.55111512312578E-16,-10.));
#502=CARTESIAN_POINT('',(-6.5,1.5,0.));
#503=CARTESIAN_POINT('Origin',(-6.5,6.,0.));
#504=CARTESIAN_POINT('',(-6.5,1.5,10.));
#505=CARTESIAN_POINT('',(-6.5,1.5,0.));
#506=CARTESIAN_POINT('',(-6.5,6.,10.));
#507=CARTESIAN_POINT('',(-6.5,-5.55111512312578E-16,10.));
#508=CARTESIAN_POINT('',(-6.5,6.,0.));
#509=CARTESIAN_POINT('Origin',(-1.19562479575017E-15,3.,0.));
#510=CARTESIAN_POINT('',(2.4585,6.,-3.01079415570377E-16));
#511=CARTESIAN_POINT('Origin',(-2.22044604925031E-15,6.,0.));
#512=CARTESIAN_POINT('',(2.4585,2.77555756156289E-15,-3.01079415570377E-16));
#513=CARTESIAN_POINT('',(2.4585,3.,-3.01079415570377E-16));
#514=CARTESIAN_POINT('Origin',(-1.70803542250024E-16,1.66533453693773E-15,
0.));
#515=CARTESIAN_POINT('Origin',(-5.75,0.75,0.));
#516=CARTESIAN_POINT('',(-5.,-9.58689626323205E-17,-10.));
#517=CARTESIAN_POINT('',(-4.875,-0.125000000000001,-10.));
#518=CARTESIAN_POINT('',(-5.,-9.58689626323205E-17,10.));
#519=CARTESIAN_POINT('',(-5.,0.,0.));
#520=CARTESIAN_POINT('',(-4.875,-0.125000000000001,10.));
#521=CARTESIAN_POINT('Origin',(-6.5,-5.55111512312578E-16,0.));
#522=CARTESIAN_POINT('',(5.,2.96574803523606E-15,-10.));
#523=CARTESIAN_POINT('',(6.5,3.42499058491632E-15,-10.));
#524=CARTESIAN_POINT('',(5.,2.96574803523606E-15,10.));
#525=CARTESIAN_POINT('',(5.,3.05311331771918E-15,0.));
#526=CARTESIAN_POINT('',(6.5,3.42499058491632E-15,10.));
#527=CARTESIAN_POINT('Origin',(-1.11022302462516E-15,3.,-10.));
#528=CARTESIAN_POINT('',(6.5,6.00000000000001,-10.));
#529=CARTESIAN_POINT('',(-6.5,6.,-10.));
#530=CARTESIAN_POINT('',(6.5,1.5,-10.));
#531=CARTESIAN_POINT('',(6.5,6.00000000000001,-10.));
#532=CARTESIAN_POINT('',(4.875,-0.124999999999997,-10.));
#533=CARTESIAN_POINT('Origin',(5.75,0.750000000000003,0.));
#534=CARTESIAN_POINT('',(6.5,1.5,10.));
#535=CARTESIAN_POINT('',(6.5,1.5,0.));
#536=CARTESIAN_POINT('',(4.875,-0.124999999999997,10.));
#537=CARTESIAN_POINT('Origin',(6.5,3.33066907387547E-15,0.));
#538=CARTESIAN_POINT('',(6.5,6.00000000000001,10.));
#539=CARTESIAN_POINT('',(6.5,6.00000000000001,0.));
#540=CARTESIAN_POINT('',(6.5,6.00000000000001,10.));
#541=CARTESIAN_POINT('Origin',(6.5,6.00000000000001,0.));
#542=CARTESIAN_POINT('',(-6.5,6.,10.));
#543=CARTESIAN_POINT('Origin',(-1.11022302462516E-15,3.,10.));
#544=UNCERTAINTY_MEASURE_WITH_UNIT(LENGTH_MEASURE(0.01),#548,
'DISTANCE_ACCURACY_VALUE',
'Maximum model space distance between geometric entities at asserted c
onnectivities');
#545=UNCERTAINTY_MEASURE_WITH_UNIT(LENGTH_MEASURE(0.01),#548,
'DISTANCE_ACCURACY_VALUE',
'Maximum model space distance between geometric entities at asserted c
onnectivities');
#546=(
GEOMETRIC_REPRESENTATION_CONTEXT(3)
GLOBAL_UNCERTAINTY_ASSIGNED_CONTEXT((#544))
GLOBAL_UNIT_ASSIGNED_CONTEXT((#548,#550,#551))
REPRESENTATION_CONTEXT('','3D')
);
#547=(
GEOMETRIC_REPRESENTATION_CONTEXT(3)
GLOBAL_UNCERTAINTY_ASSIGNED_CONTEXT((#545))
GLOBAL_UNIT_ASSIGNED_CONTEXT((#548,#550,#551))
REPRESENTATION_CONTEXT('','3D')
);
#548=(
LENGTH_UNIT()
NAMED_UNIT(*)
SI_UNIT(.MILLI.,.METRE.)
);
#549=(
LENGTH_UNIT()
NAMED_UNIT(*)
SI_UNIT(.CENTI.,.METRE.)
);
#550=(
NAMED_UNIT(*)
PLANE_ANGLE_UNIT()
SI_UNIT($,.RADIAN.)
);
#551=(
NAMED_UNIT(*)
SI_UNIT($,.STERADIAN.)
SOLID_ANGLE_UNIT()
);
#552=SHAPE_DEFINITION_REPRESENTATION(#553,#554);
#553=PRODUCT_DEFINITION_SHAPE('',$,#556);
#554=SHAPE_REPRESENTATION('',(#346),#546);
#555=PRODUCT_DEFINITION_CONTEXT('part definition',#560,'design');
#556=PRODUCT_DEFINITION('DDDCU0000036','DDDCU0000036',#557,#555);
#557=PRODUCT_DEFINITION_FORMATION('A',$,#562);
#558=PRODUCT_RELATED_PRODUCT_CATEGORY('DDDCU0000036','DDDCU0000036',(#562));
#559=APPLICATION_PROTOCOL_DEFINITION('international standard',
'automotive_design',2009,#560);
#560=APPLICATION_CONTEXT(
'Core Data for Automotive Mechanical Design Process');
#561=PRODUCT_CONTEXT('part definition',#560,'mechanical');
#562=PRODUCT('DDDCU0000036','DDDCU0000036',
'CURSORE M6 13X20 CAVA8 CON MOLLA',(#561));
#563=PRESENTATION_STYLE_ASSIGNMENT((#564));
#564=SURFACE_STYLE_USAGE(.BOTH.,#567);
#565=SURFACE_STYLE_RENDERING_WITH_PROPERTIES($,#571,(#566));
#566=SURFACE_STYLE_TRANSPARENT(0.);
#567=SURFACE_SIDE_STYLE('',(#568,#565));
#568=SURFACE_STYLE_FILL_AREA(#569);
#569=FILL_AREA_STYLE('',(#570));
#570=FILL_AREA_STYLE_COLOUR('',#571);
#571=COLOUR_RGB('',0.83921568627451,0.886274509803922,0.854901960784314);
ENDSEC;
END-ISO-10303-21;
