ISO-10303-21;
HEADER;
/****************************************************************
 * Generated by software with PDE/Lib inside                    *
 * PDElib Version v4.4, created Mon 02/23/2004                  *
 * International Technegroup Inc. (www.iti-oh.com)              *
 ****************************************************************/
FILE_DESCRIPTION(('STEP AP203'),'2;1');
FILE_NAME('26.062.00.stp','2011-02-14T09:56:25',(''),(''),'2009.3.110','THINKDESIGN','');
FILE_SCHEMA(('CONFIG_CONTROL_DESIGN'));
ENDSEC;
DATA;
#2=CARTESIAN_POINT('',(0.0,-6.123234E-025,-1.000000E-008));
#3=DIRECTION('',(0.0,6.123234E-017,1.0));
#4=DIRECTION('',(-1.0,0.0,0.0));
#5=AXIS2_PLACEMENT_3D('',#2,#3,#4);
#6=CYLINDRICAL_SURFACE('',#5,2.500000000000001);
#7=CARTESIAN_POINT('',(0.0,-2.500000000000000,1.530808E-016));
#8=VERTEX_POINT('',#7);
#9=CARTESIAN_POINT('',(0.0,2.500000000000000,-1.530808E-016));
#10=VERTEX_POINT('',#9);
#11=CARTESIAN_POINT('',(0.0,0.0,0.0));
#12=DIRECTION('',(0.0,6.123234E-017,1.0));
#13=DIRECTION('',(0.0,1.0,-6.123234E-017));
#14=AXIS2_PLACEMENT_3D('',#11,#12,#13);
#15=CIRCLE('',#14,2.500000000000001);
#16=EDGE_CURVE('',#8,#10,#15,.T.);
#17=ORIENTED_EDGE('',*,*,#16,.F.);
#18=CARTESIAN_POINT('',(0.0,-2.500000000000000,4.999999999999988));
#19=VERTEX_POINT('',#18);
#20=CARTESIAN_POINT('',(0.0,-2.500000000000000,1.530808E-016));
#21=DIRECTION('',(0.0,0.0,1.0));
#22=VECTOR('',#21,4.999999999999986);
#23=LINE('',#20,#22);
#24=EDGE_CURVE('',#8,#19,#23,.T.);
#25=ORIENTED_EDGE('',*,*,#24,.T.);
#26=CARTESIAN_POINT('',(0.0,2.500000000000000,4.999999999999988));
#27=VERTEX_POINT('',#26);
#28=CARTESIAN_POINT('',(0.0,3.061617E-016,4.999999999999988));
#29=DIRECTION('',(0.0,6.123234E-017,1.0));
#30=DIRECTION('',(0.0,-1.0,6.123234E-017));
#31=AXIS2_PLACEMENT_3D('',#28,#29,#30);
#32=CIRCLE('',#31,2.500000000000001);
#33=EDGE_CURVE('',#19,#27,#32,.T.);
#34=ORIENTED_EDGE('',*,*,#33,.T.);
#35=CARTESIAN_POINT('',(0.0,2.500000000000000,-1.530808E-016));
#36=DIRECTION('',(0.0,0.0,1.0));
#37=VECTOR('',#36,4.999999999999986);
#38=LINE('',#35,#37);
#39=EDGE_CURVE('',#10,#27,#38,.T.);
#40=ORIENTED_EDGE('',*,*,#39,.F.);
#41=EDGE_LOOP('',(#17,#25,#34,#40));
#42=FACE_OUTER_BOUND('',#41,.T.);
#43=ADVANCED_FACE('',(#42),#6,.F.);
#44=CARTESIAN_POINT('',(-4.950000000000006,-11.0,-1.353730E-014));
#45=DIRECTION('',(0.0,0.0,-1.0));
#46=DIRECTION('',(0.0,1.0,0.0));
#47=AXIS2_PLACEMENT_3D('',#44,#45,#46);
#48=PLANE('',#47);
#49=CARTESIAN_POINT('',(-4.500000000000007,-10.0,-1.359853E-014));
#50=VERTEX_POINT('',#49);
#51=CARTESIAN_POINT('',(4.500000000000000,-10.0,-1.359853E-014));
#52=VERTEX_POINT('',#51);
#53=CARTESIAN_POINT('',(-4.500000000000007,-10.0,-1.359853E-014));
#54=DIRECTION('',(1.0,0.0,0.0));
#55=VECTOR('',#54,9.000000000000007);
#56=LINE('',#53,#55);
#57=EDGE_CURVE('',#50,#52,#56,.T.);
#58=ORIENTED_EDGE('',*,*,#57,.F.);
#59=CARTESIAN_POINT('',(-4.500000000000007,10.0,-1.482318E-014));
#60=VERTEX_POINT('',#59);
#61=CARTESIAN_POINT('',(-4.500000000000007,-10.0,-1.359853E-014));
#62=DIRECTION('',(0.0,1.0,0.0));
#63=VECTOR('',#62,20.0);
#64=LINE('',#61,#63);
#65=EDGE_CURVE('',#50,#60,#64,.T.);
#66=ORIENTED_EDGE('',*,*,#65,.T.);
#67=CARTESIAN_POINT('',(4.500000000000000,10.0,-1.482318E-014));
#68=VERTEX_POINT('',#67);
#69=CARTESIAN_POINT('',(-4.500000000000007,10.0,-1.482318E-014));
#70=DIRECTION('',(1.0,0.0,0.0));
#71=VECTOR('',#70,9.000000000000007);
#72=LINE('',#69,#71);
#73=EDGE_CURVE('',#60,#68,#72,.T.);
#74=ORIENTED_EDGE('',*,*,#73,.T.);
#75=CARTESIAN_POINT('',(4.499999999999996,10.0,-1.482318E-014));
#76=DIRECTION('',(0.0,-1.0,0.0));
#77=VECTOR('',#76,20.0);
#78=LINE('',#75,#77);
#79=EDGE_CURVE('',#68,#52,#78,.T.);
#80=ORIENTED_EDGE('',*,*,#79,.T.);
#81=EDGE_LOOP('',(#58,#66,#74,#80));
#82=FACE_OUTER_BOUND('',#81,.T.);
#83=CARTESIAN_POINT('',(0.0,0.0,0.0));
#84=DIRECTION('',(0.0,6.123234E-017,1.0));
#85=DIRECTION('',(0.0,1.0,-6.123234E-017));
#86=AXIS2_PLACEMENT_3D('',#83,#84,#85);
#87=CIRCLE('',#86,2.500000000000001);
#88=EDGE_CURVE('',#10,#8,#87,.T.);
#89=ORIENTED_EDGE('',*,*,#88,.T.);
#90=ORIENTED_EDGE('',*,*,#16,.T.);
#91=EDGE_LOOP('',(#89,#90));
#92=FACE_BOUND('',#91,.T.);
#93=ADVANCED_FACE('',(#82,#92),#48,.T.);
#94=CARTESIAN_POINT('',(6.500000000000004,-11.0,1.850000000000002));
#95=DIRECTION('',(1.0,0.0,0.0));
#96=DIRECTION('',(0.0,1.0,0.0));
#97=AXIS2_PLACEMENT_3D('',#94,#95,#96);
#98=PLANE('',#97);
#99=CARTESIAN_POINT('',(6.500000000000004,-10.0,2.000000000000000));
#100=VERTEX_POINT('',#99);
#101=CARTESIAN_POINT('',(6.500000000000004,-10.0,4.999999999999989));
#102=VERTEX_POINT('',#101);
#103=CARTESIAN_POINT('',(6.500000000000004,-10.0,2.000000000000000));
#104=DIRECTION('',(0.0,0.0,1.0));
#105=VECTOR('',#104,2.999999999999987);
#106=LINE('',#103,#105);
#107=EDGE_CURVE('',#100,#102,#106,.T.);
#108=ORIENTED_EDGE('',*,*,#107,.F.);
#109=CARTESIAN_POINT('',(6.500000000000004,10.0,1.999999999999999));
#110=VERTEX_POINT('',#109);
#111=CARTESIAN_POINT('',(6.500000000000004,-10.0,2.000000000000000));
#112=DIRECTION('',(0.0,1.0,0.0));
#113=VECTOR('',#112,20.0);
#114=LINE('',#111,#113);
#115=EDGE_CURVE('',#100,#110,#114,.T.);
#116=ORIENTED_EDGE('',*,*,#115,.T.);
#117=CARTESIAN_POINT('',(6.500000000000004,10.0,4.999999999999987));
#118=VERTEX_POINT('',#117);
#119=CARTESIAN_POINT('',(6.500000000000004,10.0,1.999999999999999));
#120=DIRECTION('',(0.0,0.0,1.0));
#121=VECTOR('',#120,2.999999999999988);
#122=LINE('',#119,#121);
#123=EDGE_CURVE('',#110,#118,#122,.T.);
#124=ORIENTED_EDGE('',*,*,#123,.T.);
#125=CARTESIAN_POINT('',(6.500000000000004,10.0,4.999999999999987));
#126=DIRECTION('',(0.0,-1.0,0.0));
#127=VECTOR('',#126,20.0);
#128=LINE('',#125,#127);
#129=EDGE_CURVE('',#118,#102,#128,.T.);
#130=ORIENTED_EDGE('',*,*,#129,.T.);
#131=EDGE_LOOP('',(#108,#116,#124,#130));
#132=FACE_OUTER_BOUND('',#131,.T.);
#133=ADVANCED_FACE('',(#132),#98,.T.);
#134=CARTESIAN_POINT('',(-7.150000000000006,11.0,4.999999999999987));
#135=DIRECTION('',(0.0,0.0,1.0));
#136=DIRECTION('',(0.0,-1.0,0.0));
#137=AXIS2_PLACEMENT_3D('',#134,#135,#136);
#138=PLANE('',#137);
#139=CARTESIAN_POINT('',(-6.500000000000007,-10.0,4.999999999999989));
#140=VERTEX_POINT('',#139);
#141=CARTESIAN_POINT('',(6.500000000000004,-10.0,4.999999999999989));
#142=DIRECTION('',(-1.0,0.0,0.0));
#143=VECTOR('',#142,13.000000000000011);
#144=LINE('',#141,#143);
#145=EDGE_CURVE('',#102,#140,#144,.T.);
#146=ORIENTED_EDGE('',*,*,#145,.F.);
#147=ORIENTED_EDGE('',*,*,#129,.F.);
#148=CARTESIAN_POINT('',(-6.500000000000007,10.0,4.999999999999987));
#149=VERTEX_POINT('',#148);
#150=CARTESIAN_POINT('',(6.500000000000004,10.0,4.999999999999987));
#151=DIRECTION('',(-1.0,0.0,0.0));
#152=VECTOR('',#151,13.000000000000011);
#153=LINE('',#150,#152);
#154=EDGE_CURVE('',#118,#149,#153,.T.);
#155=ORIENTED_EDGE('',*,*,#154,.T.);
#156=CARTESIAN_POINT('',(-6.500000000000007,10.0,4.999999999999987));
#157=DIRECTION('',(0.0,-1.0,0.0));
#158=VECTOR('',#157,20.0);
#159=LINE('',#156,#158);
#160=EDGE_CURVE('',#149,#140,#159,.T.);
#161=ORIENTED_EDGE('',*,*,#160,.T.);
#162=EDGE_LOOP('',(#146,#147,#155,#161));
#163=FACE_OUTER_BOUND('',#162,.T.);
#164=CARTESIAN_POINT('',(0.0,3.061617E-016,4.999999999999988));
#165=DIRECTION('',(0.0,6.123234E-017,1.0));
#166=DIRECTION('',(0.0,-1.0,6.123234E-017));
#167=AXIS2_PLACEMENT_3D('',#164,#165,#166);
#168=CIRCLE('',#167,2.500000000000001);
#169=EDGE_CURVE('',#27,#19,#168,.T.);
#170=ORIENTED_EDGE('',*,*,#169,.F.);
#171=ORIENTED_EDGE('',*,*,#33,.F.);
#172=EDGE_LOOP('',(#170,#171));
#173=FACE_BOUND('',#172,.T.);
#174=ADVANCED_FACE('',(#163,#173),#138,.T.);
#175=CARTESIAN_POINT('',(-6.500000000000007,11.0,1.850000000000001));
#176=DIRECTION('',(-1.0,0.0,0.0));
#177=DIRECTION('',(0.0,-1.0,0.0));
#178=AXIS2_PLACEMENT_3D('',#175,#176,#177);
#179=PLANE('',#178);
#180=CARTESIAN_POINT('',(-6.500000000000007,10.0,1.999999999999999));
#181=VERTEX_POINT('',#180);
#182=CARTESIAN_POINT('',(-6.500000000000007,10.0,4.999999999999987));
#183=DIRECTION('',(0.0,0.0,-1.0));
#184=VECTOR('',#183,2.999999999999988);
#185=LINE('',#182,#184);
#186=EDGE_CURVE('',#149,#181,#185,.T.);
#187=ORIENTED_EDGE('',*,*,#186,.T.);
#188=CARTESIAN_POINT('',(-6.500000000000007,-10.0,2.000000000000000));
#189=VERTEX_POINT('',#188);
#190=CARTESIAN_POINT('',(-6.500000000000007,10.0,1.999999999999999));
#191=DIRECTION('',(0.0,-1.0,0.0));
#192=VECTOR('',#191,20.0);
#193=LINE('',#190,#192);
#194=EDGE_CURVE('',#181,#189,#193,.T.);
#195=ORIENTED_EDGE('',*,*,#194,.T.);
#196=CARTESIAN_POINT('',(-6.500000000000007,-10.0,4.999999999999989));
#197=DIRECTION('',(0.0,0.0,-1.0));
#198=VECTOR('',#197,2.999999999999988);
#199=LINE('',#196,#198);
#200=EDGE_CURVE('',#140,#189,#199,.T.);
#201=ORIENTED_EDGE('',*,*,#200,.F.);
#202=ORIENTED_EDGE('',*,*,#160,.F.);
#203=EDGE_LOOP('',(#187,#195,#201,#202));
#204=FACE_OUTER_BOUND('',#203,.T.);
#205=ADVANCED_FACE('',(#204),#179,.T.);
#206=CARTESIAN_POINT('',(-7.150000000000006,10.0,-0.250000000000015));
#207=DIRECTION('',(0.0,-1.0,0.0));
#208=DIRECTION('',(1.0,0.0,0.0));
#209=AXIS2_PLACEMENT_3D('',#206,#207,#208);
#210=PLANE('',#209);
#211=ORIENTED_EDGE('',*,*,#73,.F.);
#212=CARTESIAN_POINT('',(-4.500000000000000,10.0,-7.717751E-015));
#213=DIRECTION('',(-0.707106781186548,0.0,0.707106781186548));
#214=VECTOR('',#213,2.828427124746200);
#215=LINE('',#212,#214);
#216=EDGE_CURVE('',#60,#181,#215,.T.);
#217=ORIENTED_EDGE('',*,*,#216,.T.);
#218=ORIENTED_EDGE('',*,*,#186,.F.);
#219=ORIENTED_EDGE('',*,*,#154,.F.);
#220=ORIENTED_EDGE('',*,*,#123,.F.);
#221=CARTESIAN_POINT('',(6.500000000000007,10.0,1.999999999999996));
#222=DIRECTION('',(-0.707106781186547,0.0,-0.707106781186548));
#223=VECTOR('',#222,2.828427124746204);
#224=LINE('',#221,#223);
#225=EDGE_CURVE('',#110,#68,#224,.T.);
#226=ORIENTED_EDGE('',*,*,#225,.T.);
#227=EDGE_LOOP('',(#211,#217,#218,#219,#220,#226));
#228=FACE_OUTER_BOUND('',#227,.T.);
#229=ADVANCED_FACE('',(#228),#210,.F.);
#230=CARTESIAN_POINT('',(-7.150000000000006,-10.0,-0.250000000000014));
#231=DIRECTION('',(0.0,-1.0,0.0));
#232=DIRECTION('',(1.0,0.0,0.0));
#233=AXIS2_PLACEMENT_3D('',#230,#231,#232);
#234=PLANE('',#233);
#235=ORIENTED_EDGE('',*,*,#200,.T.);
#236=CARTESIAN_POINT('',(-6.500000000000007,-10.0,2.000000000000000));
#237=DIRECTION('',(0.707106781186548,0.0,-0.707106781186548));
#238=VECTOR('',#237,2.828427124746200);
#239=LINE('',#236,#238);
#240=EDGE_CURVE('',#189,#50,#239,.T.);
#241=ORIENTED_EDGE('',*,*,#240,.T.);
#242=ORIENTED_EDGE('',*,*,#57,.T.);
#243=CARTESIAN_POINT('',(4.499999999999998,-10.0,-1.359853E-014));
#244=DIRECTION('',(0.707106781186547,0.0,0.707106781186548));
#245=VECTOR('',#244,2.828427124746204);
#246=LINE('',#243,#245);
#247=EDGE_CURVE('',#52,#100,#246,.T.);
#248=ORIENTED_EDGE('',*,*,#247,.T.);
#249=ORIENTED_EDGE('',*,*,#107,.T.);
#250=ORIENTED_EDGE('',*,*,#145,.T.);
#251=EDGE_LOOP('',(#235,#241,#242,#248,#249,#250));
#252=FACE_OUTER_BOUND('',#251,.T.);
#253=ADVANCED_FACE('',(#252),#234,.T.);
#254=CARTESIAN_POINT('',(0.0,-6.123234E-025,-1.000000E-008));
#255=DIRECTION('',(0.0,6.123234E-017,1.0));
#256=DIRECTION('',(1.0,0.0,0.0));
#257=AXIS2_PLACEMENT_3D('',#254,#255,#256);
#258=CYLINDRICAL_SURFACE('',#257,2.500000000000001);
#259=ORIENTED_EDGE('',*,*,#24,.F.);
#260=ORIENTED_EDGE('',*,*,#88,.F.);
#261=ORIENTED_EDGE('',*,*,#39,.T.);
#262=ORIENTED_EDGE('',*,*,#169,.T.);
#263=EDGE_LOOP('',(#259,#260,#261,#262));
#264=FACE_OUTER_BOUND('',#263,.T.);
#265=ADVANCED_FACE('',(#264),#258,.F.);
#266=CARTESIAN_POINT('',(-4.400000000000002,11.0,-0.100000000000009));
#267=DIRECTION('',(0.707106781186548,4.329780E-017,0.707106781186547));
#268=DIRECTION('',(-0.707106781186547,4.329780E-017,0.707106781186548));
#269=AXIS2_PLACEMENT_3D('',#266,#267,#268);
#270=PLANE('',#269);
#271=ORIENTED_EDGE('',*,*,#216,.F.);
#272=ORIENTED_EDGE('',*,*,#65,.F.);
#273=ORIENTED_EDGE('',*,*,#240,.F.);
#274=ORIENTED_EDGE('',*,*,#194,.F.);
#275=EDGE_LOOP('',(#271,#272,#273,#274));
#276=FACE_OUTER_BOUND('',#275,.T.);
#277=ADVANCED_FACE('',(#276),#270,.F.);
#278=CARTESIAN_POINT('',(6.600000000000007,11.0,2.099999999999997));
#279=DIRECTION('',(-0.707106781186548,4.329780E-017,0.707106781186547));
#280=DIRECTION('',(-0.707106781186547,-4.329780E-017,-0.707106781186548));
#281=AXIS2_PLACEMENT_3D('',#278,#279,#280);
#282=PLANE('',#281);
#283=ORIENTED_EDGE('',*,*,#225,.F.);
#284=ORIENTED_EDGE('',*,*,#115,.F.);
#285=ORIENTED_EDGE('',*,*,#247,.F.);
#286=ORIENTED_EDGE('',*,*,#79,.F.);
#287=EDGE_LOOP('',(#283,#284,#285,#286));
#288=FACE_OUTER_BOUND('',#287,.T.);
#289=ADVANCED_FACE('',(#288),#282,.F.);
#290=CLOSED_SHELL('',(#43,#93,#133,#174,#205,#229,#253,#265,#277,#289));
#291=MANIFOLD_SOLID_BREP('Importato1',#290);
#297=(NAMED_UNIT(*)PLANE_ANGLE_UNIT()SI_UNIT($,.RADIAN.));
#298=DIMENSIONAL_EXPONENTS(0.0,0.0,0.0,0.0,0.0,0.0,0.0);
#299=PLANE_ANGLE_MEASURE_WITH_UNIT(PLANE_ANGLE_MEASURE(0.017453292500000),#297);
#303=(CONVERSION_BASED_UNIT('DEGREE',#299)NAMED_UNIT(#298)PLANE_ANGLE_UNIT());
#307=(NAMED_UNIT(*)SI_UNIT($,.STERADIAN.)SOLID_ANGLE_UNIT());
#311=(LENGTH_UNIT()NAMED_UNIT(*)SI_UNIT(.MILLI.,.METRE.));
#313=UNCERTAINTY_MEASURE_WITH_UNIT(LENGTH_MEASURE(0.001000000000000),#311,'DISTANCE_ACCURACY_VALUE','');
#315=(GEOMETRIC_REPRESENTATION_CONTEXT(3)GLOBAL_UNCERTAINTY_ASSIGNED_CONTEXT((#313))GLOBAL_UNIT_ASSIGNED_CONTEXT((#303,#307,#311))REPRESENTATION_CONTEXT('thinkdesign','2009.3.110'));
#316=ADVANCED_BREP_SHAPE_REPRESENTATION('',(#291),#315);
#317=APPLICATION_CONTEXT('configuration controlled 3D designs of mechanical parts and assemblies');
#318=APPLICATION_PROTOCOL_DEFINITION('International Standard','config_control_design',1995,#317);
#319=MECHANICAL_CONTEXT('None',#317,'mechanical');
#320=PRODUCT('None','None','None',(#319));
#321=PRODUCT_RELATED_PRODUCT_CATEGORY('detail',$,(#320));
#322=PRODUCT_CATEGORY('part',$);
#323=PRODUCT_CATEGORY_RELATIONSHIP('None','None',#322,#321);
#324=PERSON('PERSON1','None','None',$,$,$);
#325=ORGANIZATION('','None','None');
#326=PERSON_AND_ORGANIZATION(#324,#325);
#327=PERSON_AND_ORGANIZATION_ROLE('design_owner');
#328=CC_DESIGN_PERSON_AND_ORGANIZATION_ASSIGNMENT(#326,#327,(#320));
#329=PRODUCT_DEFINITION_FORMATION_WITH_SPECIFIED_SOURCE('None','None',#320,.NOT_KNOWN.);
#330=PERSON('PERSON2','None','None',$,$,$);
#331=ORGANIZATION('','None','None');
#332=PERSON_AND_ORGANIZATION(#330,#331);
#333=PERSON_AND_ORGANIZATION_ROLE('creator');
#334=CC_DESIGN_PERSON_AND_ORGANIZATION_ASSIGNMENT(#332,#333,(#329));
#335=PERSON('PERSON3','None','None',$,$,$);
#336=ORGANIZATION('','None','None');
#337=PERSON_AND_ORGANIZATION(#335,#336);
#338=PERSON_AND_ORGANIZATION_ROLE('part_supplier');
#339=CC_DESIGN_PERSON_AND_ORGANIZATION_ASSIGNMENT(#337,#338,(#329));
#340=APPROVAL_STATUS('approved');
#341=APPROVAL(#340,'None');
#342=PERSON('PERSON4','None','None',$,$,$);
#343=ORGANIZATION('','None','None');
#344=PERSON_AND_ORGANIZATION(#342,#343);
#345=APPROVAL_ROLE('None');
#346=APPROVAL_PERSON_ORGANIZATION(#344,#341,#345);
#347=CALENDAR_DATE(2011,14,2);
#348=COORDINATED_UNIVERSAL_TIME_OFFSET(0,0,.AHEAD.);
#349=LOCAL_TIME(9,56,25.0,#348);
#350=DATE_AND_TIME(#347,#349);
#351=APPROVAL_DATE_TIME(#350,#341);
#352=CC_DESIGN_APPROVAL(#341,(#329));
#353=SECURITY_CLASSIFICATION_LEVEL('unclassified');
#354=SECURITY_CLASSIFICATION('None','None',#353);
#355=CC_DESIGN_SECURITY_CLASSIFICATION(#354,(#329));
#356=APPROVAL_STATUS('approved');
#357=APPROVAL(#356,'None');
#358=PERSON('PERSON5','None','None',$,$,$);
#359=ORGANIZATION('','None','None');
#360=PERSON_AND_ORGANIZATION(#358,#359);
#361=APPROVAL_ROLE('None');
#362=APPROVAL_PERSON_ORGANIZATION(#360,#357,#361);
#363=CALENDAR_DATE(2011,14,2);
#364=COORDINATED_UNIVERSAL_TIME_OFFSET(0,0,.AHEAD.);
#365=LOCAL_TIME(9,56,25.0,#364);
#366=DATE_AND_TIME(#363,#365);
#367=APPROVAL_DATE_TIME(#366,#357);
#368=CC_DESIGN_APPROVAL(#357,(#354));
#369=PERSON('PERSON6','None','None',$,$,$);
#370=ORGANIZATION('','None','None');
#371=PERSON_AND_ORGANIZATION(#369,#370);
#372=PERSON_AND_ORGANIZATION_ROLE('classification_officer');
#373=CC_DESIGN_PERSON_AND_ORGANIZATION_ASSIGNMENT(#371,#372,(#354));
#374=DATE_TIME_ROLE('classification_date');
#375=CALENDAR_DATE(2011,14,2);
#376=COORDINATED_UNIVERSAL_TIME_OFFSET(0,0,.AHEAD.);
#377=LOCAL_TIME(9,56,25.0,#376);
#378=DATE_AND_TIME(#375,#377);
#379=CC_DESIGN_DATE_AND_TIME_ASSIGNMENT(#378,#374,(#354));
#380=DESIGN_CONTEXT('part definition',#317,'design');
#381=DOCUMENT_TYPE('cad_filename');
#382=DOCUMENT('None','None','None',#381);
#383=PRODUCT_DEFINITION_WITH_ASSOCIATED_DOCUMENTS('None','None',#329,#380,(#382));
#384=PERSON('PERSON7','None','None',$,$,$);
#385=ORGANIZATION('','None','None');
#386=PERSON_AND_ORGANIZATION(#384,#385);
#387=PERSON_AND_ORGANIZATION_ROLE('creator');
#388=CC_DESIGN_PERSON_AND_ORGANIZATION_ASSIGNMENT(#386,#387,(#383));
#389=DATE_TIME_ROLE('creation_date');
#390=CALENDAR_DATE(2011,14,2);
#391=COORDINATED_UNIVERSAL_TIME_OFFSET(0,0,.AHEAD.);
#392=LOCAL_TIME(9,56,25.0,#391);
#393=DATE_AND_TIME(#390,#392);
#394=CC_DESIGN_DATE_AND_TIME_ASSIGNMENT(#393,#389,(#383));
#395=APPROVAL_STATUS('approved');
#396=APPROVAL(#395,'None');
#397=PERSON('PERSON8','None','None',$,$,$);
#398=ORGANIZATION('','None','None');
#399=PERSON_AND_ORGANIZATION(#397,#398);
#400=APPROVAL_ROLE('None');
#401=APPROVAL_PERSON_ORGANIZATION(#399,#396,#400);
#402=CALENDAR_DATE(2011,14,2);
#403=COORDINATED_UNIVERSAL_TIME_OFFSET(0,0,.AHEAD.);
#404=LOCAL_TIME(9,56,25.0,#403);
#405=DATE_AND_TIME(#402,#404);
#406=APPROVAL_DATE_TIME(#405,#396);
#407=CC_DESIGN_APPROVAL(#396,(#383));
#408=PRODUCT_DEFINITION_SHAPE('None','None',#383);
#409=SHAPE_DEFINITION_REPRESENTATION(#408,#316);
#410=DIMENSIONAL_EXPONENTS(0.0,0.0,0.0,0.0,0.0,0.0,0.0);
#411=DIMENSIONAL_EXPONENTS(1.0,0.0,0.0,0.0,0.0,0.0,0.0);
ENDSEC;
END-ISO-10303-21;
