ISO-10303-21;
HEADER;
/****************************************************************
 * Generated by software with PDE/Lib inside                    *
 * PDElib Version v4.4, created Mon 02/23/2004                  *
 * International Technegroup Inc. (www.iti-oh.com)              *
 ****************************************************************/
FILE_DESCRIPTION(('STEP AP203'),'2;1');
FILE_NAME('26.054.00.stp','2011-03-21T16:16:24',(''),(''),'2009.3.110','THINKDESIGN','');
FILE_SCHEMA(('CONFIG_CONTROL_DESIGN'));
ENDSEC;
DATA;
#2=CARTESIAN_POINT('',(-6.499999999973852,6.499999999974079,6.0));
#3=DIRECTION('',(1.0,0.0,0.0));
#4=DIRECTION('',(0.0,-1.0,0.0));
#5=AXIS2_PLACEMENT_3D('',#2,#3,#4);
#6=PLANE('',#5);
#7=CARTESIAN_POINT('',(-6.499999999973852,6.499999999974079,0.0));
#8=VERTEX_POINT('',#7);
#9=CARTESIAN_POINT('',(-6.499999999973852,-6.499999999974079,0.0));
#10=VERTEX_POINT('',#9);
#11=CARTESIAN_POINT('',(-6.499999999973852,6.499999999974079,0.0));
#12=DIRECTION('',(0.0,-1.0,0.0));
#13=VECTOR('',#12,12.999999999947995);
#14=LINE('',#11,#13);
#15=EDGE_CURVE('',#8,#10,#14,.T.);
#16=ORIENTED_EDGE('',*,*,#15,.T.);
#17=CARTESIAN_POINT('',(-6.499999999973852,-6.499999999974079,3.034437679604906));
#18=VERTEX_POINT('',#17);
#19=CARTESIAN_POINT('',(-6.499999999973852,-6.499999999974079,3.034437679604906));
#20=DIRECTION('',(0.0,0.0,-1.0));
#21=VECTOR('',#20,3.034437679604906);
#22=LINE('',#19,#21);
#23=EDGE_CURVE('',#18,#10,#22,.T.);
#24=ORIENTED_EDGE('',*,*,#23,.F.);
#25=CARTESIAN_POINT('',(-6.499999999973852,6.499999999974079,3.034437679605066));
#26=VERTEX_POINT('',#25);
#27=CARTESIAN_POINT('',(-6.499999999974079,-6.499999999974079,3.034437679604906));
#28=CARTESIAN_POINT('',(-6.499999999974079,-5.963475184198160,3.300082650377658));
#29=CARTESIAN_POINT('',(-6.499999999974307,-4.990047889132711,3.753273584885370));
#30=CARTESIAN_POINT('',(-6.499999999973625,-3.581020279305903,4.294954268033969));
#31=CARTESIAN_POINT('',(-6.499999999973397,-2.325183673445281,4.659603356991861));
#32=CARTESIAN_POINT('',(-6.499999999974307,-1.114697758100192,4.877442321284693));
#33=CARTESIAN_POINT('',(-6.499999999972943,0.091791976900822,4.946072576401956));
#34=CARTESIAN_POINT('',(-6.499999999977263,1.288091550248737,4.855365513273265));
#35=CARTESIAN_POINT('',(-6.499999999960892,2.551471572318405,4.605479998874939));
#36=CARTESIAN_POINT('',(-6.499999999977263,3.827364189698528,4.209600242583047));
#37=CARTESIAN_POINT('',(-6.499999999973170,5.174177651177615,3.668900488673288));
#38=CARTESIAN_POINT('',(-6.499999999973852,6.048409974866900,3.258029609546425));
#39=CARTESIAN_POINT('',(-6.499999999973852,6.499999999974079,3.034437679605066));
#40=B_SPLINE_CURVE_WITH_KNOTS('',3,(#27,#28,#29,#30,#31,#32,#33,#34,#35,#36,#37,#38,#39),.UNSPECIFIED.,.F.,.U.,(4,1,1,1,1,1,1,1,1,1,4),(0.0,1.796348609622032,3.219266909664040,4.525760464110747,5.714993134358735,6.903296288721289,8.143598724463887,9.306388059167453,10.761381849058354,12.146239828317164,13.658133343956399),.UNSPECIFIED.);
#41=EDGE_CURVE('',#18,#26,#40,.T.);
#42=ORIENTED_EDGE('',*,*,#41,.T.);
#43=CARTESIAN_POINT('',(-6.499999999973852,6.499999999974079,3.034437679605066));
#44=DIRECTION('',(0.0,0.0,-1.0));
#45=VECTOR('',#44,3.034437679605066);
#46=LINE('',#43,#45);
#47=EDGE_CURVE('',#26,#8,#46,.T.);
#48=ORIENTED_EDGE('',*,*,#47,.T.);
#49=EDGE_LOOP('',(#16,#24,#42,#48));
#50=FACE_OUTER_BOUND('',#49,.T.);
#51=ADVANCED_FACE('',(#50),#6,.F.);
#52=CARTESIAN_POINT('',(-6.499999999973852,-6.499999999974079,6.0));
#53=DIRECTION('',(0.0,1.0,0.0));
#54=DIRECTION('',(1.0,0.0,0.0));
#55=AXIS2_PLACEMENT_3D('',#52,#53,#54);
#56=PLANE('',#55);
#57=CARTESIAN_POINT('',(6.499999999974079,-6.499999999974079,0.0));
#58=VERTEX_POINT('',#57);
#59=CARTESIAN_POINT('',(-6.499999999973852,-6.499999999974079,0.0));
#60=DIRECTION('',(1.0,0.0,0.0));
#61=VECTOR('',#60,12.999999999947995);
#62=LINE('',#59,#61);
#63=EDGE_CURVE('',#10,#58,#62,.T.);
#64=ORIENTED_EDGE('',*,*,#63,.T.);
#65=CARTESIAN_POINT('',(6.499999999974079,-6.499999999974079,3.034437679604906));
#66=VERTEX_POINT('',#65);
#67=CARTESIAN_POINT('',(6.499999999974079,-6.499999999974079,3.034437679604906));
#68=DIRECTION('',(0.0,0.0,-1.0));
#69=VECTOR('',#68,3.034437679604906);
#70=LINE('',#67,#69);
#71=EDGE_CURVE('',#66,#58,#70,.T.);
#72=ORIENTED_EDGE('',*,*,#71,.F.);
#73=CARTESIAN_POINT('',(6.499999999974079,-6.499999999974079,3.034437679604906));
#74=CARTESIAN_POINT('',(5.963475184197932,-6.499999999974079,3.300082650377685));
#75=CARTESIAN_POINT('',(4.990047889131347,-6.499999999974534,3.753273584885145));
#76=CARTESIAN_POINT('',(3.581020279306358,-6.499999999973625,4.294954268034343));
#77=CARTESIAN_POINT('',(2.325183673444599,-6.499999999974989,4.659603356991499));
#78=CARTESIAN_POINT('',(1.114697758099510,-6.499999999973170,4.877442321284664));
#79=CARTESIAN_POINT('',(-0.091791976900140,-6.499999999974989,4.946072576401746));
#80=CARTESIAN_POINT('',(-1.288091550251238,-6.499999999977263,4.855365513273293));
#81=CARTESIAN_POINT('',(-2.551471572318178,-6.499999999962711,4.605479998874193));
#82=CARTESIAN_POINT('',(-3.827364189701029,-6.499999999977717,4.209600242582467));
#83=CARTESIAN_POINT('',(-5.174177651178525,-6.499999999973625,3.668900488673009));
#84=CARTESIAN_POINT('',(-6.048409974867354,-6.499999999974079,3.258029609546086));
#85=CARTESIAN_POINT('',(-6.499999999974079,-6.499999999974079,3.034437679604906));
#86=B_SPLINE_CURVE_WITH_KNOTS('',3,(#73,#74,#75,#76,#77,#78,#79,#80,#81,#82,#83,#84,#85),.UNSPECIFIED.,.F.,.U.,(4,1,1,1,1,1,1,1,1,1,4),(0.0,1.796348609622239,3.219266909664066,4.525760464110903,5.714993134359137,6.903296288721684,8.143598724464722,9.306388059168363,10.761381849059740,12.146239828318263,13.658133343956333),.UNSPECIFIED.);
#87=EDGE_CURVE('',#66,#18,#86,.T.);
#88=ORIENTED_EDGE('',*,*,#87,.T.);
#89=ORIENTED_EDGE('',*,*,#23,.T.);
#90=EDGE_LOOP('',(#64,#72,#88,#89));
#91=FACE_OUTER_BOUND('',#90,.T.);
#92=ADVANCED_FACE('',(#91),#56,.F.);
#93=CARTESIAN_POINT('',(6.499999999974079,-6.499999999974079,6.0));
#94=DIRECTION('',(-1.0,0.0,0.0));
#95=DIRECTION('',(0.0,1.0,0.0));
#96=AXIS2_PLACEMENT_3D('',#93,#94,#95);
#97=PLANE('',#96);
#98=CARTESIAN_POINT('',(6.499999999974079,6.499999999974079,0.0));
#99=VERTEX_POINT('',#98);
#100=CARTESIAN_POINT('',(6.499999999974079,-6.499999999973916,0.0));
#101=DIRECTION('',(0.0,1.0,0.0));
#102=VECTOR('',#101,12.999999999947995);
#103=LINE('',#100,#102);
#104=EDGE_CURVE('',#58,#99,#103,.T.);
#105=ORIENTED_EDGE('',*,*,#104,.T.);
#106=CARTESIAN_POINT('',(6.499999999974079,6.499999999974079,3.034437679604906));
#107=VERTEX_POINT('',#106);
#108=CARTESIAN_POINT('',(6.499999999974079,6.499999999974079,3.034437679604906));
#109=DIRECTION('',(0.0,0.0,-1.0));
#110=VECTOR('',#109,3.034437679604906);
#111=LINE('',#108,#110);
#112=EDGE_CURVE('',#107,#99,#111,.T.);
#113=ORIENTED_EDGE('',*,*,#112,.F.);
#114=CARTESIAN_POINT('',(6.499999999974079,0.0,4.919668161812596));
#115=VERTEX_POINT('',#114);
#116=CARTESIAN_POINT('',(6.499999999974079,6.499999999974079,3.034437679604906));
#117=CARTESIAN_POINT('',(6.499999999974079,5.882877524653850,3.339988284347234));
#118=CARTESIAN_POINT('',(6.499999999974534,4.809413192198008,3.835425012968807));
#119=CARTESIAN_POINT('',(6.499999999973852,3.186651324770082,4.430488239795752));
#120=CARTESIAN_POINT('',(6.499999999974989,1.644250270507200,4.819853950623344));
#121=CARTESIAN_POINT('',(6.499999999974079,0.548660503574865,4.919668161812595));
#122=CARTESIAN_POINT('',(6.499999999974079,0.0,4.919668161812595));
#123=B_SPLINE_CURVE_WITH_KNOTS('',3,(#116,#117,#118,#119,#120,#121,#122),.UNSPECIFIED.,.F.,.U.,(4,1,1,1,4),(0.0,2.066340973610342,3.543609594805800,5.181100455068718,6.829066620924860),.UNSPECIFIED.);
#124=EDGE_CURVE('',#107,#115,#123,.T.);
#125=ORIENTED_EDGE('',*,*,#124,.T.);
#126=CARTESIAN_POINT('',(6.499999999974079,0.0,4.919668161812595));
#127=CARTESIAN_POINT('',(6.499999999974079,-0.548660503574865,4.919668161812595));
#128=CARTESIAN_POINT('',(6.499999999974762,-1.644250270504926,4.819853950623344));
#129=CARTESIAN_POINT('',(6.499999999973852,-3.186651324770082,4.430488239795752));
#130=CARTESIAN_POINT('',(6.499999999974534,-4.809413192196644,3.835425012968807));
#131=CARTESIAN_POINT('',(6.499999999974079,-5.882877524653850,3.339988284347234));
#132=CARTESIAN_POINT('',(6.499999999974079,-6.499999999974079,3.034437679604906));
#133=B_SPLINE_CURVE_WITH_KNOTS('',3,(#126,#127,#128,#129,#130,#131,#132),.UNSPECIFIED.,.F.,.U.,(4,1,1,1,4),(0.0,1.647966165856141,3.285457026119058,4.762725647314515,6.829066620924857),.UNSPECIFIED.);
#134=EDGE_CURVE('',#115,#66,#133,.T.);
#135=ORIENTED_EDGE('',*,*,#134,.T.);
#136=ORIENTED_EDGE('',*,*,#71,.T.);
#137=EDGE_LOOP('',(#105,#113,#125,#135,#136));
#138=FACE_OUTER_BOUND('',#137,.T.);
#139=ADVANCED_FACE('',(#138),#97,.F.);
#140=CARTESIAN_POINT('',(6.499999999974079,6.499999999974079,6.0));
#141=DIRECTION('',(0.0,-1.0,0.0));
#142=DIRECTION('',(-1.0,0.0,0.0));
#143=AXIS2_PLACEMENT_3D('',#140,#141,#142);
#144=PLANE('',#143);
#145=ORIENTED_EDGE('',*,*,#47,.F.);
#146=CARTESIAN_POINT('',(-6.499999999973852,6.499999999974079,3.034437679605066));
#147=CARTESIAN_POINT('',(-6.048409974867354,6.499999999974079,3.258029609546206));
#148=CARTESIAN_POINT('',(-5.174177651177615,6.499999999972715,3.668900488673024));
#149=CARTESIAN_POINT('',(-3.827364189701939,6.499999999976353,4.209600242582472));
#150=CARTESIAN_POINT('',(-2.551471572317269,6.499999999962711,4.605479998874186));
#151=CARTESIAN_POINT('',(-1.288091550251011,6.499999999977263,4.855365513273293));
#152=CARTESIAN_POINT('',(-0.091791976899913,6.499999999974534,4.946072576401746));
#153=CARTESIAN_POINT('',(1.114697758099283,6.499999999973170,4.877442321284664));
#154=CARTESIAN_POINT('',(2.325183673445054,6.499999999974989,4.659603356991500));
#155=CARTESIAN_POINT('',(3.581020279306813,6.499999999974079,4.294954268034344));
#156=CARTESIAN_POINT('',(4.990047889131802,6.499999999974534,3.753273584885147));
#157=CARTESIAN_POINT('',(5.963475184197932,6.499999999974079,3.300082650377685));
#158=CARTESIAN_POINT('',(6.499999999974079,6.499999999974079,3.034437679604906));
#159=B_SPLINE_CURVE_WITH_KNOTS('',3,(#146,#147,#148,#149,#150,#151,#152,#153,#154,#155,#156,#157,#158),.UNSPECIFIED.,.F.,.U.,(4,1,1,1,1,1,1,1,1,1,4),(0.0,1.511893515637792,2.896751494896321,4.351745284787702,5.514534619491342,6.754837055234381,7.943140209596928,9.132372879845162,10.438866434292001,11.861784734333828,13.658133343956067),.UNSPECIFIED.);
#160=EDGE_CURVE('',#26,#107,#159,.T.);
#161=ORIENTED_EDGE('',*,*,#160,.T.);
#162=ORIENTED_EDGE('',*,*,#112,.T.);
#163=CARTESIAN_POINT('',(6.499999999974143,6.499999999974079,0.0));
#164=DIRECTION('',(-1.0,0.0,0.0));
#165=VECTOR('',#164,12.999999999947995);
#166=LINE('',#163,#165);
#167=EDGE_CURVE('',#99,#8,#166,.T.);
#168=ORIENTED_EDGE('',*,*,#167,.T.);
#169=EDGE_LOOP('',(#145,#161,#162,#168));
#170=FACE_OUTER_BOUND('',#169,.T.);
#171=ADVANCED_FACE('',(#170),#144,.F.);
#172=CARTESIAN_POINT('',(-7.800004734302775,-7.800004734271170,6.0));
#173=DIRECTION('',(0.0,0.0,1.0));
#174=DIRECTION('',(1.0,0.0,0.0));
#175=AXIS2_PLACEMENT_3D('',#172,#173,#174);
#176=PLANE('',#175);
#177=CARTESIAN_POINT('',(-4.957126238646652,0.0,6.0));
#178=VERTEX_POINT('',#177);
#179=CARTESIAN_POINT('',(4.957126238646652,0.0,6.0));
#180=VERTEX_POINT('',#179);
#181=CARTESIAN_POINT('',(0.0,0.0,6.0));
#182=DIRECTION('',(0.0,0.0,-1.0));
#183=DIRECTION('',(1.0,0.0,0.0));
#184=AXIS2_PLACEMENT_3D('',#181,#182,#183);
#185=CIRCLE('',#184,4.957126238646652);
#186=EDGE_CURVE('',#178,#180,#185,.T.);
#187=ORIENTED_EDGE('',*,*,#186,.F.);
#188=CARTESIAN_POINT('',(0.0,0.0,6.0));
#189=DIRECTION('',(0.0,0.0,-1.0));
#190=DIRECTION('',(1.0,0.0,0.0));
#191=AXIS2_PLACEMENT_3D('',#188,#189,#190);
#192=CIRCLE('',#191,4.957126238646652);
#193=EDGE_CURVE('',#180,#178,#192,.T.);
#194=ORIENTED_EDGE('',*,*,#193,.F.);
#195=EDGE_LOOP('',(#187,#194));
#196=FACE_OUTER_BOUND('',#195,.T.);
#197=CARTESIAN_POINT('',(-1.650000000000000,0.0,6.0));
#198=VERTEX_POINT('',#197);
#199=CARTESIAN_POINT('',(1.650000000000091,0.0,6.0));
#200=VERTEX_POINT('',#199);
#201=CARTESIAN_POINT('',(0.0,0.0,6.0));
#202=DIRECTION('',(0.0,0.0,1.0));
#203=DIRECTION('',(1.0,0.0,0.0));
#204=AXIS2_PLACEMENT_3D('',#201,#202,#203);
#205=CIRCLE('',#204,1.650000000000000);
#206=EDGE_CURVE('',#198,#200,#205,.T.);
#207=ORIENTED_EDGE('',*,*,#206,.F.);
#208=CARTESIAN_POINT('',(0.0,0.0,6.0));
#209=DIRECTION('',(0.0,0.0,1.0));
#210=DIRECTION('',(1.0,0.0,0.0));
#211=AXIS2_PLACEMENT_3D('',#208,#209,#210);
#212=CIRCLE('',#211,1.650000000000000);
#213=EDGE_CURVE('',#200,#198,#212,.T.);
#214=ORIENTED_EDGE('',*,*,#213,.F.);
#215=EDGE_LOOP('',(#207,#214));
#216=FACE_BOUND('',#215,.T.);
#217=ADVANCED_FACE('',(#196,#216),#176,.T.);
#218=CARTESIAN_POINT('',(-7.800004734302775,-7.800004734271170,0.0));
#219=DIRECTION('',(0.0,0.0,1.0));
#220=DIRECTION('',(1.0,0.0,0.0));
#221=AXIS2_PLACEMENT_3D('',#218,#219,#220);
#222=PLANE('',#221);
#223=ORIENTED_EDGE('',*,*,#167,.F.);
#224=ORIENTED_EDGE('',*,*,#104,.F.);
#225=ORIENTED_EDGE('',*,*,#63,.F.);
#226=ORIENTED_EDGE('',*,*,#15,.F.);
#227=EDGE_LOOP('',(#223,#224,#225,#226));
#228=FACE_OUTER_BOUND('',#227,.T.);
#229=CARTESIAN_POINT('',(-1.650000000000000,0.0,0.0));
#230=VERTEX_POINT('',#229);
#231=CARTESIAN_POINT('',(1.650000000000091,0.0,0.0));
#232=VERTEX_POINT('',#231);
#233=CARTESIAN_POINT('',(0.0,0.0,0.0));
#234=DIRECTION('',(0.0,0.0,-1.0));
#235=DIRECTION('',(1.0,0.0,0.0));
#236=AXIS2_PLACEMENT_3D('',#233,#234,#235);
#237=CIRCLE('',#236,1.650000000000000);
#238=EDGE_CURVE('',#230,#232,#237,.T.);
#239=ORIENTED_EDGE('',*,*,#238,.F.);
#240=CARTESIAN_POINT('',(0.0,0.0,0.0));
#241=DIRECTION('',(0.0,0.0,-1.0));
#242=DIRECTION('',(1.0,0.0,0.0));
#243=AXIS2_PLACEMENT_3D('',#240,#241,#242);
#244=CIRCLE('',#243,1.650000000000000);
#245=EDGE_CURVE('',#232,#230,#244,.T.);
#246=ORIENTED_EDGE('',*,*,#245,.F.);
#247=EDGE_LOOP('',(#239,#246));
#248=FACE_BOUND('',#247,.T.);
#249=ADVANCED_FACE('',(#228,#248),#222,.F.);
#250=CARTESIAN_POINT('',(4.957126238621409,0.0,6.000000000017701));
#251=CARTESIAN_POINT('',(4.957126238621409,4.957126238621409,6.000000000017701));
#252=CARTESIAN_POINT('',(0.0,4.957126238621409,6.000000000017701));
#253=CARTESIAN_POINT('',(-4.957126238621409,4.957126238621409,6.000000000017701));
#254=CARTESIAN_POINT('',(-4.957126238621409,0.0,6.000000000017701));
#255=CARTESIAN_POINT('',(-4.957126238621409,-4.957126238621409,6.000000000017701));
#256=CARTESIAN_POINT('',(0.0,-4.957126238621409,6.000000000017701));
#257=CARTESIAN_POINT('',(4.957126238621409,-4.957126238621409,6.000000000017701));
#258=CARTESIAN_POINT('',(4.957126238621409,0.0,6.000000000017701));
#259=CARTESIAN_POINT('',(9.192391315225684,0.0,3.034435467063071));
#260=CARTESIAN_POINT('',(9.192391315225684,9.192391315225684,3.034435467063072));
#261=CARTESIAN_POINT('',(0.0,9.192391315225684,3.034435467063071));
#262=CARTESIAN_POINT('',(-9.192391315225684,9.192391315225684,3.034435467063072));
#263=CARTESIAN_POINT('',(-9.192391315225684,0.0,3.034435467063071));
#264=CARTESIAN_POINT('',(-9.192391315225684,-9.192391315225684,3.034435467063072));
#265=CARTESIAN_POINT('',(0.0,-9.192391315225684,3.034435467063071));
#266=CARTESIAN_POINT('',(9.192391315225684,-9.192391315225684,3.034435467063072));
#267=CARTESIAN_POINT('',(9.192391315225684,0.0,3.034435467063071));
#275=(BOUNDED_SURFACE()B_SPLINE_SURFACE(2,1,((#250,#259),(#251,#260),(#252,#261),(#253,#262),(#254,#263),(#255,#264),(#256,#265),(#257,#266),(#258,#267)),.UNSPECIFIED.,.T.,.F.,.U.)B_SPLINE_SURFACE_WITH_KNOTS((3,2,2,2,3),(2,2),(0.0,0.250000000000000,0.500000000000000,0.750000000000000,1.0),(-6.833350498853780,-1.663046516666443),.UNSPECIFIED.)GEOMETRIC_REPRESENTATION_ITEM()RATIONAL_B_SPLINE_SURFACE(((1.0,1.0),(0.707106781186548,0.707106781186548),(1.0,1.0),(0.707106781186548,0.707106781186548),(1.0,1.0),(0.707106781186548,0.707106781186548),(1.0,1.0),(0.707106781186548,0.707106781186548),(1.0,1.0)))REPRESENTATION_ITEM('')SURFACE());
#276=ORIENTED_EDGE('',*,*,#160,.F.);
#277=ORIENTED_EDGE('',*,*,#41,.F.);
#278=ORIENTED_EDGE('',*,*,#87,.F.);
#279=ORIENTED_EDGE('',*,*,#134,.F.);
#280=CARTESIAN_POINT('',(4.957126238646688,0.0,6.0));
#281=DIRECTION('',(0.819152044288992,0.0,-0.573576436351045));
#282=VECTOR('',#281,1.883501081495284);
#283=LINE('',#280,#282);
#284=EDGE_CURVE('',#180,#115,#283,.T.);
#285=ORIENTED_EDGE('',*,*,#284,.F.);
#286=ORIENTED_EDGE('',*,*,#193,.T.);
#287=ORIENTED_EDGE('',*,*,#186,.T.);
#288=ORIENTED_EDGE('',*,*,#284,.T.);
#289=ORIENTED_EDGE('',*,*,#124,.F.);
#290=EDGE_LOOP('',(#276,#277,#278,#279,#285,#286,#287,#288,#289));
#291=FACE_OUTER_BOUND('',#290,.T.);
#292=ADVANCED_FACE('',(#291),#275,.F.);
#293=CARTESIAN_POINT('',(0.0,0.0,6.0));
#294=DIRECTION('',(0.0,0.0,1.0));
#295=DIRECTION('',(1.0,0.0,0.0));
#296=AXIS2_PLACEMENT_3D('',#293,#294,#295);
#297=CYLINDRICAL_SURFACE('',#296,1.650000000000000);
#298=CARTESIAN_POINT('',(1.650000000000091,0.0,6.0));
#299=DIRECTION('',(0.0,0.0,-1.0));
#300=VECTOR('',#299,6.0);
#301=LINE('',#298,#300);
#302=EDGE_CURVE('',#200,#232,#301,.T.);
#303=ORIENTED_EDGE('',*,*,#302,.T.);
#304=ORIENTED_EDGE('',*,*,#245,.T.);
#305=ORIENTED_EDGE('',*,*,#238,.T.);
#306=ORIENTED_EDGE('',*,*,#302,.F.);
#307=ORIENTED_EDGE('',*,*,#213,.T.);
#308=ORIENTED_EDGE('',*,*,#206,.T.);
#309=EDGE_LOOP('',(#303,#304,#305,#306,#307,#308));
#310=FACE_OUTER_BOUND('',#309,.T.);
#311=ADVANCED_FACE('',(#310),#297,.F.);
#312=CLOSED_SHELL('',(#51,#92,#139,#171,#217,#249,#292,#311));
#313=MANIFOLD_SOLID_BREP('',#312);
#319=(NAMED_UNIT(*)PLANE_ANGLE_UNIT()SI_UNIT($,.RADIAN.));
#320=DIMENSIONAL_EXPONENTS(0.0,0.0,0.0,0.0,0.0,0.0,0.0);
#321=PLANE_ANGLE_MEASURE_WITH_UNIT(PLANE_ANGLE_MEASURE(0.017453292500000),#319);
#325=(CONVERSION_BASED_UNIT('DEGREE',#321)NAMED_UNIT(#320)PLANE_ANGLE_UNIT());
#329=(NAMED_UNIT(*)SI_UNIT($,.STERADIAN.)SOLID_ANGLE_UNIT());
#333=(LENGTH_UNIT()NAMED_UNIT(*)SI_UNIT(.MILLI.,.METRE.));
#335=UNCERTAINTY_MEASURE_WITH_UNIT(LENGTH_MEASURE(0.001000000000000),#333,'DISTANCE_ACCURACY_VALUE','');
#337=(GEOMETRIC_REPRESENTATION_CONTEXT(3)GLOBAL_UNCERTAINTY_ASSIGNED_CONTEXT((#335))GLOBAL_UNIT_ASSIGNED_CONTEXT((#325,#329,#333))REPRESENTATION_CONTEXT('thinkdesign','2009.3.110'));
#338=ADVANCED_BREP_SHAPE_REPRESENTATION('',(#313),#337);
#339=APPLICATION_CONTEXT('configuration controlled 3D designs of mechanical parts and assemblies');
#340=APPLICATION_PROTOCOL_DEFINITION('International Standard','config_control_design',1995,#339);
#341=MECHANICAL_CONTEXT('None',#339,'mechanical');
#342=PRODUCT('None','None','None',(#341));
#343=PRODUCT_RELATED_PRODUCT_CATEGORY('detail',$,(#342));
#344=PRODUCT_CATEGORY('part',$);
#345=PRODUCT_CATEGORY_RELATIONSHIP('None','None',#344,#343);
#346=PERSON('PERSON1','None','None',$,$,$);
#347=ORGANIZATION('','None','None');
#348=PERSON_AND_ORGANIZATION(#346,#347);
#349=PERSON_AND_ORGANIZATION_ROLE('design_owner');
#350=CC_DESIGN_PERSON_AND_ORGANIZATION_ASSIGNMENT(#348,#349,(#342));
#351=PRODUCT_DEFINITION_FORMATION_WITH_SPECIFIED_SOURCE('None','None',#342,.NOT_KNOWN.);
#352=PERSON('PERSON2','None','None',$,$,$);
#353=ORGANIZATION('','None','None');
#354=PERSON_AND_ORGANIZATION(#352,#353);
#355=PERSON_AND_ORGANIZATION_ROLE('creator');
#356=CC_DESIGN_PERSON_AND_ORGANIZATION_ASSIGNMENT(#354,#355,(#351));
#357=PERSON('PERSON3','None','None',$,$,$);
#358=ORGANIZATION('','None','None');
#359=PERSON_AND_ORGANIZATION(#357,#358);
#360=PERSON_AND_ORGANIZATION_ROLE('part_supplier');
#361=CC_DESIGN_PERSON_AND_ORGANIZATION_ASSIGNMENT(#359,#360,(#351));
#362=APPROVAL_STATUS('approved');
#363=APPROVAL(#362,'None');
#364=PERSON('PERSON4','None','None',$,$,$);
#365=ORGANIZATION('','None','None');
#366=PERSON_AND_ORGANIZATION(#364,#365);
#367=APPROVAL_ROLE('None');
#368=APPROVAL_PERSON_ORGANIZATION(#366,#363,#367);
#369=CALENDAR_DATE(2011,21,3);
#370=COORDINATED_UNIVERSAL_TIME_OFFSET(0,0,.AHEAD.);
#371=LOCAL_TIME(16,16,24.0,#370);
#372=DATE_AND_TIME(#369,#371);
#373=APPROVAL_DATE_TIME(#372,#363);
#374=CC_DESIGN_APPROVAL(#363,(#351));
#375=SECURITY_CLASSIFICATION_LEVEL('unclassified');
#376=SECURITY_CLASSIFICATION('None','None',#375);
#377=CC_DESIGN_SECURITY_CLASSIFICATION(#376,(#351));
#378=APPROVAL_STATUS('approved');
#379=APPROVAL(#378,'None');
#380=PERSON('PERSON5','None','None',$,$,$);
#381=ORGANIZATION('','None','None');
#382=PERSON_AND_ORGANIZATION(#380,#381);
#383=APPROVAL_ROLE('None');
#384=APPROVAL_PERSON_ORGANIZATION(#382,#379,#383);
#385=CALENDAR_DATE(2011,21,3);
#386=COORDINATED_UNIVERSAL_TIME_OFFSET(0,0,.AHEAD.);
#387=LOCAL_TIME(16,16,24.0,#386);
#388=DATE_AND_TIME(#385,#387);
#389=APPROVAL_DATE_TIME(#388,#379);
#390=CC_DESIGN_APPROVAL(#379,(#376));
#391=PERSON('PERSON6','None','None',$,$,$);
#392=ORGANIZATION('','None','None');
#393=PERSON_AND_ORGANIZATION(#391,#392);
#394=PERSON_AND_ORGANIZATION_ROLE('classification_officer');
#395=CC_DESIGN_PERSON_AND_ORGANIZATION_ASSIGNMENT(#393,#394,(#376));
#396=DATE_TIME_ROLE('classification_date');
#397=CALENDAR_DATE(2011,21,3);
#398=COORDINATED_UNIVERSAL_TIME_OFFSET(0,0,.AHEAD.);
#399=LOCAL_TIME(16,16,24.0,#398);
#400=DATE_AND_TIME(#397,#399);
#401=CC_DESIGN_DATE_AND_TIME_ASSIGNMENT(#400,#396,(#376));
#402=DESIGN_CONTEXT('part definition',#339,'design');
#403=DOCUMENT_TYPE('cad_filename');
#404=DOCUMENT('None','None','None',#403);
#405=PRODUCT_DEFINITION_WITH_ASSOCIATED_DOCUMENTS('None','None',#351,#402,(#404));
#406=PERSON('PERSON7','None','None',$,$,$);
#407=ORGANIZATION('','None','None');
#408=PERSON_AND_ORGANIZATION(#406,#407);
#409=PERSON_AND_ORGANIZATION_ROLE('creator');
#410=CC_DESIGN_PERSON_AND_ORGANIZATION_ASSIGNMENT(#408,#409,(#405));
#411=DATE_TIME_ROLE('creation_date');
#412=CALENDAR_DATE(2011,21,3);
#413=COORDINATED_UNIVERSAL_TIME_OFFSET(0,0,.AHEAD.);
#414=LOCAL_TIME(16,16,24.0,#413);
#415=DATE_AND_TIME(#412,#414);
#416=CC_DESIGN_DATE_AND_TIME_ASSIGNMENT(#415,#411,(#405));
#417=APPROVAL_STATUS('approved');
#418=APPROVAL(#417,'None');
#419=PERSON('PERSON8','None','None',$,$,$);
#420=ORGANIZATION('','None','None');
#421=PERSON_AND_ORGANIZATION(#419,#420);
#422=APPROVAL_ROLE('None');
#423=APPROVAL_PERSON_ORGANIZATION(#421,#418,#422);
#424=CALENDAR_DATE(2011,21,3);
#425=COORDINATED_UNIVERSAL_TIME_OFFSET(0,0,.AHEAD.);
#426=LOCAL_TIME(16,16,24.0,#425);
#427=DATE_AND_TIME(#424,#426);
#428=APPROVAL_DATE_TIME(#427,#418);
#429=CC_DESIGN_APPROVAL(#418,(#405));
#430=PRODUCT_DEFINITION_SHAPE('None','None',#405);
#431=SHAPE_DEFINITION_REPRESENTATION(#430,#338);
#432=DIMENSIONAL_EXPONENTS(0.0,0.0,0.0,0.0,0.0,0.0,0.0);
#433=DIMENSIONAL_EXPONENTS(1.0,0.0,0.0,0.0,0.0,0.0,0.0);
ENDSEC;
END-ISO-10303-21;
