ISO-10303-21;
HEADER;
/****************************************************************
 * Generated by software with PDE/Lib inside                    *
 * PDElib Version v4.4, created Mon 02/23/2004                  *
 * International Technegroup Inc. (www.iti-oh.com)              *
 ****************************************************************/
FILE_DESCRIPTION(('STEP AP203'),'2;1');
FILE_NAME('26.200.00.stp','2011-03-21T16:15:06',(''),(''),'2009.3.110','THINKDESIGN','');
FILE_SCHEMA(('CONFIG_CONTROL_DESIGN'));
ENDSEC;
DATA;
#2=CARTESIAN_POINT('',(-6.500000000000199,3.399999999999977,-63.0));
#3=DIRECTION('',(-1.0,0.0,0.0));
#4=DIRECTION('',(0.0,-1.0,0.0));
#5=AXIS2_PLACEMENT_3D('',#2,#3,#4);
#6=PLANE('',#5);
#7=CARTESIAN_POINT('',(-6.500000000000199,3.399999999999977,-63.0));
#8=VERTEX_POINT('',#7);
#9=CARTESIAN_POINT('',(-6.500000000000199,0.0,-63.0));
#10=VERTEX_POINT('',#9);
#11=CARTESIAN_POINT('',(-6.500000000000199,3.399999999999977,-63.0));
#12=DIRECTION('',(0.0,-1.0,0.0));
#13=VECTOR('',#12,3.399999999999977);
#14=LINE('',#11,#13);
#15=EDGE_CURVE('',#8,#10,#14,.T.);
#16=ORIENTED_EDGE('',*,*,#15,.T.);
#17=CARTESIAN_POINT('',(-6.500000000000199,0.0,18.0));
#18=VERTEX_POINT('',#17);
#19=CARTESIAN_POINT('',(-6.500000000000199,0.0,-63.0));
#20=DIRECTION('',(0.0,0.0,1.0));
#21=VECTOR('',#20,81.0);
#22=LINE('',#19,#21);
#23=EDGE_CURVE('',#10,#18,#22,.T.);
#24=ORIENTED_EDGE('',*,*,#23,.T.);
#25=CARTESIAN_POINT('',(-6.500000000000199,3.399999999999977,18.0));
#26=VERTEX_POINT('',#25);
#27=CARTESIAN_POINT('',(-6.500000000000199,3.399999999999977,18.0));
#28=DIRECTION('',(0.0,-1.0,0.0));
#29=VECTOR('',#28,3.399999999999977);
#30=LINE('',#27,#29);
#31=EDGE_CURVE('',#26,#18,#30,.T.);
#32=ORIENTED_EDGE('',*,*,#31,.F.);
#33=CARTESIAN_POINT('',(-6.500000000000199,3.399999999999977,-63.0));
#34=DIRECTION('',(0.0,0.0,1.0));
#35=VECTOR('',#34,81.0);
#36=LINE('',#33,#35);
#37=EDGE_CURVE('',#8,#26,#36,.T.);
#38=ORIENTED_EDGE('',*,*,#37,.F.);
#39=EDGE_LOOP('',(#16,#24,#32,#38));
#40=FACE_OUTER_BOUND('',#39,.T.);
#41=ADVANCED_FACE('',(#40),#6,.T.);
#42=CARTESIAN_POINT('',(-6.500000000000199,0.0,-63.0));
#43=DIRECTION('',(0.0,-1.0,0.0));
#44=DIRECTION('',(1.0,0.0,0.0));
#45=AXIS2_PLACEMENT_3D('',#42,#43,#44);
#46=PLANE('',#45);
#47=CARTESIAN_POINT('',(6.499999999999801,0.0,-63.0));
#48=VERTEX_POINT('',#47);
#49=CARTESIAN_POINT('',(-6.500000000000199,0.0,-63.0));
#50=DIRECTION('',(1.0,0.0,0.0));
#51=VECTOR('',#50,13.0);
#52=LINE('',#49,#51);
#53=EDGE_CURVE('',#10,#48,#52,.T.);
#54=ORIENTED_EDGE('',*,*,#53,.T.);
#55=CARTESIAN_POINT('',(6.499999999999801,0.0,18.0));
#56=VERTEX_POINT('',#55);
#57=CARTESIAN_POINT('',(6.499999999999801,0.0,-63.0));
#58=DIRECTION('',(0.0,0.0,1.0));
#59=VECTOR('',#58,81.0);
#60=LINE('',#57,#59);
#61=EDGE_CURVE('',#48,#56,#60,.T.);
#62=ORIENTED_EDGE('',*,*,#61,.T.);
#63=CARTESIAN_POINT('',(-6.500000000000199,0.0,18.0));
#64=DIRECTION('',(1.0,0.0,0.0));
#65=VECTOR('',#64,13.0);
#66=LINE('',#63,#65);
#67=EDGE_CURVE('',#18,#56,#66,.T.);
#68=ORIENTED_EDGE('',*,*,#67,.F.);
#69=ORIENTED_EDGE('',*,*,#23,.F.);
#70=EDGE_LOOP('',(#54,#62,#68,#69));
#71=FACE_OUTER_BOUND('',#70,.T.);
#72=CARTESIAN_POINT('',(-3.375000000000028,0.0,0.0));
#73=VERTEX_POINT('',#72);
#74=CARTESIAN_POINT('',(3.375000000000000,9.592327E-014,0.0));
#75=VERTEX_POINT('',#74);
#76=CARTESIAN_POINT('',(0.0,0.0,0.0));
#77=DIRECTION('',(-2.842171E-014,1.0,0.0));
#78=DIRECTION('',(-1.0,-2.842171E-014,0.0));
#79=AXIS2_PLACEMENT_3D('',#76,#77,#78);
#80=CIRCLE('',#79,3.375000000000000);
#81=EDGE_CURVE('',#73,#75,#80,.T.);
#82=ORIENTED_EDGE('',*,*,#81,.T.);
#83=CARTESIAN_POINT('',(0.0,0.0,0.0));
#84=DIRECTION('',(-2.842171E-014,1.0,0.0));
#85=DIRECTION('',(-1.0,-2.842171E-014,0.0));
#86=AXIS2_PLACEMENT_3D('',#83,#84,#85);
#87=CIRCLE('',#86,3.375000000000000);
#88=EDGE_CURVE('',#75,#73,#87,.T.);
#89=ORIENTED_EDGE('',*,*,#88,.T.);
#90=EDGE_LOOP('',(#82,#89));
#91=FACE_BOUND('',#90,.T.);
#92=CARTESIAN_POINT('',(-3.375000000000028,0.0,-45.0));
#93=VERTEX_POINT('',#92);
#94=CARTESIAN_POINT('',(3.375000000000000,9.592327E-014,-45.0));
#95=VERTEX_POINT('',#94);
#96=CARTESIAN_POINT('',(0.0,0.0,-45.0));
#97=DIRECTION('',(-2.842171E-014,1.0,0.0));
#98=DIRECTION('',(-1.0,-2.842171E-014,0.0));
#99=AXIS2_PLACEMENT_3D('',#96,#97,#98);
#100=CIRCLE('',#99,3.375000000000000);
#101=EDGE_CURVE('',#93,#95,#100,.T.);
#102=ORIENTED_EDGE('',*,*,#101,.T.);
#103=CARTESIAN_POINT('',(0.0,0.0,-45.0));
#104=DIRECTION('',(-2.842171E-014,1.0,0.0));
#105=DIRECTION('',(-1.0,-2.842171E-014,0.0));
#106=AXIS2_PLACEMENT_3D('',#103,#104,#105);
#107=CIRCLE('',#106,3.375000000000000);
#108=EDGE_CURVE('',#95,#93,#107,.T.);
#109=ORIENTED_EDGE('',*,*,#108,.T.);
#110=EDGE_LOOP('',(#102,#109));
#111=FACE_BOUND('',#110,.T.);
#112=ADVANCED_FACE('',(#71,#91,#111),#46,.T.);
#113=CARTESIAN_POINT('',(6.499999999999801,0.0,-63.0));
#114=DIRECTION('',(1.0,0.0,0.0));
#115=DIRECTION('',(0.0,1.0,0.0));
#116=AXIS2_PLACEMENT_3D('',#113,#114,#115);
#117=PLANE('',#116);
#118=CARTESIAN_POINT('',(6.499999999999830,3.400000000000205,-63.0));
#119=VERTEX_POINT('',#118);
#120=CARTESIAN_POINT('',(6.499999999999801,0.0,-63.0));
#121=DIRECTION('',(0.0,1.0,0.0));
#122=VECTOR('',#121,3.400000000000205);
#123=LINE('',#120,#122);
#124=EDGE_CURVE('',#48,#119,#123,.T.);
#125=ORIENTED_EDGE('',*,*,#124,.T.);
#126=CARTESIAN_POINT('',(6.499999999999830,3.400000000000205,18.0));
#127=VERTEX_POINT('',#126);
#128=CARTESIAN_POINT('',(6.499999999999830,3.400000000000205,-63.0));
#129=DIRECTION('',(0.0,0.0,1.0));
#130=VECTOR('',#129,81.0);
#131=LINE('',#128,#130);
#132=EDGE_CURVE('',#119,#127,#131,.T.);
#133=ORIENTED_EDGE('',*,*,#132,.T.);
#134=CARTESIAN_POINT('',(6.499999999999801,0.0,18.0));
#135=DIRECTION('',(0.0,1.0,0.0));
#136=VECTOR('',#135,3.400000000000205);
#137=LINE('',#134,#136);
#138=EDGE_CURVE('',#56,#127,#137,.T.);
#139=ORIENTED_EDGE('',*,*,#138,.F.);
#140=ORIENTED_EDGE('',*,*,#61,.F.);
#141=EDGE_LOOP('',(#125,#133,#139,#140));
#142=FACE_OUTER_BOUND('',#141,.T.);
#143=ADVANCED_FACE('',(#142),#117,.T.);
#144=CARTESIAN_POINT('',(6.499999999999830,3.400000000000205,-63.0));
#145=DIRECTION('',(0.707106781186548,0.707106781186548,0.0));
#146=DIRECTION('',(-0.707106781186548,0.707106781186548,0.0));
#147=AXIS2_PLACEMENT_3D('',#144,#145,#146);
#148=PLANE('',#147);
#149=CARTESIAN_POINT('',(3.999999999999830,5.900000000000205,-63.0));
#150=VERTEX_POINT('',#149);
#151=CARTESIAN_POINT('',(6.499999999999830,3.400000000000205,-63.0));
#152=DIRECTION('',(-0.707106781186548,0.707106781186547,0.0));
#153=VECTOR('',#152,3.535533905932738);
#154=LINE('',#151,#153);
#155=EDGE_CURVE('',#119,#150,#154,.T.);
#156=ORIENTED_EDGE('',*,*,#155,.T.);
#157=CARTESIAN_POINT('',(3.999999999999830,5.900000000000205,18.0));
#158=VERTEX_POINT('',#157);
#159=CARTESIAN_POINT('',(3.999999999999830,5.900000000000205,-63.0));
#160=DIRECTION('',(0.0,0.0,1.0));
#161=VECTOR('',#160,81.0);
#162=LINE('',#159,#161);
#163=EDGE_CURVE('',#150,#158,#162,.T.);
#164=ORIENTED_EDGE('',*,*,#163,.T.);
#165=CARTESIAN_POINT('',(6.499999999999830,3.400000000000205,18.0));
#166=DIRECTION('',(-0.707106781186548,0.707106781186547,0.0));
#167=VECTOR('',#166,3.535533905932738);
#168=LINE('',#165,#167);
#169=EDGE_CURVE('',#127,#158,#168,.T.);
#170=ORIENTED_EDGE('',*,*,#169,.F.);
#171=ORIENTED_EDGE('',*,*,#132,.F.);
#172=EDGE_LOOP('',(#156,#164,#170,#171));
#173=FACE_OUTER_BOUND('',#172,.T.);
#174=ADVANCED_FACE('',(#173),#148,.T.);
#175=CARTESIAN_POINT('',(3.999999999999830,5.900000000000205,-63.0));
#176=DIRECTION('',(0.0,1.0,0.0));
#177=DIRECTION('',(-1.0,0.0,0.0));
#178=AXIS2_PLACEMENT_3D('',#175,#176,#177);
#179=PLANE('',#178);
#180=CARTESIAN_POINT('',(-4.000000000000199,5.899999999999977,-63.0));
#181=VERTEX_POINT('',#180);
#182=CARTESIAN_POINT('',(3.999999999999830,5.900000000000205,-63.0));
#183=DIRECTION('',(-1.0,0.0,0.0));
#184=VECTOR('',#183,8.000000000000028);
#185=LINE('',#182,#184);
#186=EDGE_CURVE('',#150,#181,#185,.T.);
#187=ORIENTED_EDGE('',*,*,#186,.T.);
#188=CARTESIAN_POINT('',(-4.000000000000199,5.899999999999977,18.0));
#189=VERTEX_POINT('',#188);
#190=CARTESIAN_POINT('',(-4.000000000000199,5.899999999999977,-63.0));
#191=DIRECTION('',(0.0,0.0,1.0));
#192=VECTOR('',#191,81.0);
#193=LINE('',#190,#192);
#194=EDGE_CURVE('',#181,#189,#193,.T.);
#195=ORIENTED_EDGE('',*,*,#194,.T.);
#196=CARTESIAN_POINT('',(3.999999999999830,5.900000000000205,18.0));
#197=DIRECTION('',(-1.0,0.0,0.0));
#198=VECTOR('',#197,8.000000000000028);
#199=LINE('',#196,#198);
#200=EDGE_CURVE('',#158,#189,#199,.T.);
#201=ORIENTED_EDGE('',*,*,#200,.F.);
#202=ORIENTED_EDGE('',*,*,#163,.F.);
#203=EDGE_LOOP('',(#187,#195,#201,#202));
#204=FACE_OUTER_BOUND('',#203,.T.);
#205=CARTESIAN_POINT('',(3.374999999999830,5.900000000000187,0.0));
#206=VERTEX_POINT('',#205);
#207=CARTESIAN_POINT('',(-3.375000000000171,5.899999999999977,0.0));
#208=VERTEX_POINT('',#207);
#209=CARTESIAN_POINT('',(-1.705303E-013,5.900000000000091,0.0));
#210=DIRECTION('',(-2.842171E-014,1.0,0.0));
#211=DIRECTION('',(-1.0,-2.842171E-014,0.0));
#212=AXIS2_PLACEMENT_3D('',#209,#210,#211);
#213=CIRCLE('',#212,3.375000000000000);
#214=EDGE_CURVE('',#206,#208,#213,.T.);
#215=ORIENTED_EDGE('',*,*,#214,.F.);
#216=CARTESIAN_POINT('',(-1.705303E-013,5.900000000000091,0.0));
#217=DIRECTION('',(-2.842171E-014,1.0,0.0));
#218=DIRECTION('',(-1.0,-2.842171E-014,0.0));
#219=AXIS2_PLACEMENT_3D('',#216,#217,#218);
#220=CIRCLE('',#219,3.375000000000000);
#221=EDGE_CURVE('',#208,#206,#220,.T.);
#222=ORIENTED_EDGE('',*,*,#221,.F.);
#223=EDGE_LOOP('',(#215,#222));
#224=FACE_BOUND('',#223,.T.);
#225=CARTESIAN_POINT('',(3.374999999999830,5.900000000000187,-45.0));
#226=VERTEX_POINT('',#225);
#227=CARTESIAN_POINT('',(-3.375000000000171,5.899999999999977,-45.0));
#228=VERTEX_POINT('',#227);
#229=CARTESIAN_POINT('',(-1.705303E-013,5.900000000000091,-45.0));
#230=DIRECTION('',(-2.842171E-014,1.0,0.0));
#231=DIRECTION('',(-1.0,-2.842171E-014,0.0));
#232=AXIS2_PLACEMENT_3D('',#229,#230,#231);
#233=CIRCLE('',#232,3.375000000000000);
#234=EDGE_CURVE('',#226,#228,#233,.T.);
#235=ORIENTED_EDGE('',*,*,#234,.F.);
#236=CARTESIAN_POINT('',(-1.705303E-013,5.900000000000091,-45.0));
#237=DIRECTION('',(-2.842171E-014,1.0,0.0));
#238=DIRECTION('',(-1.0,-2.842171E-014,0.0));
#239=AXIS2_PLACEMENT_3D('',#236,#237,#238);
#240=CIRCLE('',#239,3.375000000000000);
#241=EDGE_CURVE('',#228,#226,#240,.T.);
#242=ORIENTED_EDGE('',*,*,#241,.F.);
#243=EDGE_LOOP('',(#235,#242));
#244=FACE_BOUND('',#243,.T.);
#245=ADVANCED_FACE('',(#204,#224,#244),#179,.T.);
#246=CARTESIAN_POINT('',(-4.000000000000199,5.899999999999977,-63.0));
#247=DIRECTION('',(-0.707106781186548,0.707106781186548,0.0));
#248=DIRECTION('',(-0.707106781186548,-0.707106781186548,0.0));
#249=AXIS2_PLACEMENT_3D('',#246,#247,#248);
#250=PLANE('',#249);
#251=CARTESIAN_POINT('',(-4.000000000000199,5.899999999999977,-63.0));
#252=DIRECTION('',(-0.707106781186547,-0.707106781186548,0.0));
#253=VECTOR('',#252,3.535533905932738);
#254=LINE('',#251,#253);
#255=EDGE_CURVE('',#181,#8,#254,.T.);
#256=ORIENTED_EDGE('',*,*,#255,.T.);
#257=ORIENTED_EDGE('',*,*,#37,.T.);
#258=CARTESIAN_POINT('',(-4.000000000000199,5.899999999999977,18.0));
#259=DIRECTION('',(-0.707106781186547,-0.707106781186548,0.0));
#260=VECTOR('',#259,3.535533905932738);
#261=LINE('',#258,#260);
#262=EDGE_CURVE('',#189,#26,#261,.T.);
#263=ORIENTED_EDGE('',*,*,#262,.F.);
#264=ORIENTED_EDGE('',*,*,#194,.F.);
#265=EDGE_LOOP('',(#256,#257,#263,#264));
#266=FACE_OUTER_BOUND('',#265,.T.);
#267=ADVANCED_FACE('',(#266),#250,.T.);
#268=CARTESIAN_POINT('',(-7.800120002478110,-0.590120002463436,-63.0));
#269=DIRECTION('',(0.0,0.0,1.0));
#270=DIRECTION('',(1.0,0.0,0.0));
#271=AXIS2_PLACEMENT_3D('',#268,#269,#270);
#272=PLANE('',#271);
#273=ORIENTED_EDGE('',*,*,#255,.F.);
#274=ORIENTED_EDGE('',*,*,#186,.F.);
#275=ORIENTED_EDGE('',*,*,#155,.F.);
#276=ORIENTED_EDGE('',*,*,#124,.F.);
#277=ORIENTED_EDGE('',*,*,#53,.F.);
#278=ORIENTED_EDGE('',*,*,#15,.F.);
#279=EDGE_LOOP('',(#273,#274,#275,#276,#277,#278));
#280=FACE_OUTER_BOUND('',#279,.T.);
#281=ADVANCED_FACE('',(#280),#272,.F.);
#282=CARTESIAN_POINT('',(-7.800120002478110,-0.590120002463436,18.0));
#283=DIRECTION('',(0.0,0.0,1.0));
#284=DIRECTION('',(1.0,0.0,0.0));
#285=AXIS2_PLACEMENT_3D('',#282,#283,#284);
#286=PLANE('',#285);
#287=ORIENTED_EDGE('',*,*,#31,.T.);
#288=ORIENTED_EDGE('',*,*,#67,.T.);
#289=ORIENTED_EDGE('',*,*,#138,.T.);
#290=ORIENTED_EDGE('',*,*,#169,.T.);
#291=ORIENTED_EDGE('',*,*,#200,.T.);
#292=ORIENTED_EDGE('',*,*,#262,.T.);
#293=EDGE_LOOP('',(#287,#288,#289,#290,#291,#292));
#294=FACE_OUTER_BOUND('',#293,.T.);
#295=ADVANCED_FACE('',(#294),#286,.T.);
#296=CARTESIAN_POINT('',(-1.705303E-013,5.900000000000091,0.0));
#297=DIRECTION('',(-2.842171E-014,1.0,0.0));
#298=DIRECTION('',(-1.0,-2.842171E-014,0.0));
#299=AXIS2_PLACEMENT_3D('',#296,#297,#298);
#300=CYLINDRICAL_SURFACE('',#299,3.375000000000000);
#301=CARTESIAN_POINT('',(-3.375000000000171,5.899999999999977,0.0));
#302=DIRECTION('',(0.0,-1.0,0.0));
#303=VECTOR('',#302,5.899999999999977);
#304=LINE('',#301,#303);
#305=EDGE_CURVE('',#208,#73,#304,.T.);
#306=ORIENTED_EDGE('',*,*,#305,.T.);
#307=ORIENTED_EDGE('',*,*,#88,.F.);
#308=ORIENTED_EDGE('',*,*,#81,.F.);
#309=ORIENTED_EDGE('',*,*,#305,.F.);
#310=ORIENTED_EDGE('',*,*,#221,.T.);
#311=ORIENTED_EDGE('',*,*,#214,.T.);
#312=EDGE_LOOP('',(#306,#307,#308,#309,#310,#311));
#313=FACE_OUTER_BOUND('',#312,.T.);
#314=ADVANCED_FACE('',(#313),#300,.F.);
#315=CARTESIAN_POINT('',(-1.705303E-013,5.900000000000091,-45.0));
#316=DIRECTION('',(-2.842171E-014,1.0,0.0));
#317=DIRECTION('',(-1.0,-2.842171E-014,0.0));
#318=AXIS2_PLACEMENT_3D('',#315,#316,#317);
#319=CYLINDRICAL_SURFACE('',#318,3.375000000000000);
#320=CARTESIAN_POINT('',(-3.375000000000171,5.899999999999977,-45.0));
#321=DIRECTION('',(0.0,-1.0,0.0));
#322=VECTOR('',#321,5.899999999999976);
#323=LINE('',#320,#322);
#324=EDGE_CURVE('',#228,#93,#323,.T.);
#325=ORIENTED_EDGE('',*,*,#324,.T.);
#326=ORIENTED_EDGE('',*,*,#108,.F.);
#327=ORIENTED_EDGE('',*,*,#101,.F.);
#328=ORIENTED_EDGE('',*,*,#324,.F.);
#329=ORIENTED_EDGE('',*,*,#241,.T.);
#330=ORIENTED_EDGE('',*,*,#234,.T.);
#331=EDGE_LOOP('',(#325,#326,#327,#328,#329,#330));
#332=FACE_OUTER_BOUND('',#331,.T.);
#333=ADVANCED_FACE('',(#332),#319,.F.);
#334=CLOSED_SHELL('',(#41,#112,#143,#174,#245,#267,#281,#295,#314,#333));
#335=MANIFOLD_SOLID_BREP('',#334);
#341=(NAMED_UNIT(*)PLANE_ANGLE_UNIT()SI_UNIT($,.RADIAN.));
#342=DIMENSIONAL_EXPONENTS(0.0,0.0,0.0,0.0,0.0,0.0,0.0);
#343=PLANE_ANGLE_MEASURE_WITH_UNIT(PLANE_ANGLE_MEASURE(0.017453292500000),#341);
#347=(CONVERSION_BASED_UNIT('DEGREE',#343)NAMED_UNIT(#342)PLANE_ANGLE_UNIT());
#351=(NAMED_UNIT(*)SI_UNIT($,.STERADIAN.)SOLID_ANGLE_UNIT());
#355=(LENGTH_UNIT()NAMED_UNIT(*)SI_UNIT(.MILLI.,.METRE.));
#357=UNCERTAINTY_MEASURE_WITH_UNIT(LENGTH_MEASURE(0.001000000000000),#355,'DISTANCE_ACCURACY_VALUE','');
#359=(GEOMETRIC_REPRESENTATION_CONTEXT(3)GLOBAL_UNCERTAINTY_ASSIGNED_CONTEXT((#357))GLOBAL_UNIT_ASSIGNED_CONTEXT((#347,#351,#355))REPRESENTATION_CONTEXT('thinkdesign','2009.3.110'));
#360=ADVANCED_BREP_SHAPE_REPRESENTATION('',(#335),#359);
#361=APPLICATION_CONTEXT('configuration controlled 3D designs of mechanical parts and assemblies');
#362=APPLICATION_PROTOCOL_DEFINITION('International Standard','config_control_design',1995,#361);
#363=MECHANICAL_CONTEXT('None',#361,'mechanical');
#364=PRODUCT('None','None','None',(#363));
#365=PRODUCT_RELATED_PRODUCT_CATEGORY('detail',$,(#364));
#366=PRODUCT_CATEGORY('part',$);
#367=PRODUCT_CATEGORY_RELATIONSHIP('None','None',#366,#365);
#368=PERSON('PERSON1','None','None',$,$,$);
#369=ORGANIZATION('','None','None');
#370=PERSON_AND_ORGANIZATION(#368,#369);
#371=PERSON_AND_ORGANIZATION_ROLE('design_owner');
#372=CC_DESIGN_PERSON_AND_ORGANIZATION_ASSIGNMENT(#370,#371,(#364));
#373=PRODUCT_DEFINITION_FORMATION_WITH_SPECIFIED_SOURCE('None','None',#364,.NOT_KNOWN.);
#374=PERSON('PERSON2','None','None',$,$,$);
#375=ORGANIZATION('','None','None');
#376=PERSON_AND_ORGANIZATION(#374,#375);
#377=PERSON_AND_ORGANIZATION_ROLE('creator');
#378=CC_DESIGN_PERSON_AND_ORGANIZATION_ASSIGNMENT(#376,#377,(#373));
#379=PERSON('PERSON3','None','None',$,$,$);
#380=ORGANIZATION('','None','None');
#381=PERSON_AND_ORGANIZATION(#379,#380);
#382=PERSON_AND_ORGANIZATION_ROLE('part_supplier');
#383=CC_DESIGN_PERSON_AND_ORGANIZATION_ASSIGNMENT(#381,#382,(#373));
#384=APPROVAL_STATUS('approved');
#385=APPROVAL(#384,'None');
#386=PERSON('PERSON4','None','None',$,$,$);
#387=ORGANIZATION('','None','None');
#388=PERSON_AND_ORGANIZATION(#386,#387);
#389=APPROVAL_ROLE('None');
#390=APPROVAL_PERSON_ORGANIZATION(#388,#385,#389);
#391=CALENDAR_DATE(2011,21,3);
#392=COORDINATED_UNIVERSAL_TIME_OFFSET(0,0,.AHEAD.);
#393=LOCAL_TIME(16,15,6.0,#392);
#394=DATE_AND_TIME(#391,#393);
#395=APPROVAL_DATE_TIME(#394,#385);
#396=CC_DESIGN_APPROVAL(#385,(#373));
#397=SECURITY_CLASSIFICATION_LEVEL('unclassified');
#398=SECURITY_CLASSIFICATION('None','None',#397);
#399=CC_DESIGN_SECURITY_CLASSIFICATION(#398,(#373));
#400=APPROVAL_STATUS('approved');
#401=APPROVAL(#400,'None');
#402=PERSON('PERSON5','None','None',$,$,$);
#403=ORGANIZATION('','None','None');
#404=PERSON_AND_ORGANIZATION(#402,#403);
#405=APPROVAL_ROLE('None');
#406=APPROVAL_PERSON_ORGANIZATION(#404,#401,#405);
#407=CALENDAR_DATE(2011,21,3);
#408=COORDINATED_UNIVERSAL_TIME_OFFSET(0,0,.AHEAD.);
#409=LOCAL_TIME(16,15,6.0,#408);
#410=DATE_AND_TIME(#407,#409);
#411=APPROVAL_DATE_TIME(#410,#401);
#412=CC_DESIGN_APPROVAL(#401,(#398));
#413=PERSON('PERSON6','None','None',$,$,$);
#414=ORGANIZATION('','None','None');
#415=PERSON_AND_ORGANIZATION(#413,#414);
#416=PERSON_AND_ORGANIZATION_ROLE('classification_officer');
#417=CC_DESIGN_PERSON_AND_ORGANIZATION_ASSIGNMENT(#415,#416,(#398));
#418=DATE_TIME_ROLE('classification_date');
#419=CALENDAR_DATE(2011,21,3);
#420=COORDINATED_UNIVERSAL_TIME_OFFSET(0,0,.AHEAD.);
#421=LOCAL_TIME(16,15,6.0,#420);
#422=DATE_AND_TIME(#419,#421);
#423=CC_DESIGN_DATE_AND_TIME_ASSIGNMENT(#422,#418,(#398));
#424=DESIGN_CONTEXT('part definition',#361,'design');
#425=DOCUMENT_TYPE('cad_filename');
#426=DOCUMENT('None','None','None',#425);
#427=PRODUCT_DEFINITION_WITH_ASSOCIATED_DOCUMENTS('None','None',#373,#424,(#426));
#428=PERSON('PERSON7','None','None',$,$,$);
#429=ORGANIZATION('','None','None');
#430=PERSON_AND_ORGANIZATION(#428,#429);
#431=PERSON_AND_ORGANIZATION_ROLE('creator');
#432=CC_DESIGN_PERSON_AND_ORGANIZATION_ASSIGNMENT(#430,#431,(#427));
#433=DATE_TIME_ROLE('creation_date');
#434=CALENDAR_DATE(2011,21,3);
#435=COORDINATED_UNIVERSAL_TIME_OFFSET(0,0,.AHEAD.);
#436=LOCAL_TIME(16,15,6.0,#435);
#437=DATE_AND_TIME(#434,#436);
#438=CC_DESIGN_DATE_AND_TIME_ASSIGNMENT(#437,#433,(#427));
#439=APPROVAL_STATUS('approved');
#440=APPROVAL(#439,'None');
#441=PERSON('PERSON8','None','None',$,$,$);
#442=ORGANIZATION('','None','None');
#443=PERSON_AND_ORGANIZATION(#441,#442);
#444=APPROVAL_ROLE('None');
#445=APPROVAL_PERSON_ORGANIZATION(#443,#440,#444);
#446=CALENDAR_DATE(2011,21,3);
#447=COORDINATED_UNIVERSAL_TIME_OFFSET(0,0,.AHEAD.);
#448=LOCAL_TIME(16,15,6.0,#447);
#449=DATE_AND_TIME(#446,#448);
#450=APPROVAL_DATE_TIME(#449,#440);
#451=CC_DESIGN_APPROVAL(#440,(#427));
#452=PRODUCT_DEFINITION_SHAPE('None','None',#427);
#453=SHAPE_DEFINITION_REPRESENTATION(#452,#360);
#454=DIMENSIONAL_EXPONENTS(0.0,0.0,0.0,0.0,0.0,0.0,0.0);
#455=DIMENSIONAL_EXPONENTS(1.0,0.0,0.0,0.0,0.0,0.0,0.0);
ENDSEC;
END-ISO-10303-21;
