  0
SECTION
  2
HEADER
  9
$ACADVER
  1
AC1015
  9
$ACADMAINTVER
 70
    20
  9
$DWGCODEPAGE
  3
ANSI_1252
  9
$INSBASE
 10
0.0
 20
0.0
 30
0.0
  9
$EXTMIN
 10
-6.5
 20
-18.0
 30
0.0
  9
$EXTMAX
 10
6.500000000000142
 20
104.7100756784933
 30
0.0
  9
$LIMMIN
 10
0.0
 20
0.0
  9
$LIMMAX
 10
420.0
 20
300.0
  9
$ORTHOMODE
 70
     0
  9
$REGENMODE
 70
     1
  9
$FILLMODE
 70
     1
  9
$QTEXTMODE
 70
     0
  9
$MIRRTEXT
 70
     0
  9
$LTSCALE
 40
1.0
  9
$ATTMODE
 70
     1
  9
$TEXTSIZE
 40
3.0
  9
$TRACEWID
 40
0.05
  9
$TEXTSTYLE
  7
ROMANS
  9
$CLAYER
  8
P-0000
  9
$CELTYPE
  6
CONTINUOUS
  9
$CECOLOR
 62
     3
  9
$CELTSCALE
 40
1.0
  9
$DISPSILH
 70
     0
  9
$DIMSCALE
 40
1.0
  9
$DIMASZ
 40
2.0
  9
$DIMEXO
 40
1.0
  9
$DIMDLI
 40
10.0
  9
$DIMRND
 40
0.0
  9
$DIMDLE
 40
0.0
  9
$DIMEXE
 40
1.5
  9
$DIMTP
 40
0.0
  9
$DIMTM
 40
0.0
  9
$DIMTXT
 40
2.0
  9
$DIMCEN
 40
2.0
  9
$DIMTSZ
 40
0.0
  9
$DIMTOL
 70
     0
  9
$DIMLIM
 70
     0
  9
$DIMTIH
 70
     0
  9
$DIMTOH
 70
     0
  9
$DIMSE1
 70
     0
  9
$DIMSE2
 70
     0
  9
$DIMTAD
 70
     1
  9
$DIMZIN
 70
     8
  9
$DIMBLK
  1

  9
$DIMASO
 70
     1
  9
$DIMSHO
 70
     1
  9
$DIMPOST
  1

  9
$DIMAPOST
  1

  9
$DIMALT
 70
     0
  9
$DIMALTD
 70
     2
  9
$DIMALTF
 40
25.4
  9
$DIMLFAC
 40
1.0
  9
$DIMTOFL
 70
     1
  9
$DIMTVP
 40
0.0
  9
$DIMTIX
 70
     0
  9
$DIMSOXD
 70
     0
  9
$DIMSAH
 70
     0
  9
$DIMBLK1
  1

  9
$DIMBLK2
  1

  9
$DIMSTYLE
  2
ACADTOP
  9
$DIMCLRD
 70
     2
  9
$DIMCLRE
 70
     2
  9
$DIMCLRT
 70
     1
  9
$DIMTFAC
 40
0.6
  9
$DIMGAP
 40
1.0
  9
$DIMJUST
 70
     0
  9
$DIMSD1
 70
     0
  9
$DIMSD2
 70
     0
  9
$DIMTOLJ
 70
     1
  9
$DIMTZIN
 70
     8
  9
$DIMALTZ
 70
     0
  9
$DIMALTTZ
 70
     0
  9
$DIMUPT
 70
     0
  9
$DIMDEC
 70
     2
  9
$DIMTDEC
 70
     2
  9
$DIMALTU
 70
     2
  9
$DIMALTTD
 70
     2
  9
$DIMTXSTY
  7
Stile_Quota
  9
$DIMAUNIT
 70
     0
  9
$DIMADEC
 70
     1
  9
$DIMALTRND
 40
0.0
  9
$DIMAZIN
 70
     2
  9
$DIMDSEP
 70
    46
  9
$DIMATFIT
 70
     0
  9
$DIMFRAC
 70
     0
  9
$DIMLDRBLK
  1

  9
$DIMLUNIT
 70
     2
  9
$DIMLWD
 70
    -2
  9
$DIMLWE
 70
    -2
  9
$DIMTMOVE
 70
     0
  9
$LUNITS
 70
     2
  9
$LUPREC
 70
     3
  9
$SKETCHINC
 40
0.1
  9
$FILLETRAD
 40
0.0
  9
$AUNITS
 70
     0
  9
$AUPREC
 70
     3
  9
$MENU
  1
.
  9
$ELEVATION
 40
0.0
  9
$PELEVATION
 40
0.0
  9
$THICKNESS
 40
0.0
  9
$LIMCHECK
 70
     0
  9
$CHAMFERA
 40
2.5
  9
$CHAMFERB
 40
2.5
  9
$CHAMFERC
 40
1.0
  9
$CHAMFERD
 40
0.0
  9
$SKPOLY
 70
     1
  9
$TDCREATE
 40
2455127.407986134
  9
$TDUCREATE
 40
2455127.366319468
  9
$TDUPDATE
 40
2455637.609098646
  9
$TDUUPDATE
 40
2455637.567431979
  9
$TDINDWG
 40
0.0099017361
  9
$TDUSRTIMER
 40
0.0099017361
  9
$USRTIMER
 70
     1
  9
$ANGBASE
 50
0.0
  9
$ANGDIR
 70
     0
  9
$PDMODE
 70
     0
  9
$PDSIZE
 40
0.0
  9
$PLINEWID
 40
0.0
  9
$SPLFRAME
 70
     0
  9
$SPLINETYPE
 70
     6
  9
$SPLINESEGS
 70
     8
  9
$HANDSEED
  5
C10
  9
$SURFTAB1
 70
     6
  9
$SURFTAB2
 70
     6
  9
$SURFTYPE
 70
     6
  9
$SURFU
 70
     6
  9
$SURFV
 70
     6
  9
$UCSBASE
  2

  9
$UCSNAME
  2

  9
$UCSORG
 10
0.0
 20
0.0
 30
0.0
  9
$UCSXDIR
 10
1.0
 20
0.0
 30
0.0
  9
$UCSYDIR
 10
0.0
 20
1.0
 30
0.0
  9
$UCSORTHOREF
  2

  9
$UCSORTHOVIEW
 70
     0
  9
$UCSORGTOP
 10
0.0
 20
0.0
 30
0.0
  9
$UCSORGBOTTOM
 10
0.0
 20
0.0
 30
0.0
  9
$UCSORGLEFT
 10
0.0
 20
0.0
 30
0.0
  9
$UCSORGRIGHT
 10
0.0
 20
0.0
 30
0.0
  9
$UCSORGFRONT
 10
0.0
 20
0.0
 30
0.0
  9
$UCSORGBACK
 10
0.0
 20
0.0
 30
0.0
  9
$PUCSBASE
  2

  9
$PUCSNAME
  2

  9
$PUCSORG
 10
0.0
 20
0.0
 30
0.0
  9
$PUCSXDIR
 10
1.0
 20
0.0
 30
0.0
  9
$PUCSYDIR
 10
0.0
 20
1.0
 30
0.0
  9
$PUCSORTHOREF
  2

  9
$PUCSORTHOVIEW
 70
     0
  9
$PUCSORGTOP
 10
0.0
 20
0.0
 30
0.0
  9
$PUCSORGBOTTOM
 10
0.0
 20
0.0
 30
0.0
  9
$PUCSORGLEFT
 10
0.0
 20
0.0
 30
0.0
  9
$PUCSORGRIGHT
 10
0.0
 20
0.0
 30
0.0
  9
$PUCSORGFRONT
 10
0.0
 20
0.0
 30
0.0
  9
$PUCSORGBACK
 10
0.0
 20
0.0
 30
0.0
  9
$USERI1
 70
     0
  9
$USERI2
 70
     0
  9
$USERI3
 70
     0
  9
$USERI4
 70
     0
  9
$USERI5
 70
     0
  9
$USERR1
 40
0.0
  9
$USERR2
 40
0.0
  9
$USERR3
 40
0.0
  9
$USERR4
 40
0.0
  9
$USERR5
 40
0.0
  9
$WORLDVIEW
 70
     1
  9
$SHADEDGE
 70
     3
  9
$SHADEDIF
 70
    70
  9
$TILEMODE
 70
     1
  9
$MAXACTVP
 70
    48
  9
$PINSBASE
 10
0.0
 20
0.0
 30
0.0
  9
$PLIMCHECK
 70
     0
  9
$PEXTMIN
 10
1.000000000000000E+20
 20
1.000000000000000E+20
 30
1.000000000000000E+20
  9
$PEXTMAX
 10
-1.000000000000000E+20
 20
-1.000000000000000E+20
 30
-1.000000000000000E+20
  9
$PLIMMIN
 10
0.0
 20
0.0
  9
$PLIMMAX
 10
12.0
 20
9.0
  9
$UNITMODE
 70
     0
  9
$VISRETAIN
 70
     1
  9
$PLINEGEN
 70
     0
  9
$PSLTSCALE
 70
     1
  9
$TREEDEPTH
 70
  3020
  9
$CMLSTYLE
  2
STANDARD
  9
$CMLJUST
 70
     0
  9
$CMLSCALE
 40
1.0
  9
$PROXYGRAPHICS
 70
     1
  9
$MEASUREMENT
 70
     1
  9
$CELWEIGHT
370
    -1
  9
$ENDCAPS
280
     0
  9
$JOINSTYLE
280
     0
  9
$LWDISPLAY
290
     0
  9
$INSUNITS
 70
     0
  9
$HYPERLINKBASE
  1

  9
$STYLESHEET
  1

  9
$XEDIT
290
     1
  9
$CEPSNTYPE
380
     0
  9
$PSTYLEMODE
290
     1
  9
$FINGERPRINTGUID
  2
{BB815C7F-8DAE-4EAE-9C42-644D5FFDFAB0}
  9
$VERSIONGUID
  2
{B2CB7E0F-2188-41A9-9978-B5E993D1E80E}
  9
$EXTNAMES
290
     1
  9
$PSVPSCALE
 40
0.0
  9
$OLESTARTUP
290
     0
  0
ENDSEC
  0
SECTION
  2
CLASSES
  0
CLASS
  1
DICTIONARYVAR
  2
AcDbDictionaryVar
  3
ObjectDBX Classes
 90
        0
280
     0
281
     0
  0
CLASS
  1
ACDBDICTIONARYWDFLT
  2
AcDbDictionaryWithDefault
  3
ObjectDBX Classes
 90
        0
280
     0
281
     0
  0
CLASS
  1
ACDBPLACEHOLDER
  2
AcDbPlaceHolder
  3
ObjectDBX Classes
 90
        0
280
     0
281
     0
  0
CLASS
  1
LAYOUT
  2
AcDbLayout
  3
ObjectDBX Classes
 90
        0
280
     0
281
     0
  0
CLASS
  1
PLOTSETTINGS
  2
AcDbPlotSettings
  3
ObjectDBX Classes
 90
        0
280
     0
281
     0
  0
CLASS
  1
MATERIAL
  2
AcDbMaterial
  3
ObjectDBX Classes
 90
     1153
280
     0
281
     0
  0
CLASS
  1
VISUALSTYLE
  2
AcDbVisualStyle
  3
ObjectDBX Classes
 90
     4095
280
     0
281
     0
  0
CLASS
  1
TABLESTYLE
  2
AcDbTableStyle
  3
ObjectDBX Classes
 90
     4095
280
     0
281
     0
  0
CLASS
  1
SCALE
  2
AcDbScale
  3
ObjectDBX Classes
 90
     1153
280
     0
281
     0
  0
CLASS
  1
MLEADERSTYLE
  2
AcDbMLeaderStyle
  3
ACDB_MLEADERSTYLE_CLASS
 90
     4095
280
     0
281
     0
  0
CLASS
  1
CELLSTYLEMAP
  2
AcDbCellStyleMap
  3
ObjectDBX Classes
 90
     1152
280
     0
281
     0
  0
CLASS
  1
DIMASSOC
  2
AcDbDimAssoc
  3
"AcDbDimAssoc|Product Desc:     AcDim ARX App For Dimension|Company:          Autodesk, Inc.|WEB Address:      www.autodesk.com"
 90
        0
280
     0
281
     0
  0
CLASS
  1
ACDBQSCATEGORY
  2
AcQsCategory
  3
categories
 90
     1024
280
     0
281
     0
  0
CLASS
  1
SORTENTSTABLE
  2
AcDbSortentsTable
  3
ObjectDBX Classes
 90
        0
280
     0
281
     0
  0
CLASS
  1
ACDBQSPALLSTYLE
  2
AcQsPallStyle
  3
pallcart
 90
     1024
280
     0
281
     0
  0
CLASS
  1
ACAD_EVALUATION_GRAPH
  2
AcDbEvalGraph
  3
ObjectDBX Classes
 90
     1153
280
     0
281
     0
  0
CLASS
  1
BLOCKLINEARPARAMETER
  2
AcDbBlockLinearParameter
  3
ObjectDBX Classes
 90
     1153
280
     0
281
     0
  0
CLASS
  1
BLOCKLINEARGRIP
  2
AcDbBlockLinearGrip
  3
ObjectDBX Classes
 90
     1153
280
     0
281
     0
  0
CLASS
  1
BLOCKGRIPLOCATIONCOMPONENT
  2
AcDbBlockGripExpr
  3
ObjectDBX Classes
 90
     1153
280
     0
281
     0
  0
CLASS
  1
BLOCKSTRETCHACTION
  2
AcDbBlockStretchAction
  3
ObjectDBX Classes
 90
     1153
280
     0
281
     0
  0
CLASS
  1
ACDB_DYNAMICBLOCKPURGEPREVENTER_VERSION
  2
AcDbDynamicBlockPurgePreventer
  3
ObjectDBX Classes
 90
     1153
280
     0
281
     0
  0
CLASS
  1
ACDB_BLOCKREPRESENTATION_DATA
  2
AcDbBlockRepresentationData
  3
ObjectDBX Classes
 90
     1153
280
     0
281
     0
  0
ENDSEC
  0
SECTION
  2
TABLES
  0
TABLE
  2
VPORT
  5
12
102
{ACAD_XDICTIONARY
360
300
102
}
330
0
100
AcDbSymbolTable
 70
     1
  0
VPORT
  5
2AE
330
12
100
AcDbSymbolTableRecord
100
AcDbViewportTableRecord
  2
*Active
 70
     0
 10
0.0
 20
0.0
 11
1.0
 21
1.0
 12
0.0000000000000853
 22
43.35503783924667
 13
0.0
 23
0.0
 14
1.0
 24
1.0
 15
1.0
 25
1.0
 16
0.0
 26
0.0
 36
1.0
 17
0.0
 27
0.0
 37
0.0
 40
123.6112512648715
 41
2.251225490196078
 42
50.0
 43
0.0
 44
0.0
 50
0.0
 51
0.0
 71
     0
 72
   100
 73
     1
 74
     0
 75
     0
 76
     0
 77
     0
 78
     0
281
     0
 65
     1
110
0.0
120
0.0
130
0.0
111
1.0
121
0.0
131
0.0
112
0.0
122
1.0
132
0.0
 79
     0
146
0.0
  0
ENDTAB
  0
TABLE
  2
LTYPE
  5
D
330
0
100
AcDbSymbolTable
 70
     6
  0
LTYPE
  5
E
330
D
100
AcDbSymbolTableRecord
100
AcDbLinetypeTableRecord
  2
BYBLOCK
 70
     0
  3

 72
    65
 73
     0
 40
0.0
  0
LTYPE
  5
F
330
D
100
AcDbSymbolTableRecord
100
AcDbLinetypeTableRecord
  2
BYLAYER
 70
     0
  3

 72
    65
 73
     0
 40
0.0
  0
LTYPE
  5
5
330
D
100
AcDbSymbolTableRecord
100
AcDbLinetypeTableRecord
  2
CONTINUOUS
 70
     0
  3
Solid line
 72
    65
 73
     0
 40
0.0
  0
LTYPE
  5
3E
330
D
100
AcDbSymbolTableRecord
100
AcDbLinetypeTableRecord
  2
ASSI
 70
     0
  3
-.-.-.-.-.-.-.-.-.-.-.-.-.-.-.-.-.-.-.-.-.-.-.-
 72
    65
 73
     4
 40
16.0
 49
10.0
 74
     0
 49
-2.0
 74
     0
 49
2.0
 74
     0
 49
-2.0
 74
     0
  0
LTYPE
  5
3F
330
D
100
AcDbSymbolTableRecord
100
AcDbLinetypeTableRecord
  2
INGOMBRI
 70
     0
  3
--..--..--..--..--..--..--..--..--..--..--..--
 72
    65
 73
     6
 40
20.0
 49
10.0
 74
     0
 49
-2.0
 74
     0
 49
2.0
 74
     0
 49
-2.0
 74
     0
 49
2.0
 74
     0
 49
-2.0
 74
     0
  0
LTYPE
  5
40
330
D
100
AcDbSymbolTableRecord
100
AcDbLinetypeTableRecord
  2
TRATTEGGIO
 70
     0
  3
- - - - - - - - - - - - - - - - - - - - - -
 72
    65
 73
     2
 40
5.5
 49
4.0
 74
     0
 49
-1.5
 74
     0
  0
LTYPE
  5
277
330
D
100
AcDbSymbolTableRecord
100
AcDbLinetypeTableRecord
  2
PUNTO
 70
     0
  3
Punto . . . . . . . . . . . . . . . . . . . . .
 72
    65
 73
     2
 40
6.349999999999999
 49
0.0
 74
     0
 49
-6.349999999999999
 74
     0
  0
LTYPE
  5
795
330
D
100
AcDbSymbolTableRecord
100
AcDbLinetypeTableRecord
  2
DASHDOT2
 70
     0
  3
_._._._._._._._._._._._._._._._._._._._._._._._
 72
    65
 73
     4
 40
0.5
 49
0.25
 74
     0
 49
-0.125
 74
     0
 49
0.0
 74
     0
 49
-0.125
 74
     0
  0
ENDTAB
  0
TABLE
  2
LAYER
  5
A
102
{ACAD_XDICTIONARY
360
7A0
102
}
330
0
100
AcDbSymbolTable
 70
     5
  0
LAYER
  5
4
102
{ACAD_XDICTIONARY
360
37B
102
}
330
A
100
AcDbSymbolTableRecord
100
AcDbLayerTableRecord
  2
0
 70
     0
 62
     7
  6
CONTINUOUS
370
    -3
390
44
  0
LAYER
  5
118
330
A
100
AcDbSymbolTableRecord
100
AcDbLayerTableRecord
  2
Defpoints
 70
     0
 62
     7
  6
CONTINUOUS
290
     0
370
    -3
390
44
  0
LAYER
  5
6DB
102
{ACAD_XDICTIONARY
360
A8E
102
}
330
A
100
AcDbSymbolTableRecord
100
AcDbLayerTableRecord
  2
P-0000
 70
     0
 62
     7
  6
CONTINUOUS
370
    -3
390
44
1001
AcAecLayerStandard
1000

1000
CURSORE ZINCATO 13x6x81 CON 
  0
LAYER
  5
6F1
102
{ACAD_XDICTIONARY
360
A90
102
}
330
A
100
AcDbSymbolTableRecord
100
AcDbLayerTableRecord
  2
COSTRUZIONE
 70
     0
 62
     7
  6
CONTINUOUS
370
    -3
390
44
  0
LAYER
  5
75C
102
{ACAD_XDICTIONARY
360
A92
102
}
330
A
100
AcDbSymbolTableRecord
100
AcDbLayerTableRecord
  2
P-76EC
 70
     0
 62
     7
  6
CONTINUOUS
370
    -3
390
44
1001
AcAecLayerStandard
1000

1000
.cart
  0
ENDTAB
  0
TABLE
  2
STYLE
  5
B
330
0
100
AcDbSymbolTable
 70
     9
  0
STYLE
  5
C
330
B
100
AcDbSymbolTableRecord
100
AcDbTextStyleTableRecord
  2
STANDARD
 70
     0
 40
0.0
 41
0.8
 50
0.0
 71
     0
 42
0.2
  3
romans.shx
  4

  0
STYLE
  5
1B
330
B
100
AcDbSymbolTableRecord
100
AcDbTextStyleTableRecord
  2
ROMANS
 70
     0
 40
0.0
 41
0.8
 50
0.0
 71
     0
 42
3.0
  3
ROMANS.shx
  4

  0
STYLE
  5
25
330
B
100
AcDbSymbolTableRecord
100
AcDbTextStyleTableRecord
  2

 70
     1
 40
0.0
 41
1.0
 50
0.0
 71
     0
 42
0.2
  3
ltypeshp.shx
  4

  0
STYLE
  5
35C
330
B
100
AcDbSymbolTableRecord
100
AcDbTextStyleTableRecord
  2
Stile_Quota
 70
     0
 40
0.0
 41
1.0
 50
0.0
 71
     0
 42
3.0
  3
BOD_I.TTF
  4

1001
ACAD
1000
Bodoni MT
1071
 16777234
  0
STYLE
  5
635
330
B
100
AcDbSymbolTableRecord
100
AcDbTextStyleTableRecord
  2
Stile_Quota_FISSO
 70
     0
 40
20.0
 41
1.0
 50
0.0
 71
     0
 42
3.0
  3
BOD_I.TTF
  4

1001
ACAD
1000
Bodoni MT
1071
 16777234
  0
STYLE
  5
796
330
B
100
AcDbSymbolTableRecord
100
AcDbTextStyleTableRecord
  2
STYLE1
 70
     0
 40
0.0
 41
1.0
 50
0.0
 71
     0
 42
3.0
  3
eurr____.ttf
  4

1001
ACAD
1000
EuroRoman
1071
      514
  0
STYLE
  5
797
330
B
100
AcDbSymbolTableRecord
100
AcDbTextStyleTableRecord
  2
arial_ttf
 70
     0
 40
0.0
 41
1.0
 50
0.0
 71
     0
 42
0.2
  3
arial.ttf
  4

1001
ACAD
1000
Arial
1071
        2
  0
STYLE
  5
798
330
B
100
AcDbSymbolTableRecord
100
AcDbTextStyleTableRecord
  2
seansi_ttf
 70
     0
 40
0.0
 41
1.0
 50
0.0
 71
     0
 42
0.2
  3
seansi.ttf
  4

  0
STYLE
  5
799
330
B
100
AcDbSymbolTableRecord
100
AcDbTextStyleTableRecord
  2
Stile_Cart
 70
     0
 40
0.0
 41
1.0
 50
0.0
 71
     0
 42
1.5
  3
times.ttf
  4

1001
ACAD
1000
Times New Roman
1071
       18
  0
ENDTAB
  0
TABLE
  2
VIEW
  5
10
330
0
100
AcDbSymbolTable
 70
     0
  0
ENDTAB
  0
TABLE
  2
UCS
  5
11
330
0
100
AcDbSymbolTable
 70
     0
  0
ENDTAB
  0
TABLE
  2
APPID
  5
14
330
0
100
AcDbSymbolTable
 70
    19
  0
APPID
  5
15
330
14
100
AcDbSymbolTableRecord
100
AcDbRegAppTableRecord
  2
ACAD
 70
     0
  0
APPID
  5
53
330
14
100
AcDbSymbolTableRecord
100
AcDbRegAppTableRecord
  2
TOP
 70
     0
  0
APPID
  5
356
330
14
100
AcDbSymbolTableRecord
100
AcDbRegAppTableRecord
  2
ACAD_MLEADERVER
 70
     0
  0
APPID
  5
35A
330
14
100
AcDbSymbolTableRecord
100
AcDbRegAppTableRecord
  2
ACAD_DSTYLE_DIMJAG
 70
     0
  0
APPID
  5
35B
330
14
100
AcDbSymbolTableRecord
100
AcDbRegAppTableRecord
  2
ACAD_DSTYLE_DIMTALN
 70
     0
  0
APPID
  5
35D
330
14
100
AcDbSymbolTableRecord
100
AcDbRegAppTableRecord
  2
AcadAnnoPO
 70
     0
  0
APPID
  5
374
330
14
100
AcDbSymbolTableRecord
100
AcDbRegAppTableRecord
  2
ACAD_EXEMPT_FROM_CAD_STANDARDS
 70
     0
  0
APPID
  5
38F
330
14
100
AcDbSymbolTableRecord
100
AcDbRegAppTableRecord
  2
ACAD_PSEXT
 70
     0
  0
APPID
  5
3BC
330
14
100
AcDbSymbolTableRecord
100
AcDbRegAppTableRecord
  2
ACAD_DSTYLE_DIMBREAK
 70
     0
  0
APPID
  5
6DC
330
14
100
AcDbSymbolTableRecord
100
AcDbRegAppTableRecord
  2
AcAecLayerStandard
 70
     0
  0
APPID
  5
79B
330
14
100
AcDbSymbolTableRecord
100
AcDbRegAppTableRecord
  2
ACAUTHENVIRON
 70
     0
  0
APPID
  5
79C
330
14
100
AcDbSymbolTableRecord
100
AcDbRegAppTableRecord
  2
AcDbDynamicBlockTrueName
 70
     0
  0
APPID
  5
79D
330
14
100
AcDbSymbolTableRecord
100
AcDbRegAppTableRecord
  2
AcDbDynamicBlockGUID
 70
     0
  0
APPID
  5
79E
330
14
100
AcDbSymbolTableRecord
100
AcDbRegAppTableRecord
  2
AcDbBlockRepETag
 70
     0
  0
APPID
  5
79F
330
14
100
AcDbSymbolTableRecord
100
AcDbRegAppTableRecord
  2
AcDbBlockRepBTag
 70
     0
  0
APPID
  5
962
330
14
100
AcDbSymbolTableRecord
100
AcDbRegAppTableRecord
  2
ACAD_DSTYLE_DIMRADIAL_EXTENSION
 70
     0
  0
APPID
  5
A01
330
14
100
AcDbSymbolTableRecord
100
AcDbRegAppTableRecord
  2
QuotaSmusso
 70
     0
  0
APPID
  5
A18
330
14
100
AcDbSymbolTableRecord
100
AcDbRegAppTableRecord
  2
TestoOriginale
 70
     0
  0
APPID
  5
B5C
330
14
100
AcDbSymbolTableRecord
100
AcDbRegAppTableRecord
  2
DCO15
 70
     0
  0
ENDTAB
  0
TABLE
  2
DIMSTYLE
  5
16
330
0
100
AcDbSymbolTable
 70
     4
100
AcDbDimStyleTable
 71
     4
340
1D
340
79A
340
3BE
340
3BD
  0
DIMSTYLE
105
1D
330
16
100
AcDbSymbolTableRecord
100
AcDbDimStyleTableRecord
  2
ACADTOP
 70
     0
 41
2.0
 42
1.0
 43
10.0
 44
1.5
 73
     0
 74
     0
 77
     1
 78
     8
 79
     2
140
2.0
141
2.0
146
0.6
147
1.0
172
     1
176
     2
177
     2
178
     1
179
     1
271
     2
272
     2
284
     8
289
     0
340
35C
1001
ACAD_DSTYLE_DIMJAG
1070
   388
1040
1.5
1001
ACAD_DSTYLE_DIMTALN
1070
   392
1070
     0
  0
DIMSTYLE
105
3BD
330
16
100
AcDbSymbolTableRecord
100
AcDbDimStyleTableRecord
  2
DIERRE_LUNG-ALT
 70
     0
 41
3.0
 42
1.0
 43
10.0
 44
1.5
 73
     0
 74
     0
 75
     1
 76
     1
 78
     8
 79
     2
140
20.0
141
2.0
146
0.6
147
1.0
172
     1
176
     3
177
     3
178
    30
179
     1
271
     1
272
     1
281
     1
282
     1
284
     8
340
635
1001
ACAD_DSTYLE_DIMBREAK
1070
   391
1040
3.75
1001
ACAD_DSTYLE_DIMJAG
1070
   388
1040
1.5
1001
ACAD_DSTYLE_DIMTALN
1070
   392
1070
     0
  0
DIMSTYLE
105
3BE
330
16
100
AcDbSymbolTableRecord
100
AcDbDimStyleTableRecord
  2
DIERRE_LARG
 70
     0
 41
3.0
 42
1.0
 43
10.0
 44
1.5
 73
     0
 74
     0
 75
     1
 76
     1
 78
     8
 79
     2
140
20.0
141
2.0
146
0.6
147
1.0
172
     1
176
     4
177
     4
178
     4
179
     1
271
     1
272
     1
281
     1
282
     1
284
     8
340
635
1001
ACAD_DSTYLE_DIMBREAK
1070
   391
1040
3.75
1001
ACAD_DSTYLE_DIMJAG
1070
   388
1040
1.5
1001
ACAD_DSTYLE_DIMTALN
1070
   392
1070
     0
  0
DIMSTYLE
105
79A
330
16
100
AcDbSymbolTableRecord
100
AcDbDimStyleTableRecord
  2
STANDARD
 70
     0
340
C
  0
ENDTAB
  0
TABLE
  2
BLOCK_RECORD
  5
1
330
0
100
AcDbSymbolTable
 70
    14
  0
BLOCK_RECORD
  5
2
102
{ACAD_XDICTIONARY
360
6F8
102
}
330
1
100
AcDbSymbolTableRecord
100
AcDbBlockTableRecord
  2
*MODEL_SPACE
340
47
  0
BLOCK_RECORD
  5
7
330
1
100
AcDbSymbolTableRecord
100
AcDbBlockTableRecord
  2
*PAPER_SPACE
340
48
  0
BLOCK_RECORD
  5
75E
102
{ACAD_XDICTIONARY
360
75F
102
}
330
1
100
AcDbSymbolTableRecord
100
AcDbBlockTableRecord
  2
*U0
340
0
310
2800000020000000200000000100080000000000000400000000000000000000000000000000000000000000000080000080000000808000800000008000800080800000C0C0C000C0DCC000F0CAA6000020400000206000002080000020A0000020C0000020E00000400000004020000040400000406000004080000040A0
310
000040C0000040E00000600000006020000060400000606000006080000060A0000060C0000060E00000800000008020000080400000806000008080000080A0000080C0000080E00000A0000000A0200000A0400000A0600000A0800000A0A00000A0C00000A0E00000C0000000C0200000C0400000C0600000C0800000C0
310
A00000C0C00000C0E00000E0000000E0200000E0400000E0600000E0800000E0A00000E0C00000E0E00040000000400020004000400040006000400080004000A0004000C0004000E00040200000402020004020400040206000402080004020A0004020C0004020E000404000004040200040404000404060004040800040
310
40A0004040C0004040E00040600000406020004060400040606000406080004060A0004060C0004060E00040800000408020004080400040806000408080004080A0004080C0004080E00040A0000040A0200040A0400040A0600040A0800040A0A00040A0C00040A0E00040C0000040C0200040C0400040C0600040C08000
310
40C0A00040C0C00040C0E00040E0000040E0200040E0400040E0600040E0800040E0A00040E0C00040E0E00080000000800020008000400080006000800080008000A0008000C0008000E00080200000802020008020400080206000802080008020A0008020C0008020E00080400000804020008040400080406000804080
310
008040A0008040C0008040E00080600000806020008060400080606000806080008060A0008060C0008060E00080800000808020008080400080806000808080008080A0008080C0008080E00080A0000080A0200080A0400080A0600080A0800080A0A00080A0C00080A0E00080C0000080C0200080C0400080C0600080C0
310
800080C0A00080C0C00080C0E00080E0000080E0200080E0400080E0600080E0800080E0A00080E0C00080E0E000C0000000C0002000C0004000C0006000C0008000C000A000C000C000C000E000C0200000C0202000C0204000C0206000C0208000C020A000C020C000C020E000C0400000C0402000C0404000C0406000C0
310
408000C040A000C040C000C040E000C0600000C0602000C0604000C0606000C0608000C060A000C060C000C060E000C0800000C0802000C0804000C0806000C0808000C080A000C080C000C080E000C0A00000C0A02000C0A04000C0A06000C0A08000C0A0A000C0A0C000C0A0E000C0C00000C0C02000C0C04000C0C06000
310
C0C08000C0C0A000F0FBFF00A4A0A000808080000000FF0000FF000000FFFF00FF000000FF00FF00FFFF0000FFFFFF000000000000000000000000000000000000000000000000000000000000000000000000000000FAFAFAFAFAFAFAFAFAFAFAFAFAFAFAFAFAFAFAFA000000000000000000000000FFFFFFFFFFFFFFFFFF
310
FFFFFFFFFFFFFFFFFFFFFF000000000000000000000000FF000000000000000000000000000000000000FF000000000000000000000000FF000000000000000000000000000000000000FF000000000000000000000000FF000000000000000000000000000000000000FF000000000000000000000000FF00000000000000
310
0000000000000000000000FF000000000000000000000000FF000000000000000000000000000000000000FF000000000000000000000000FF000000000000000000000000000000000000FF000000000000000000000000FF000000000000000000000000000000000000FF000000000000000000000000FF000000000000
310
000000000000000000000000FF000000000000000000000000FF000000000000000000000000000000000000FF000000000000000000000000FF000000000000000000000000000000000000FF000000000000000000000000FF000000000000000000000000000000000000FF000000000000000000000000FF0000000000
310
00000000000000000000000000FF000000000000000000000000FF000000000000000000000000000000000000FF000000000000000000000000FF000000000000000000000000000000000000FF000000000000000000000000FF000000000000000000000000000000000000FF000000000000000000000000FF00000000
310
0000000000000000000000000000FF000000000000000000000000FF000000000000000000000000000000000000FF000000000000000000000000FF000000000000000000000000000000000000FF000000000000000000000000FF000000000000000000000000000000000000FF000000000000000000000000FF000000
310
000000000000000000000000000000FF000000000000000000000000FF000000000000000000000000000000000000FF000000000000000000000000FF000000000000000000000000000000000000FF000000000000000000000000FF000000000000000000000000000000000000FF000000000000000000000000FF0000
310
00000000000000000000000000000000FF000000000000000000000000FF000000000000000000000000000000000000FF000000000000000000000000FF000000000000000000000000000000000000FF000000000000000000000000FFFFFFFFFFFFFFFFFFFFFFFFFFFFFFFFFFFFFFFF000000000000000000000000FAFA
310
FAFAFAFAFAFAFAFAFAFAFAFAFAFAFAFAFAFA0000000000000000000000000000000000000000000000000000000000000000000000000000
1001
AcDbDynamicBlockTrueName
1000
SQUADRATURA
1001
AcDbDynamicBlockGUID
1000
{4C1440E9-C12F-40A3-B328-271253696BFD}
1001
AcDbBlockRepETag
1070
     1
1071
        8
  0
BLOCK_RECORD
  5
774
102
{ACAD_XDICTIONARY
360
775
102
}
330
1
100
AcDbSymbolTableRecord
100
AcDbBlockTableRecord
  2
*U1
340
0
102
{BLKREFS
331
8D9
102
}
1001
AcDbBlockRepBTag
1070
     1
1005
75E
  0
BLOCK_RECORD
  5
780
102
{ACAD_XDICTIONARY
360
781
102
}
330
1
100
AcDbSymbolTableRecord
100
AcDbBlockTableRecord
  2
A$C36307A4E
340
0
  0
BLOCK_RECORD
  5
7A2
102
{ACAD_XDICTIONARY
360
8F9
102
}
330
1
100
AcDbSymbolTableRecord
100
AcDbBlockTableRecord
  2
TAB-A4-MOD_NEW
340
0
  0
BLOCK_RECORD
  5
91A
330
1
100
AcDbSymbolTableRecord
100
AcDbBlockTableRecord
  2
*D4
340
0
  0
BLOCK_RECORD
  5
932
330
1
100
AcDbSymbolTableRecord
100
AcDbBlockTableRecord
  2
*D5
340
0
  0
BLOCK_RECORD
  5
94A
330
1
100
AcDbSymbolTableRecord
100
AcDbBlockTableRecord
  2
*D6
340
0
  0
BLOCK_RECORD
  5
964
330
1
100
AcDbSymbolTableRecord
100
AcDbBlockTableRecord
  2
*D7
340
0
  0
BLOCK_RECORD
  5
98F
330
1
100
AcDbSymbolTableRecord
100
AcDbBlockTableRecord
  2
*D8
340
0
  0
BLOCK_RECORD
  5
9A8
330
1
100
AcDbSymbolTableRecord
100
AcDbBlockTableRecord
  2
*D9
340
0
  0
BLOCK_RECORD
  5
9CA
330
1
100
AcDbSymbolTableRecord
100
AcDbBlockTableRecord
  2
*D10
340
0
  0
BLOCK_RECORD
  5
9E6
330
1
100
AcDbSymbolTableRecord
100
AcDbBlockTableRecord
  2
*D11
340
0
  0
BLOCK_RECORD
  5
A55
330
1
100
AcDbSymbolTableRecord
100
AcDbBlockTableRecord
  2
*D12
340
0
  0
BLOCK_RECORD
  5
A6E
330
1
100
AcDbSymbolTableRecord
100
AcDbBlockTableRecord
  2
*D13
340
0
  0
ENDTAB
  0
ENDSEC
  0
SECTION
  2
BLOCKS
  0
BLOCK
  5
3
330
2
100
AcDbEntity
  8
0
100
AcDbBlockBegin
  2
*MODEL_SPACE
 70
     0
 10
0.0
 20
0.0
 30
0.0
  3
*MODEL_SPACE
  1

  0
ENDBLK
  5
6
330
2
100
AcDbEntity
  8
0
100
AcDbBlockEnd
  0
BLOCK
  5
8
330
7
100
AcDbEntity
 67
     1
  8
0
100
AcDbBlockBegin
  2
*PAPER_SPACE
 70
     0
 10
0.0
 20
0.0
 30
0.0
  3
*PAPER_SPACE
  1

  0
ENDBLK
  5
9
330
7
100
AcDbEntity
 67
     1
  8
0
100
AcDbBlockEnd
  0
BLOCK
  5
76A
330
75E
100
AcDbEntity
  8
0
 62
     7
100
AcDbBlockBegin
  2
*U0
 70
     1
 10
0.0
 20
0.0
 30
0.0
  3
*U0
  1

  0
LINE
  5
76B
330
75E
100
AcDbEntity
  8
0
  6
Continuous
 62
     3
100
AcDbLine
 10
105.0
 20
148.5
 30
0.0
 11
-105.0
 21
148.5
 31
0.0
1001
AcDbBlockRepETag
1070
     1
1071
        0
1005
76B
  0
LINE
  5
76C
330
75E
100
AcDbEntity
  8
0
  6
Continuous
 62
     3
100
AcDbLine
 10
-105.0
 20
148.5
 30
0.0
 11
-105.0
 21
-148.5
 31
0.0
1001
AcDbBlockRepETag
1070
     1
1071
        1
1005
76C
  0
LINE
  5
76D
330
75E
100
AcDbEntity
  8
0
  6
Continuous
 62
     3
100
AcDbLine
 10
-105.0
 20
-148.5
 30
0.0
 11
105.0
 21
-148.5
 31
0.0
1001
AcDbBlockRepETag
1070
     1
1071
        2
1005
76D
  0
LINE
  5
76E
330
75E
100
AcDbEntity
  8
0
  6
Continuous
 62
     3
100
AcDbLine
 10
105.0
 20
-148.5
 30
0.0
 11
105.0
 21
148.5
 31
0.0
1001
AcDbBlockRepETag
1070
     1
1071
        3
1005
76E
  0
LINE
  5
76F
330
75E
100
AcDbEntity
  8
0
  6
Continuous
 62
     7
100
AcDbLine
 10
100.0
 20
143.5
 30
0.0
 11
-100.0
 21
143.5
 31
0.0
1001
AcDbBlockRepETag
1070
     1
1071
        4
1005
76F
  0
LINE
  5
770
330
75E
100
AcDbEntity
  8
0
  6
Continuous
 62
     7
100
AcDbLine
 10
-100.0
 20
143.5
 30
0.0
 11
-100.0
 21
-143.5
 31
0.0
1001
AcDbBlockRepETag
1070
     1
1071
        5
1005
770
  0
LINE
  5
771
330
75E
100
AcDbEntity
  8
0
  6
Continuous
 62
     7
100
AcDbLine
 10
-100.0
 20
-143.5
 30
0.0
 11
100.0
 21
-143.5
 31
0.0
1001
AcDbBlockRepETag
1070
     1
1071
        6
1005
771
  0
LINE
  5
772
330
75E
100
AcDbEntity
  8
0
  6
Continuous
 62
     7
100
AcDbLine
 10
100.0
 20
-143.5
 30
0.0
 11
100.0
 21
143.5
 31
0.0
1001
AcDbBlockRepETag
1070
     1
1071
        7
1005
772
  0
ENDBLK
  5
773
330
75E
100
AcDbEntity
  8
0
 62
     7
100
AcDbBlockEnd
  0
BLOCK
  5
776
330
774
100
AcDbEntity
  8
0
 62
     7
100
AcDbBlockBegin
  2
*U1
 70
     1
 10
0.0
 20
0.0
 30
0.0
  3
*U1
  1

  0
LINE
  5
777
330
774
100
AcDbEntity
  8
0
  6
Continuous
 62
     0
100
AcDbLine
 10
105.0
 20
148.5
 30
0.0
 11
-105.0
 21
148.5
 31
0.0
1001
AcDbBlockRepETag
1070
     1
1071
        0
1005
777
1001
TOP
1070
     3
  0
LINE
  5
778
330
774
100
AcDbEntity
  8
0
  6
Continuous
 62
     0
100
AcDbLine
 10
-105.0
 20
148.5
 30
0.0
 11
-105.0
 21
-148.5
 31
0.0
1001
AcDbBlockRepETag
1070
     1
1071
        1
1005
778
1001
TOP
1070
     3
  0
LINE
  5
779
330
774
100
AcDbEntity
  8
0
  6
Continuous
 62
     0
100
AcDbLine
 10
-105.0
 20
-148.5
 30
0.0
 11
105.0
 21
-148.5
 31
0.0
1001
AcDbBlockRepETag
1070
     1
1071
        2
1005
779
1001
TOP
1070
     3
  0
LINE
  5
77A
330
774
100
AcDbEntity
  8
0
  6
Continuous
 62
     0
100
AcDbLine
 10
105.0
 20
-148.5
 30
0.0
 11
105.0
 21
148.5
 31
0.0
1001
AcDbBlockRepETag
1070
     1
1071
        3
1005
77A
1001
TOP
1070
     3
  0
LINE
  5
77B
330
774
100
AcDbEntity
  8
0
  6
Continuous
 62
     0
100
AcDbLine
 10
100.0
 20
143.5
 30
0.0
 11
-100.0
 21
143.5
 31
0.0
1001
AcDbBlockRepETag
1070
     1
1071
        4
1005
77B
1001
TOP
1070
     7
  0
LINE
  5
77C
330
774
100
AcDbEntity
  8
0
  6
Continuous
 62
     0
100
AcDbLine
 10
-100.0
 20
143.5
 30
0.0
 11
-100.0
 21
-143.5
 31
0.0
1001
AcDbBlockRepETag
1070
     1
1071
        5
1005
77C
1001
TOP
1070
     7
  0
LINE
  5
77D
330
774
100
AcDbEntity
  8
0
  6
Continuous
 62
     0
100
AcDbLine
 10
-100.0
 20
-143.5
 30
0.0
 11
100.0
 21
-143.5
 31
0.0
1001
AcDbBlockRepETag
1070
     1
1071
        6
1005
77D
1001
TOP
1070
     7
  0
LINE
  5
77E
330
774
100
AcDbEntity
  8
0
  6
Continuous
 62
     0
100
AcDbLine
 10
100.0
 20
-143.5
 30
0.0
 11
100.0
 21
143.5
 31
0.0
1001
AcDbBlockRepETag
1070
     1
1071
        7
1005
77E
1001
TOP
1070
     7
  0
ENDBLK
  5
77F
330
774
100
AcDbEntity
  8
0
 62
     7
100
AcDbBlockEnd
  0
BLOCK
  5
783
330
780
100
AcDbEntity
  8
0
 62
     7
100
AcDbBlockBegin
  2
A$C36307A4E
 70
     0
 10
0.0
 20
0.0
 30
0.0
  3
A$C36307A4E
  1

  0
LINE
  5
784
330
780
100
AcDbEntity
  8
0
 62
     1
 48
35.0
100
AcDbLine
 10
-97.99999999999995
 20
-6.0
 30
0.0
 11
-6.999999999999971
 21
-6.0
 31
0.0
  0
LINE
  5
785
330
780
100
AcDbEntity
  8
0
100
AcDbLine
 10
-97.99999999999995
 20
-5.0
 30
0.0
 11
-5.0
 21
-5.0
 31
0.0
  0
ARC
  5
786
330
780
100
AcDbEntity
  8
0
 62
     1
 48
35.0
100
AcDbCircle
 10
-6.999999999999971
 20
-7.0
 30
0.0
 40
1.0
100
AcDbArc
 50
0.0
 51
90.0
  0
LINE
  5
787
330
780
100
AcDbEntity
  8
0
 62
     1
 48
35.0
100
AcDbLine
 10
-5.999999999999971
 20
-7.0
 30
0.0
 11
-5.999999999999943
 21
-35.00000000000003
 31
0.0
  0
LINE
  5
788
330
780
100
AcDbEntity
  8
0
100
AcDbLine
 10
-5.0
 20
-5.0
 30
0.0
 11
-4.999999999999943
 21
-35.00000000000003
 31
0.0
  0
ARC
  5
789
330
780
100
AcDbEntity
  8
0
 62
     1
 48
35.0
100
AcDbCircle
 10
-6.999999999999943
 20
-35.00000000000003
 30
0.0
 40
1.0
100
AcDbArc
 50
270.0
 51
0.0
  0
ARC
  5
78A
330
780
100
AcDbEntity
  8
0
100
AcDbCircle
 10
-6.999999999999943
 20
-35.00000000000003
 30
0.0
 40
2.0
100
AcDbArc
 50
270.0
 51
0.0
  0
LINE
  5
78B
330
780
100
AcDbEntity
  8
0
 62
     1
 48
35.0
100
AcDbLine
 10
-6.999999999999943
 20
-36.00000000000003
 30
0.0
 11
-97.99999999999995
 21
-36.0
 31
0.0
  0
LINE
  5
78C
330
780
100
AcDbEntity
  8
0
100
AcDbLine
 10
-6.999999999999943
 20
-37.00000000000003
 30
0.0
 11
-97.99999999999995
 21
-37.0
 31
0.0
  0
ARC
  5
78D
330
780
100
AcDbEntity
  8
0
 62
     1
 48
35.0
100
AcDbCircle
 10
-97.99999999999995
 20
-35.0
 30
0.0
 40
1.0
100
AcDbArc
 50
180.0
 51
270.0
  0
ARC
  5
78E
330
780
100
AcDbEntity
  8
0
100
AcDbCircle
 10
-97.99999999999995
 20
-35.0
 30
0.0
 40
2.0
100
AcDbArc
 50
180.0
 51
270.0
  0
LINE
  5
78F
330
780
100
AcDbEntity
  8
0
 62
     1
 48
35.0
100
AcDbLine
 10
-98.99999999999995
 20
-35.0
 30
0.0
 11
-98.99999999999995
 21
-7.0
 31
0.0
  0
LINE
  5
790
330
780
100
AcDbEntity
  8
0
100
AcDbLine
 10
-99.99999999999994
 20
-35.0
 30
0.0
 11
-99.99999999999994
 21
-7.0
 31
0.0
  0
ARC
  5
791
330
780
100
AcDbEntity
  8
0
 62
     1
 48
35.0
100
AcDbCircle
 10
-97.99999999999995
 20
-7.0
 30
0.0
 40
1.0
100
AcDbArc
 50
90.0
 51
180.0
  0
ARC
  5
792
330
780
100
AcDbEntity
  8
0
100
AcDbCircle
 10
-97.99999999999995
 20
-7.0
 30
0.0
 40
2.0
100
AcDbArc
 50
90.0
 51
180.0
  0
MTEXT
  5
793
330
780
100
AcDbEntity
  8
0
100
AcDbMText
 10
-75.41464188571265
 20
-12.87485331522757
 30
0.0
 40
6.0
 41
54.93080742428151
 71
     1
 72
     5
  1
{\fVrinda|b0|i0|c0|p2;BAR CODE\PMontaggio}
 73
     1
 44
1.0
1001
ACAD
1000
MTEXTBEGIN
1070
    73
1070
     1
1070
    44
1040
1.0
1070
    74
1070
     0
1000
MTEXTEND
  0
ENDBLK
  5
794
330
780
100
AcDbEntity
  8
0
 62
     7
100
AcDbBlockEnd
  0
BLOCK
  5
8FB
330
7A2
100
AcDbEntity
  8
0
 62
     3
100
AcDbBlockBegin
  2
TAB-A4-MOD_NEW
 70
     2
 10
0.0
 20
0.0
 30
0.0
  3
TAB-A4-MOD_NEW
  1

  0
ATTDEF
  5
7A3
330
7A2
100
AcDbEntity
  8
0
 62
     0
 48
35.0
100
AcDbText
 10
-76.25989897767704
 20
-84.74999999999999
 30
0.0
 40
2.5
  1

  7
Stile_Cart
 11
-76.25989897767704
 21
-83.49999999999999
 31
0.0
100
AcDbAttributeDefinition
  3

  2
DESCRIZIONE
 70
     4
 74
     2
1001
TOP
1070
     7
  0
TEXT
  5
7A4
330
7A2
100
AcDbEntity
  8
0
 62
     0
 48
35.0
100
AcDbText
 10
-3.421920301562295
 20
-115.9234
 30
0.0
 40
1.846799999999999
  1
Circ. le S. Giovanni Ev., 23
  7
STYLE1
 11
-3.421920301562295
 21
-115.0
 31
0.0
100
AcDbText
 73
     2
1001
TOP
1070
     7
  0
TEXT
  5
7A5
330
7A2
100
AcDbEntity
  8
0
 62
     0
 48
35.0
100
AcDbText
 10
-1.156922572287385
 20
-118.9234
 30
0.0
 40
1.846799999999999
  1
41040 Spezzano (MO)
  7
STYLE1
 11
-1.156922572287385
 21
-118.0
 31
0.0
100
AcDbText
 73
     2
1001
TOP
1070
     7
  0
TEXT
  5
7A6
330
7A2
100
AcDbEntity
  8
0
 62
     0
 48
35.0
100
AcDbText
 10
-0.3424930488704377
 20
-121.9234
 30
0.0
 40
1.846799999999999
  1
Tel. 0536 / 921322
  7
STYLE1
 11
-0.3424930488704376
 21
-121.0
 31
0.0
100
AcDbText
 73
     2
1001
TOP
1070
     7
  0
TEXT
  5
7A7
330
7A2
100
AcDbEntity
  8
0
 62
     0
 48
35.0
100
AcDbText
 10
-0.3424930488704377
 20
-124.9234
 30
0.0
 40
1.846799999999999
  1
Fax  0536 / 921218
  7
STYLE1
 11
-0.3424930488704376
 21
-124.0
 31
0.0
100
AcDbText
 73
     2
1001
TOP
1070
     7
  0
TEXT
  5
7A8
330
7A2
100
AcDbEntity
  8
0
 62
     0
 48
35.0
100
AcDbText
 10
-5.349166230072569
 20
-127.75
 30
0.0
 40
1.5
  1
E-mail: tecnico@dierreprotezioni.com
  7
STYLE1
 11
-5.349166230072569
 21
-127.0
 31
0.0
100
AcDbText
 73
     2
1001
TOP
1070
     7
  0
LINE
  5
7A9
330
7A2
100
AcDbEntity
  8
0
 62
     0
 48
35.0
100
AcDbLine
 10
100.0
 20
-138.5
 30
0.0
 11
-100.0
 21
-138.5
 31
0.0
1001
TOP
1070
     3
  0
MTEXT
  5
7AA
330
7A2
100
AcDbEntity
  8
0
 62
     0
 48
35.0
100
AcDbMText
 10
0.0
 20
-141.0
 30
0.0
 40
1.499624999999999
 41
190.3973187722231
 71
     5
 72
     1
  1
{\C256;SI VIETA L'USO E LA RIPRODUZIONE O LA VISIONE A TERZI DEL PRESENTE DISEGNO SENZA ESPLICITA AUTORIZZAZIONE, \H1.333x;Dierre \H0.75x;TUTELERA' I PROPRI DIRITTI A NORMA DI LEGGE}
  7
Stile_Cart
 73
     1
 44
1.0
1001
TOP
1070
     3
1001
ACAD
1000
MTEXTBEGIN
1070
    73
1070
     1
1070
    44
1040
1.0
1070
    74
1070
     0
1000
MTEXTEND
  0
LINE
  5
7AB
330
7A2
100
AcDbEntity
  8
0
 62
     0
 48
35.0
100
AcDbLine
 10
-100.0
 20
-78.5
 30
0.0
 11
100.0
 21
-78.49999999999988
 31
0.0
1001
TOP
1070
     3
  0
LINE
  5
7AC
330
7A2
100
AcDbEntity
  8
0
 62
     0
 48
35.0
100
AcDbLine
 10
35.0
 20
-78.5
 30
0.0
 11
35.0
 21
-138.5
 31
0.0
1001
TOP
1070
     3
  0
LINE
  5
7AD
330
7A2
100
AcDbEntity
  8
0
 62
     0
 48
35.0
100
AcDbLine
 10
-100.0
 20
-130.5
 30
0.0
 11
35.0
 21
-130.5
 31
0.0
1001
TOP
1070
     1
  0
LINE
  5
7AE
330
7A2
100
AcDbEntity
  8
0
 62
     0
 48
35.0
100
AcDbLine
 10
-100.0
 20
-108.5
 30
0.0
 11
35.0
 21
-108.5
 31
0.0
1001
TOP
1070
     1
  0
LINE
  5
7AF
330
7A2
100
AcDbEntity
  8
0
 62
     0
 48
35.0
100
AcDbLine
 10
-66.25
 20
-130.5
 30
0.0
 11
-66.25
 21
-138.5
 31
0.0
1001
TOP
1070
     7
  0
LINE
  5
7B0
330
7A2
100
AcDbEntity
  8
0
 62
     0
 48
35.0
100
AcDbLine
 10
-100.0
 20
-98.50000000000001
 30
0.0
 11
35.0
 21
-98.50000000000001
 31
0.0
1001
TOP
1070
     1
  0
LINE
  5
7B1
330
7A2
100
AcDbEntity
  8
0
 62
     0
 48
35.0
100
AcDbLine
 10
-27.5
 20
-98.50000000000001
 30
0.0
 11
-27.5
 21
-108.5
 31
0.0
1001
TOP
1070
     1
  0
TEXT
  5
7B2
330
7A2
100
AcDbEntity
  8
0
 62
     0
 48
35.0
100
AcDbText
 10
-99.24333629514059
 20
-84.74999999999999
 30
0.0
 40
1.6
  1
DENOMINAZIONE:
  7
STYLE1
100
AcDbText
1001
TOP
1070
     1
  0
TEXT
  5
7B3
330
7A2
100
AcDbEntity
  8
0
 62
     0
 48
35.0
100
AcDbText
 10
-99.24333629514059
 20
-105.5
 30
0.0
 40
1.6
  1
CLIENTE:
  7
STYLE1
100
AcDbText
1001
TOP
1070
     1
  0
LINE
  5
7B4
330
7A2
100
AcDbEntity
  8
0
 62
     0
 48
35.0
100
AcDbLine
 10
-27.5
 20
-103.5
 30
0.0
 11
35.00000000000091
 21
-103.5
 31
0.0
1001
TOP
1070
     1
  0
TEXT
  5
7B5
330
7A2
100
AcDbEntity
  8
0
 62
     0
 48
35.0
100
AcDbText
 10
-26.74333629514058
 20
-102.25
 30
0.0
 40
1.6
  1
COD. CLIENTE:
  7
STYLE1
100
AcDbText
1001
TOP
1070
     1
  0
TEXT
  5
7B6
330
7A2
100
AcDbEntity
  8
0
 62
     0
 48
35.0
100
AcDbText
 10
-26.74333629514058
 20
-107.25
 30
0.0
 40
1.6
  1
CC CLIENTE:
  7
STYLE1
100
AcDbText
1001
TOP
1070
     1
  0
LINE
  5
7B7
330
7A2
100
AcDbEntity
  8
0
 62
     0
 48
35.0
100
AcDbLine
 10
35.0
 20
-85.99999999999988
 30
0.0
 11
100.0
 21
-85.99999999999988
 31
0.0
1001
TOP
1070
     7
  0
LINE
  5
7B8
330
7A2
100
AcDbEntity
  8
0
 62
     0
 48
35.0
100
AcDbLine
 10
35.0
 20
-93.49999999999988
 30
0.0
 11
100.0
 21
-93.49999999999988
 31
0.0
1001
TOP
1070
     7
  0
LINE
  5
7B9
330
7A2
100
AcDbEntity
  8
0
 62
     0
 48
35.0
100
AcDbLine
 10
35.0
 20
-100.9999999999999
 30
0.0
 11
100.0
 21
-100.9999999999999
 31
0.0
1001
TOP
1070
     7
  0
TEXT
  5
7BA
330
7A2
100
AcDbEntity
  8
0
 62
     0
 48
35.0
100
AcDbText
 10
35.75666370485942
 20
-83.99999999999989
 30
0.0
 40
1.6
  1
Data:
  7
STYLE1
100
AcDbText
1001
TOP
1070
     1
  0
TEXT
  5
7BB
330
7A2
100
AcDbEntity
  8
0
 62
     0
 48
35.0
100
AcDbText
 10
35.75666370485942
 20
-90.74999999999988
 30
0.0
 40
1.6
  1
Diseg.:        
  7
STYLE1
100
AcDbText
1001
TOP
1070
     1
  0
TEXT
  5
7BC
330
7A2
100
AcDbEntity
  8
0
 62
     0
 48
35.0
100
AcDbText
 10
35.75666370485942
 20
-98.49999999999988
 30
0.0
 40
1.6
  1
Rifer. ordine:
  7
STYLE1
100
AcDbText
1001
TOP
1070
     1
  0
LINE
  5
7BD
330
7A2
100
AcDbEntity
  8
0
 62
     0
 48
35.0
100
AcDbLine
 10
72.0
 20
-78.49999999999988
 30
0.0
 11
72.0
 21
-93.49999999999999
 31
0.0
  0
TEXT
  5
7BE
330
7A2
100
AcDbEntity
  8
0
 62
     0
 48
35.0
100
AcDbText
 10
72.75666370485942
 20
-83.99999999999989
 30
0.0
 40
1.6
  1
Scala:
  7
STYLE1
100
AcDbText
1001
TOP
1070
     1
  0
TEXT
  5
7BF
330
7A2
100
AcDbEntity
  8
0
 62
     0
 48
35.0
100
AcDbText
 10
72.75666370485942
 20
-91.49999999999989
 30
0.0
 40
1.6
  1
Q.ta:
  7
STYLE1
100
AcDbText
1001
TOP
1070
     1
  0
TEXT
  5
7C0
330
7A2
100
AcDbEntity
  8
0
 62
     0
 48
35.0
100
AcDbText
 10
35.85819235127565
 20
-110.1249999999999
 30
0.0
 40
1.76
  1
Codice N
  7
STYLE1
100
AcDbText
1001
TOP
1070
     1
  0
LINE
  5
7C1
330
7A2
100
AcDbEntity
  8
0
 62
     0
 48
35.0
100
AcDbLine
 10
35.0
 20
-114.7499999999999
 30
0.0
 11
100.0
 21
-114.7499999999999
 31
0.0
1001
TOP
1070
     7
  0
LINE
  5
7C2
330
7A2
100
AcDbEntity
  8
0
 62
     0
 48
35.0
100
AcDbLine
 10
35.0
 20
-124.7499999999999
 30
0.0
 11
100.0
 21
-124.7499999999999
 31
0.0
1001
TOP
1070
     7
  0
LINE
  5
7C3
330
7A2
100
AcDbEntity
  8
0
 62
     0
 48
35.0
100
AcDbLine
 10
35.0
 20
-130.5
 30
0.0
 11
100.0
 21
-130.5
 31
0.0
1001
TOP
1070
     7
  0
CIRCLE
  5
7C4
330
7A2
100
AcDbEntity
  8
0
  6
Continuous
 62
     0
100
AcDbCircle
 10
94.1449550471707
 20
-134.5409172698267
 30
0.0
 40
3.0
1001
TOP
1070
     2
  0
LINE
  5
7C5
330
7A2
100
AcDbEntity
  8
0
  6
DASHDOT2
 62
     0
100
AcDbLine
 10
94.1449550471707
 20
-131.5409172698267
 30
0.0
 11
94.1449550471707
 21
-137.5409172698267
 31
0.0
1001
TOP
1070
     2
  0
CIRCLE
  5
7C6
330
7A2
100
AcDbEntity
  8
0
  6
Continuous
 62
     0
100
AcDbCircle
 10
94.1449550471707
 20
-134.5409172698267
 30
0.0
 40
1.5
1001
TOP
1070
     2
  0
LINE
  5
7C7
330
7A2
100
AcDbEntity
  8
0
  6
DASHDOT2
 62
     0
100
AcDbLine
 10
81.35716881113784
 20
-134.5409172698267
 30
0.0
 11
97.14495504717071
 21
-134.5409172698267
 31
0.0
1001
TOP
1070
     2
  0
LINE
  5
7C8
330
7A2
100
AcDbEntity
  8
0
  6
Continuous
 62
     0
100
AcDbLine
 10
88.51173788868619
 20
-131.5409172698267
 30
0.0
 11
88.51173788868619
 21
-137.8298833532369
 31
0.0
1001
TOP
1070
     2
  0
LINE
  5
7C9
330
7A2
100
AcDbEntity
  8
0
  6
Continuous
 62
     0
100
AcDbLine
 10
81.35716881113784
 20
-133.0409172698267
 30
0.0
 11
81.35716881113784
 21
-136.0409172698267
 31
0.0
1001
TOP
1070
     2
  0
LINE
  5
7CA
330
7A2
100
AcDbEntity
  8
0
  6
Continuous
 62
     0
100
AcDbLine
 10
81.35716881113784
 20
-136.0409172698267
 30
0.0
 11
88.51173788868619
 21
-137.8298833532369
 31
0.0
1001
TOP
1070
     2
  0
LINE
  5
7CB
330
7A2
100
AcDbEntity
  8
0
  6
Continuous
 62
     0
100
AcDbLine
 10
88.51173788868619
 20
-131.5409172698267
 30
0.0
 11
81.35716881113784
 21
-133.0409172698267
 31
0.0
1001
TOP
1070
     2
  0
LINE
  5
7CC
330
7A2
100
AcDbEntity
  8
0
 62
     0
 48
35.0
100
AcDbLine
 10
78.5
 20
-138.5
 30
0.0
 11
78.5
 21
-130.5
 31
0.0
  0
MTEXT
  5
7CD
330
7A2
100
AcDbEntity
  8
0
 62
     0
 48
35.0
100
AcDbMText
 10
36.70159610234714
 20
-116.147829675845
 30
0.0
 40
2.0
 41
187.0802
 71
     1
 72
     5
  1
{\C256;LE TOLLERANZE SI INTENDONO SU PEZZO\PFINITO COMPLETO DI ZINCATURA}
  7
Stile_Cart
 73
     1
 44
1.0
1001
TOP
1070
     3
1001
ACAD
1000
MTEXTBEGIN
1070
    73
1070
     1
1070
    44
1040
1.0
1070
    74
1070
     0
1000
MTEXTEND
  0
LINE
  5
7CE
330
7A2
100
AcDbEntity
  8
0
 62
     0
100
AcDbLine
 10
-100.0
 20
-71.0
 30
0.0
 11
99.99999999999909
 21
-71.00000000000012
 31
0.0
1001
TOP
1070
     3
  0
LINE
  5
7CF
330
7A2
100
AcDbEntity
  8
0
 62
     0
100
AcDbLine
 10
-100.0
 20
-67.0
 30
0.0
 11
99.99999999999909
 21
-67.0
 31
0.0
1001
TOP
1070
     3
  0
LINE
  5
7D0
330
7A2
100
AcDbEntity
  8
0
 62
     0
100
AcDbLine
 10
-100.0
 20
-62.0
 30
0.0
 11
99.99999999999909
 21
-61.99999999999988
 31
0.0
1001
TOP
1070
     3
  0
LINE
  5
7D1
330
7A2
100
AcDbEntity
  8
0
 62
     0
 48
35.0
100
AcDbLine
 10
-85.0
 20
-61.99999999999999
 30
0.0
 11
-85.0
 21
-78.5
 31
0.0
1001
TOP
1070
     1
  0
TEXT
  5
7D2
330
7A2
100
AcDbEntity
  8
0
 62
     0
 48
35.0
100
AcDbText
 10
-99.24333629514149
 20
-76.0
 30
0.0
 40
1.6
  1
POS.
  7
STYLE1
100
AcDbText
1001
TOP
1070
     1
  0
TEXT
  5
7D3
330
7A2
100
AcDbEntity
  8
0
 62
     0
 48
35.0
100
AcDbText
 10
-84.2433362951424
 20
-76.0
 30
0.0
 40
1.6
  1
MATERIALE:
  7
STYLE1
100
AcDbText
1001
TOP
1070
     1
  0
LINE
  5
7D4
330
7A2
100
AcDbEntity
  8
0
 62
     0
 48
35.0
100
AcDbLine
 10
14.99999999999909
 20
-71.00000000000022
 30
0.0
 11
15.0
 21
-78.5
 31
0.0
1001
TOP
1070
     1
  0
TEXT
  5
7D5
330
7A2
100
AcDbEntity
  8
0
 62
     0
 48
35.0
100
AcDbText
 10
15.75666370485669
 20
-76.0
 30
0.0
 40
1.6
  1
TRATTAMENTI:
  7
STYLE1
100
AcDbText
1001
TOP
1070
     1
  0
TEXT
  5
7D6
330
7A2
100
AcDbEntity
  8
0
 62
     0
 48
35.0
100
AcDbText
 10
-94.94297836942587
 20
-69.79763860700177
 30
0.0
 40
1.6
  1
Rev.
  7
STYLE1
100
AcDbText
1001
TOP
1070
     1
  0
LINE
  5
7D7
330
7A2
100
AcDbEntity
  8
0
 62
     0
 48
35.0
100
AcDbLine
 10
80.0
 20
-61.9999999999999
 30
0.0
 11
80.0000000000009
 21
-71.00000000000012
 31
0.0
1001
TOP
1070
     1
  0
LINE
  5
7D8
330
7A2
100
AcDbEntity
  8
0
 62
     0
 48
35.0
100
AcDbLine
 10
65.00000000000032
 20
-61.99999999999991
 30
0.0
 11
65.00000000000091
 21
-71.00000000000114
 31
0.0
1001
TOP
1070
     1
  0
TEXT
  5
7D9
330
7A2
100
AcDbEntity
  8
0
 62
     0
 48
35.0
100
AcDbText
 10
70.05702163057503
 20
-69.79763860700177
 30
0.0
 40
1.6
  1
Data
  7
STYLE1
100
AcDbText
1001
TOP
1070
     1
  0
TEXT
  5
7DA
330
7A2
100
AcDbEntity
  8
0
 62
     0
 48
35.0
100
AcDbText
 10
87.79240430569643
 20
-69.79763860700177
 30
0.0
 40
1.6
  1
Diseg.
  7
STYLE1
100
AcDbText
1001
TOP
1070
     1
  0
LINE
  5
7DB
330
7A2
100
AcDbEntity
  8
0
 62
     0
 48
35.0
100
AcDbLine
 10
-32.5
 20
-130.5
 30
0.0
 11
-32.5
 21
-138.5
 31
0.0
1001
TOP
1070
     7
  0
LINE
  5
7DC
330
7A2
100
AcDbEntity
  8
0
 62
     0
 48
35.0
100
AcDbLine
 10
1.25
 20
-130.5
 30
0.0
 11
1.25
 21
-138.5
 31
0.0
1001
TOP
1070
     7
  0
LINE
  5
7DD
330
7A2
100
AcDbEntity
  8
0
  6
Continuous
 62
     0
100
AcDbLine
 10
-84.625
 20
-135.2853677388285
 30
0.0
 11
-83.125
 21
-138.2853677388285
 31
0.0
1001
TOP
1070
     2
  0
LINE
  5
7DE
330
7A2
100
AcDbEntity
  8
0
  6
Continuous
 62
     0
100
AcDbLine
 10
-83.125
 20
-138.2853677388285
 30
0.0
 11
-80.12500000000001
 21
-132.2853677388285
 31
0.0
1001
TOP
1070
     2
  0
CIRCLE
  5
7DF
330
7A2
100
AcDbEntity
  8
0
  6
Continuous
 62
     0
100
AcDbCircle
 10
-83.125
 20
-136.1513931426129
 30
0.0
 40
0.8660254037843873
1001
TOP
1070
     2
  0
TEXT
  5
7E0
330
7A2
100
AcDbEntity
  8
0
  6
Continuous
 62
     0
100
AcDbText
 10
36.65725579953532
 20
-127.6856811538551
 30
0.0
 40
1.5
  1
Le QUOTE senza tolleranze si intendono h 11 / H 11
  7
Stile_Cart
100
AcDbText
1001
TOP
1070
     7
  0
TEXT
  5
7E1
330
7A2
100
AcDbEntity
  8
0
  6
Continuous
 62
     0
100
AcDbText
 10
36.56316783991022
 20
-136.7809056532263
 30
0.0
 40
1.5
  1
Smussi e raggi non quotati = 1 mm
  7
Stile_Cart
100
AcDbText
1001
TOP
1070
     7
  0
TEXT
  5
7E2
330
7A2
100
AcDbEntity
  8
0
  6
Continuous
 62
     0
100
AcDbText
 10
36.70159610234714
 20
-133.4356811538553
 30
0.0
 40
1.5
  1
Negli spigoli non quotati smussi 0,5 x 45°
  7
Stile_Cart
100
AcDbText
1001
TOP
1070
     7
  0
LINE
  5
7E3
330
7A2
100
AcDbEntity
  8
0
  6
Continuous
 62
     0
100
AcDbLine
 10
22.04910490551336
 20
-135.2267571184318
 30
0.0
 11
23.54910490551336
 21
-138.2267571184318
 31
0.0
1001
TOP
1070
     2
  0
LINE
  5
7E4
330
7A2
100
AcDbEntity
  8
0
  6
Continuous
 62
     0
100
AcDbLine
 10
23.54910490551336
 20
-138.2267571184318
 30
0.0
 11
26.54910490551336
 21
-132.2267571184318
 31
0.0
1001
TOP
1070
     2
  0
TEXT
  5
7E5
330
7A2
100
AcDbEntity
  8
0
  6
Continuous
 62
     0
100
AcDbText
 10
21.21024234627165
 20
-134.7267571184318
 30
0.0
 40
2.0
  1
0,8
  7
seansi_ttf
 11
21.21024234627165
 21
-132.7267571184318
 31
0.0
100
AcDbText
 73
     3
1001
TOP
1070
     2
  0
LINE
  5
7E6
330
7A2
100
AcDbEntity
  8
0
  6
Continuous
 62
     0
100
AcDbLine
 10
14.18630267108197
 20
-135.2559419652411
 30
0.0
 11
15.68630267108197
 21
-138.2559419652411
 31
0.0
1001
TOP
1070
     2
  0
LINE
  5
7E7
330
7A2
100
AcDbEntity
  8
0
  6
Continuous
 62
     0
100
AcDbLine
 10
15.68630267108197
 20
-138.2559419652411
 30
0.0
 11
17.18630267108197
 21
-135.2559419652411
 31
0.0
1001
TOP
1070
     2
  0
LINE
  5
7E8
330
7A2
100
AcDbEntity
  8
0
  6
Continuous
 62
     0
100
AcDbLine
 10
17.18630267108197
 20
-135.2559419652411
 30
0.0
 11
14.18630267108197
 21
-135.2559419652411
 31
0.0
1001
TOP
1070
     2
  0
LINE
  5
7E9
330
7A2
100
AcDbEntity
  8
0
  6
Continuous
 62
     0
100
AcDbLine
 10
14.18630267108197
 20
-135.2559419652411
 30
0.0
 11
12.68630267108197
 21
-138.2559419652411
 31
0.0
1001
TOP
1070
     2
  0
LINE
  5
7EA
330
7A2
100
AcDbEntity
  8
0
  6
Continuous
 62
     0
100
AcDbLine
 10
12.68630267108197
 20
-138.2559419652411
 30
0.0
 11
11.18630267108197
 21
-135.2559419652411
 31
0.0
1001
TOP
1070
     2
  0
LINE
  5
7EB
330
7A2
100
AcDbEntity
  8
0
  6
Continuous
 62
     0
100
AcDbLine
 10
11.18630267108197
 20
-135.2559419652411
 30
0.0
 11
14.18630267108197
 21
-135.2559419652411
 31
0.0
1001
TOP
1070
     2
  0
LINE
  5
7EC
330
7A2
100
AcDbEntity
  8
0
  6
Continuous
 62
     0
100
AcDbLine
 10
11.18630267108197
 20
-135.2559419652411
 30
0.0
 11
9.686302671081968
 21
-138.2559419652411
 31
0.0
1001
TOP
1070
     2
  0
LINE
  5
7ED
330
7A2
100
AcDbEntity
  8
0
  6
Continuous
 62
     0
100
AcDbLine
 10
9.686302671081968
 20
-138.2559419652411
 30
0.0
 11
8.186302671081968
 21
-135.2559419652411
 31
0.0
1001
TOP
1070
     2
  0
LINE
  5
7EE
330
7A2
100
AcDbEntity
  8
0
  6
Continuous
 62
     0
100
AcDbLine
 10
8.186302671081968
 20
-135.2559419652411
 30
0.0
 11
11.18630267108197
 21
-135.2559419652411
 31
0.0
1001
TOP
1070
     2
  0
LINE
  5
7EF
330
7A2
100
AcDbEntity
  8
0
  6
Continuous
 62
     0
100
AcDbLine
 10
-11.09407416882067
 20
-135.2999430320282
 30
0.0
 11
-9.594074168820668
 21
-138.2999430320282
 31
0.0
1001
TOP
1070
     2
  0
LINE
  5
7F0
330
7A2
100
AcDbEntity
  8
0
  6
Continuous
 62
     0
100
AcDbLine
 10
-9.594074168820668
 20
-138.2999430320282
 30
0.0
 11
-6.594074168820668
 21
-132.2999430320282
 31
0.0
1001
TOP
1070
     2
  0
TEXT
  5
7F1
330
7A2
100
AcDbEntity
  8
0
  6
Continuous
 62
     0
100
AcDbText
 10
-11.93293672806237
 20
-134.7999430320282
 30
0.0
 40
2.0
  1
1,6
  7
seansi_ttf
 11
-11.93293672806237
 21
-132.7999430320282
 31
0.0
100
AcDbText
 73
     3
1001
TOP
1070
     2
  0
LINE
  5
7F2
330
7A2
100
AcDbEntity
  8
0
  6
Continuous
 62
     0
100
AcDbLine
 10
-21.65592583117933
 20
-135.2999430320282
 30
0.0
 11
-20.15592583117933
 21
-138.2999430320282
 31
0.0
1001
TOP
1070
     2
  0
LINE
  5
7F3
330
7A2
100
AcDbEntity
  8
0
  6
Continuous
 62
     0
100
AcDbLine
 10
-20.15592583117933
 20
-138.2999430320282
 30
0.0
 11
-18.65592583117933
 21
-135.2999430320282
 31
0.0
1001
TOP
1070
     2
  0
LINE
  5
7F4
330
7A2
100
AcDbEntity
  8
0
  6
Continuous
 62
     0
100
AcDbLine
 10
-18.65592583117933
 20
-135.2999430320282
 30
0.0
 11
-21.65592583117933
 21
-135.2999430320282
 31
0.0
1001
TOP
1070
     2
  0
LINE
  5
7F5
330
7A2
100
AcDbEntity
  8
0
  6
Continuous
 62
     0
100
AcDbLine
 10
-21.65592583117933
 20
-135.2999430320282
 30
0.0
 11
-23.15592583117933
 21
-138.2999430320282
 31
0.0
1001
TOP
1070
     2
  0
LINE
  5
7F6
330
7A2
100
AcDbEntity
  8
0
  6
Continuous
 62
     0
100
AcDbLine
 10
-23.15592583117933
 20
-138.2999430320282
 30
0.0
 11
-24.65592583117933
 21
-135.2999430320282
 31
0.0
1001
TOP
1070
     2
  0
LINE
  5
7F7
330
7A2
100
AcDbEntity
  8
0
  6
Continuous
 62
     0
100
AcDbLine
 10
-24.65592583117933
 20
-135.2999430320282
 30
0.0
 11
-21.65592583117933
 21
-135.2999430320282
 31
0.0
1001
TOP
1070
     2
  0
LINE
  5
7F8
330
7A2
100
AcDbEntity
  8
0
  6
Continuous
 62
     0
100
AcDbLine
 10
-58.06883755106941
 20
-135.3397943988076
 30
0.0
 11
-56.56883755106941
 21
-138.3397943988076
 31
0.0
1001
TOP
1070
     2
  0
LINE
  5
7F9
330
7A2
100
AcDbEntity
  8
0
  6
Continuous
 62
     0
100
AcDbLine
 10
-56.56883755106941
 20
-138.3397943988076
 30
0.0
 11
-55.0688375510694
 21
-135.3397943988076
 31
0.0
1001
TOP
1070
     2
  0
LINE
  5
7FA
330
7A2
100
AcDbEntity
  8
0
  6
Continuous
 62
     0
100
AcDbLine
 10
-55.0688375510694
 20
-135.3397943988076
 30
0.0
 11
-58.06883755106941
 21
-135.3397943988076
 31
0.0
1001
TOP
1070
     2
  0
LINE
  5
7FB
330
7A2
100
AcDbEntity
  8
0
  6
Continuous
 62
     0
100
AcDbLine
 10
-43.68116244893059
 20
-135.3397943988076
 30
0.0
 11
-42.18116244893059
 21
-138.3397943988076
 31
0.0
1001
TOP
1070
     2
  0
LINE
  5
7FC
330
7A2
100
AcDbEntity
  8
0
  6
Continuous
 62
     0
100
AcDbLine
 10
-42.18116244893059
 20
-138.3397943988076
 30
0.0
 11
-39.18116244893059
 21
-132.3397943988076
 31
0.0
1001
TOP
1070
     2
  0
TEXT
  5
7FD
330
7A2
100
AcDbEntity
  8
0
  6
Continuous
 62
     0
100
AcDbText
 10
-44.52002500817229
 20
-134.8397943988076
 30
0.0
 40
2.0
  1
6,3
  7
seansi_ttf
 11
-44.52002500817229
 21
-132.8397943988076
 31
0.0
100
AcDbText
 73
     3
1001
TOP
1070
     2
  0
ATTDEF
  5
7FE
330
7A2
100
AcDbEntity
  8
0
 62
     0
 48
35.0
100
AcDbText
 10
-76.25989897767704
 20
-89.74999999999999
 30
0.0
 40
2.5
  1

  7
Stile_Cart
 11
-76.25989897767704
 21
-88.49999999999999
 31
0.0
100
AcDbAttributeDefinition
  3

  2
DESCRIZIONE2
 70
     4
 74
     2
1001
TOP
1070
     7
  0
ATTDEF
  5
7FF
330
7A2
100
AcDbEntity
  8
0
 62
     0
 48
35.0
100
AcDbText
 10
-76.25989897767704
 20
-94.74999999999999
 30
0.0
 40
2.5
  1

  7
Stile_Cart
 11
-76.25989897767704
 21
-93.49999999999999
 31
0.0
100
AcDbAttributeDefinition
  3

  2
DESCRIZIONE3
 70
     4
 74
     2
1001
TOP
1070
     7
  0
ATTDEF
  5
800
330
7A2
100
AcDbEntity
  8
0
 62
     0
 48
35.0
100
AcDbText
 10
42.76829842361894
 20
-83.99999999999989
 30
0.0
 40
3.5
  1

  7
Stile_Cart
 11
42.76829842361894
 21
-82.2499999999999
 31
0.0
100
AcDbAttributeDefinition
  3

  2
DATA
 70
     4
 74
     2
1001
TOP
1070
     7
  0
ATTDEF
  5
801
330
7A2
100
AcDbEntity
  8
0
 62
     0
 48
35.0
100
AcDbText
 10
79.15321575123653
 20
-83.99999999999989
 30
0.0
 40
3.5
  1

  7
Stile_Cart
 11
79.15321575123653
 21
-82.24999999999988
 31
0.0
100
AcDbAttributeDefinition
  3

  2
SCALA
 70
     4
 74
     2
1001
TOP
1070
     7
  0
ATTDEF
  5
802
330
7A2
100
AcDbEntity
  8
0
 62
     0
 48
35.0
100
AcDbText
 10
79.15321575123653
 20
-91.49999999999989
 30
0.0
 40
3.5
  1

  7
Stile_Cart
 11
79.15321575123653
 21
-89.74999999999988
 31
0.0
100
AcDbAttributeDefinition
  3

  2
QTA
 70
     4
 74
     2
1001
TOP
1070
     7
  0
ATTDEF
  5
803
330
7A2
100
AcDbEntity
  8
0
 62
     0
 48
35.0
100
AcDbText
 10
42.76829842361894
 20
-90.74999999999988
 30
0.0
 40
2.0
  1

  7
Stile_Cart
 11
42.76829842361894
 21
-89.74999999999988
 31
0.0
100
AcDbAttributeDefinition
  3

  2
DISEGNATORE
 70
     4
 74
     2
1001
TOP
1070
     7
  0
ATTDEF
  5
804
330
7A2
100
AcDbEntity
  8
0
 62
     0
 48
35.0
100
AcDbText
 10
51.64776592404542
 20
-98.49999999999988
 30
0.0
 40
2.5
  1

  7
Stile_Cart
 11
51.64776592404542
 21
-97.24999999999988
 31
0.0
100
AcDbAttributeDefinition
  3

  2
RIF_ORDINE
 70
     4
 74
     2
1001
TOP
1070
     7
  0
ATTDEF
  5
805
330
7A2
100
AcDbEntity
  8
0
 62
     0
 48
35.0
100
AcDbText
 10
50.29007657152305
 20
-110.1249999999999
 30
0.0
 40
4.5
  1

  7
Stile_Cart
 11
50.29007657152305
 21
-107.8749999999999
 31
0.0
100
AcDbAttributeDefinition
  3

  2
CODICE
 70
     4
 74
     2
1001
TOP
1070
     7
  0
ATTDEF
  5
806
330
7A2
100
AcDbEntity
  8
0
 62
     0
 48
35.0
100
AcDbText
 10
-10.1983793647978
 20
-102.25
 30
0.0
 40
2.5
  1

  7
Stile_Cart
 11
-10.1983793647978
 21
-101.0
 31
0.0
100
AcDbAttributeDefinition
  3

  2
COD_CLIENTE
 70
     4
 74
     2
1001
TOP
1070
     7
  0
ATTDEF
  5
807
330
7A2
100
AcDbEntity
  8
0
 62
     0
 48
35.0
100
AcDbText
 10
-10.18785708582345
 20
-107.25
 30
0.0
 40
2.5
  1

  7
Stile_Cart
 11
-10.18785708582345
 21
-106.0
 31
0.0
100
AcDbAttributeDefinition
  3

  2
COMMESSA
 70
     4
 74
     2
1001
TOP
1070
     7
  0
ATTDEF
  5
808
330
7A2
100
AcDbEntity
  8
0
 62
     0
 48
35.0
100
AcDbText
 10
-87.23964845993032
 20
-105.5
 30
0.0
 40
4.0
  1

  7
Stile_Cart
 11
-87.23964845993032
 21
-103.5
 31
0.0
100
AcDbAttributeDefinition
  3

  2
CLIENTE
 70
     4
 74
     2
1001
TOP
1070
     7
  0
ATTDEF
  5
809
330
7A2
100
AcDbEntity
  8
0
 62
     0
 48
35.0
100
AcDbText
 10
-67.95452598552799
 20
-76.0
 30
0.0
 40
2.5
  1

  7
Stile_Cart
 11
-67.95452598552799
 21
-74.75
 31
0.0
100
AcDbAttributeDefinition
  3

  2
MATERIALE
 70
     4
 74
     2
1001
TOP
1070
     7
  0
ATTDEF
  5
80A
330
7A2
100
AcDbEntity
  8
0
 62
     0
 48
35.0
100
AcDbText
 10
35.56280592835867
 20
-76.0
 30
0.0
 40
2.5
  1

  7
Stile_Cart
 11
35.56280592835867
 21
-74.75
 31
0.0
100
AcDbAttributeDefinition
  3

  2
TRATTAMENTI
 70
     4
 74
     2
1001
TOP
1070
     7
  0
ATTDEF
  5
80B
330
7A2
100
AcDbEntity
  8
0
 62
     0
 48
35.0
100
AcDbText
 10
-89.96922082042067
 20
-76.0
 30
0.0
 40
2.5
  1

  7
Stile_Cart
 72
     1
 11
-89.96922082042067
 21
-74.75
 31
0.0
100
AcDbAttributeDefinition
  3

  2
POS.
 70
     4
 74
     2
1001
TOP
1070
     7
  0
ATTDEF
  5
80C
330
7A2
100
AcDbEntity
  8
0
 62
     0
 48
35.0
100
AcDbText
 10
-92.5
 20
-65.75
 30
0.0
 40
2.5
  1

  7
Stile_Cart
 72
     1
 11
-92.5
 21
-64.5
 31
0.0
100
AcDbAttributeDefinition
  3

  2
REV
 70
     4
 74
     2
1001
TOP
1070
     7
  0
ATTDEF
  5
80D
330
7A2
100
AcDbEntity
  8
0
 62
     0
 48
35.0
100
AcDbText
 10
-83.0
 20
-65.75
 30
0.0
 40
2.5
  1

  7
Stile_Cart
 11
-83.0
 21
-64.5
 31
0.0
100
AcDbAttributeDefinition
  3

  2
MOD_REV
 70
     4
 74
     2
1001
TOP
1070
     7
  0
ATTDEF
  5
80E
330
7A2
100
AcDbEntity
  8
0
 62
     0
 48
35.0
100
AcDbText
 10
72.50000000000032
 20
-65.74999999999994
 30
0.0
 40
2.5
  1

  7
Stile_Cart
 72
     1
 11
72.50000000000032
 21
-64.49999999999994
 31
0.0
100
AcDbAttributeDefinition
  3

  2
DATA_REV
 70
     4
 74
     2
1001
TOP
1070
     7
  0
ATTDEF
  5
80F
330
7A2
100
AcDbEntity
  8
0
 62
     0
 48
35.0
100
AcDbText
 10
89.96023144605638
 20
-65.49999999999994
 30
0.0
 40
2.0
  1

 41
0.8
  7
Stile_Cart
 72
     1
 11
89.96023144605638
 21
-64.49999999999994
 31
0.0
100
AcDbAttributeDefinition
  3

  2
DISEGN_REV
 70
     4
 74
     2
1001
TOP
1070
     7
  0
HATCH
  5
810
330
7A2
100
AcDbEntity
  8
0
 62
     0
100
AcDbHatch
 10
0.0
 20
0.0
 30
0.0
210
0.0
220
0.0
230
1.0
  2
_USER
 70
     0
 71
     0
 91
        4
 92
        7
 72
     0
 73
     1
 93
        3
 10
-58.51340972881403
 20
-117.4660194850106
 10
-61.81493486947904
 20
-122.314211233989
 10
-55.21188458814901
 20
-122.314211233989
 97
        0
 92
       22
 72
     0
 73
     1
 93
        3
 10
-55.45140675756261
 20
-122.1875355432553
 10
-61.57541270006544
 20
-122.1875355432553
 10
-58.51340972881403
 20
-117.6910749960615
 97
        0
 92
        6
 72
     0
 73
     1
 93
        3
 10
-58.51340972881403
 20
-119.60682068868
 10
-57.53916988970497
 20
-121.0374629973868
 10
-59.48764956792309
 20
-121.0374629973868
 97
        0
 92
        6
 72
     0
 73
     1
 93
        3
 10
-58.51340972881403
 20
-119.8318761997309
 10
-57.77869205911843
 20
-120.9107873066531
 10
-59.24812739850962
 20
-120.9107873066531
 97
        0
 75
     0
 76
     0
 52
45.0
 41
0.0025335138146728
 77
     0
 78
     1
 53
45.0
 43
-145.0763894181266
 44
-87.49410761997697
 45
-0.0017914647985849
 46
0.0017914647985849
 79
     0
 47
0.4776343342889791
 98
        4
 10
-58.3625666812842
 20
-117.7544455549318
 10
-58.3625666812842
 20
-117.7544455549318
 10
-58.3625666812842
 20
-117.7544455549318
 10
-58.3625666812842
 20
-117.7544455549318
1001
TOP
1070
     7
  0
HATCH
  5
811
330
7A2
100
AcDbEntity
  8
0
 62
     0
100
AcDbHatch
 10
0.0
 20
0.0
 30
0.0
210
0.0
220
0.0
230
1.0
  2
_USER
 70
     0
 71
     0
 91
        2
 92
        5
 93
        8
 72
     1
 10
-58.98505617748044
 20
-117.4660194850106
 11
-63.2546451215655
 21
-117.4660194850106
 72
     3
 10
-63.25464512156552
 20
-118.7418594189523
 11
0.0000000000000065
 21
1.275839933941677
 40
0.9241881291669608
 50
0.0000000000002939
 51
128.5648593758531
 73
     1
 72
     1
 10
-64.20389943823035
 20
-119.498686440472
 11
-62.28658131814547
 21
-122.314211233989
 72
     1
 10
-62.28658131814547
 20
-122.314211233989
 11
-60.88768021990275
 21
-120.2599664612924
 72
     1
 10
-60.88768021990269
 20
-120.2599664612924
 11
-61.7988966217225
 21
-120.2599664612924
 72
     3
 10
-61.79889662172244
 20
-119.8901153594998
 11
-0.0000000000000179
 21
0.3698511017926221
 40
0.9241881291669439
 50
180.0000000000028
 51
360.0000000000027
 73
     0
 72
     1
 10
-61.79889662172259
 20
-119.5202642577072
 11
-60.38395727572326
 21
-119.5202642577072
 72
     1
 10
-60.38395727572321
 20
-119.5202642577072
 11
-58.98505617748048
 21
-117.4660194850106
 97
        0
 92
       20
 93
        8
 72
     1
 10
-59.22457834689404
 20
-117.5926951757442
 11
-60.45095203726094
 21
-119.3935885669735
 72
     1
 10
-60.45095203726091
 20
-119.3935885669735
 11
-61.79889662172256
 21
-119.3935885669735
 72
     4
 94
        3
 73
     0
 74
     0
 95
       30
 96
       26
 40
-0.0000000000000524
 40
-0.0000000000000524
 40
-0.0000000000000524
 40
-0.0000000000000524
 40
0.1824421076755008
 40
0.1824421076755008
 40
0.4761425538560592
 40
0.4761425538560592
 40
0.7698430000366176
 40
0.7698430000366176
 40
1.063543446217175
 40
1.063543446217175
 40
1.357243892397734
 40
1.357243892397734
 40
1.650944338578292
 40
1.650944338578292
 40
1.94464478475885
 40
1.94464478475885
 40
2.238345230939409
 40
2.238345230939409
 40
2.532045677119967
 40
2.532045677119967
 40
2.825746123300525
 40
2.825746123300525
 40
3.119446569481084
 40
3.119446569481084
 40
3.14159265358974
 40
3.14159265358974
 40
3.14159265358974
 40
3.14159265358974
 10
-61.79889662172244
 20
-119.3935885669735
 10
-61.82801918605007
 20
-119.3935885669735
 10
-61.85714024691255
 20
-119.3964743713324
 10
-61.93170457364849
 20
-119.4113594826831
 10
-61.9762418345557
 20
-119.4278758313603
 10
-62.05834848076569
 20
-119.4736931806466
 10
-62.09591021467169
 20
-119.5029715884364
 10
-62.16106903274836
 20
-119.5713154618428
 10
-62.18867086925595
 20
-119.6103660572506
 10
-62.23202886603381
 20
-119.6947817940763
 10
-62.24779066696232
 20
-119.7401405838774
 10
-62.26650896108115
 20
-119.8335365762234
 10
-62.26946788470743
 20
-119.8815710315527
 10
-62.26241107253715
 20
-119.9766367853344
 10
-62.25239443931904
 20
-120.0236658197004
 10
-62.21998452291666
 20
-120.1130585704336
 10
-62.19758693181447
 20
-120.1554181223108
 10
-62.14185817278679
 20
-120.2319148227701
 10
-62.10852083961027
 20
-120.2660415171282
 10
-62.03336878109912
 20
-120.3228205744273
 10
-61.99155440509438
 20
-120.3454528329149
 10
-61.90304576294058
 20
-120.3767488368783
 10
-61.85637006557766
 20
-120.3853917965642
 10
-61.80596681800123
 20
-120.3865997942068
 10
-61.80243171988192
 20
-120.386642152026
 10
-61.79889662172244
 20
-120.386642152026
 72
     1
 10
-61.79889662172259
 20
-120.386642152026
 11
-61.12720238931625
 21
-120.386642152026
 72
     1
 10
-61.12720238931615
 20
-120.386642152026
 11
-62.28658131814535
 21
-122.089155722938
 72
     1
 10
-62.28658131814547
 20
-122.089155722938
 11
-64.09919572367176
 21
-119.4273852288379
 72
     4
 94
        3
 73
     0
 74
     0
 95
       24
 96
       20
 40
0.0000000000000053
 40
0.0000000000000053
 40
0.0000000000000053
 40
0.0000000000000053
 40
0.2006586976762952
 40
0.2006586976762952
 40
0.4645178694060926
 40
0.4645178694060926
 40
0.7283770411358896
 40
0.7283770411358896
 40
0.9922362128656867
 40
0.9922362128656867
 40
1.256095384595483
 40
1.256095384595483
 40
1.519954556325281
 40
1.519954556325281
 40
1.783813728055078
 40
1.783813728055078
 40
2.047672899784875
 40
2.047672899784875
 40
2.205823062185215
 40
2.205823062185215
 40
2.205823062185215
 40
2.205823062185215
 10
-64.09919572367169
 20
-119.4273852288381
 10
-64.14133333111308
 20
-119.3655074020716
 10
-64.17781560493117
 20
-119.2988866797025
 10
-64.2473166818432
 20
-119.13678425806
 10
-64.2755882347031
 20
-119.0388167042716
 10
-64.30753304179575
 20
-118.8380668014803
 10
-64.3112015137481
 20
-118.7353059536648
 10
-64.29364497239165
 20
-118.5323981543247
 10
-64.27242257807589
 20
-118.4322730812405
 10
-64.20673504345991
 20
-118.2418334582757
 10
-64.16227984941041
 20
-118.1515384506684
 10
-64.05353427270897
 20
-117.9870909462505
 10
-63.98926009294118
 20
-117.9129521081215
 10
-63.8456422720105
 20
-117.7857714885274
 10
-63.76631689685152
 20
-117.7327340600262
 10
-63.59818304708389
 20
-117.6510520578116
 10
-63.50938768950408
 20
-117.6224036500391
 10
-63.36451185111707
 20
-117.5974032314108
 10
-63.30957853437579
 20
-117.5926951757442
 10
-63.25464512156552
 20
-117.5926951757442
 72
     1
 10
-63.25464512156552
 20
-117.5926951757442
 11
-59.22457834689407
 21
-117.5926951757442
 97
        0
 75
     0
 76
     0
 52
45.0
 41
0.0025335138146728
 77
     0
 78
     1
 53
45.0
 43
-145.0763894181266
 44
-87.49410761997697
 45
-0.0017914647985849
 46
0.0017914647985849
 79
     0
 47
0.4893897676812284
 98
        2
 10
-61.84143643335007
 20
-117.5062087480829
 10
-61.84143643335007
 20
-117.5062087480829
1001
TOP
1070
     7
  0
LINE
  5
812
330
7A2
100
AcDbEntity
  8
0
 62
     0
 48
35.0
100
AcDbLine
 10
-61.57541270006544
 20
-122.1875355432553
 30
0.0
 11
-55.45140675756261
 21
-122.1875355432553
 31
0.0
1001
TOP
1070
     7
  0
LINE
  5
813
330
7A2
100
AcDbEntity
  8
0
 62
     0
 48
35.0
100
AcDbLine
 10
-58.51340972881403
 20
-117.6910749960615
 30
0.0
 11
-61.57541270006544
 21
-122.1875355432553
 31
0.0
1001
TOP
1070
     7
  0
LINE
  5
814
330
7A2
100
AcDbEntity
  8
0
 62
     0
 48
35.0
100
AcDbLine
 10
-60.45095203726091
 20
-119.3935885669735
 30
0.0
 11
-59.22457834689404
 21
-117.5926951757442
 31
0.0
1001
TOP
1070
     7
  0
LINE
  5
815
330
7A2
100
AcDbEntity
  8
0
 62
     0
 48
35.0
100
AcDbLine
 10
-63.25464512156552
 20
-117.5926951757442
 30
0.0
 11
-59.22457834689404
 21
-117.5926951757442
 31
0.0
1001
TOP
1070
     7
  0
HATCH
  5
816
330
7A2
100
AcDbEntity
  8
0
 62
     0
 48
35.0
100
AcDbHatch
 10
0.0
 20
0.0
 30
0.0
210
0.0
220
0.0
230
1.0
  2
SOLID
 70
     1
 71
     0
 91
        9
 92
        7
 72
     1
 73
     1
 93
        6
 10
-71.84552878642334
 20
-110.9016356264067
 42
0.0
 10
-74.29058737931462
 20
-110.9016356264067
 42
0.0
 10
-74.29058737931519
 20
-116.1992625776742
 42
0.0
 10
-71.84552878642334
 20
-116.1992625776742
 42
0.4142135623732426
 10
-69.80797995901181
 20
-114.1617137502638
 42
0.0
 10
-69.80797995901181
 20
-112.9391844538175
 42
0.4142135623732917
 97
        0
 92
       22
 72
     1
 73
     1
 93
        6
 10
-73.37369040698053
 20
-111.8185325987417
 42
0.0
 10
-72.04928366916323
 20
-111.8185325987417
 42
-0.4142135623733217
 10
-70.72487693134547
 20
-113.1429393365585
 42
0.0
 10
-70.72487693134547
 20
-113.9579588675227
 42
-0.4142135623732008
 10
-72.04928366916265
 20
-115.2823656053394
 42
0.0
 10
-73.37369040698053
 20
-115.2823656053394
 42
0.0
 97
        0
 92
        7
 72
     0
 73
     1
 93
        4
 10
-69.19596576070507
 20
-116.1992625776742
 10
-68.2790687883681
 20
-116.1992625776743
 10
-68.2790687883681
 20
-112.1241649228534
 10
-69.19596576070446
 20
-112.1241649228533
 97
        0
 92
        7
 72
     1
 73
     1
 93
        4
 10
-66.81232703448819
 20
-114.3717406617001
 42
0.0
 10
-63.60355999262495
 20
-114.3717406617001
 42
19.52759892169242
 10
-63.6885412048547
 20
-114.7792504271823
 42
0.0
 10
-64.64181148171686
 20
-114.7792504271823
 42
-0.6319943824460191
 97
        0
 92
       22
 72
     1
 73
     1
 93
        2
 10
-66.63344700230776
 20
-113.5770966190083
 42
-0.6561238478654379
 10
-64.6268512646171
 20
-113.5770966190099
 42
0.0
 97
        0
 92
        7
 72
     1
 73
     1
 93
        9
 10
-62.2682997475075
 20
-113.7542039847831
 42
-0.2437791817823871
 10
-60.69446481241445
 20
-112.9391844538177
 42
0.0
 10
-60.69446481241445
 20
-112.1241649228534
 42
0.0
 10
-61.07539714488324
 20
-112.1241649228533
 42
0.2732984134248683
 10
-62.2682997475075
 20
-112.9391844538167
 42
0.0
 10
-62.2682997475075
 20
-112.1241649228533
 42
0.0
 10
-63.1851967198416
 20
-112.1241649228533
 42
0.0
 10
-63.18519671984217
 20
-116.1992625776741
 42
0.0
 10
-62.26829974750808
 20
-116.1992625776741
 42
0.0
 97
        0
 92
        7
 72
     1
 73
     1
 93
        9
 10
-60.08404740452286
 20
-116.1992625776742
 42
0.0
 10
-59.16715043218747
 20
-116.1992625776743
 42
0.0
 10
-59.16715043218804
 20
-113.7542039847808
 42
-0.2437791817821463
 10
-57.59331549709571
 20
-112.9391844538177
 42
0.0
 10
-57.59331549709571
 20
-112.1241649228534
 42
0.0
 10
-57.97424782956436
 20
-112.1241649228533
 42
0.2732984134246251
 10
-59.16715043218804
 20
-112.9391844538156
 42
0.0
 10
-59.16715043218804
 20
-112.1241649228533
 42
0.0
 10
-60.08404740452343
 20
-112.1241649228534
 42
0.0
 97
        0
 92
        7
 72
     1
 73
     1
 93
        4
 10
-53.33431390247607
 20
-114.3717406617001
 42
19.52759892169242
 10
-53.41929511470581
 20
-114.7792504271823
 42
0.0
 10
-54.3725653915684
 20
-114.7792504271823
 42
-0.631994382445661
 10
-56.54308094433931
 20
-114.3717406617001
 42
0.0
 97
        0
 92
       22
 72
     1
 73
     1
 93
        2
 10
-56.36420091215945
 20
-113.5770966190101
 42
-0.6561238478663365
 10
-54.35760517446764
 20
-113.5770966190099
 42
0.0
 97
        0
 75
     0
 76
     1
 47
0.0
 98
       10
 10
-90.78092639041216
 20
-42.05123987417141
 10
-74.12583755020571
 20
-111.4463704167448
 10
-74.12583755020571
 20
-111.4463704167448
 10
-68.79727884377317
 20
-113.4223135405226
 10
-67.1643338065364
 20
-114.2384639669909
 10
-67.1643338065364
 20
-114.2384639669909
 10
-62.52333117067435
 20
-114.4532403530437
 10
-59.77310730863607
 20
-114.3673298517791
 10
-56.24938307732747
 20
-113.7659558113629
 10
-56.24938307732747
 20
-113.7659558113629
1001
TOP
1070
     5
  0
LINE
  5
817
330
7A2
100
AcDbEntity
  8
0
 62
     0
 48
35.0
100
AcDbLine
 10
-58.51340972881403
 20
-117.4660194850106
 30
0.0
 11
-61.81493486947904
 21
-122.314211233989
 31
0.0
1001
TOP
1070
     7
  0
LINE
  5
818
330
7A2
100
AcDbEntity
  8
0
 62
     0
 48
35.0
100
AcDbLine
 10
-61.81493486947904
 20
-122.314211233989
 30
0.0
 11
-58.51340972881403
 21
-117.4660194850106
 31
0.0
1001
TOP
1070
     7
  0
LINE
  5
819
330
7A2
100
AcDbEntity
  8
0
 62
     0
 48
35.0
100
AcDbLine
 10
-60.38395727572321
 20
-119.5202642577072
 30
0.0
 11
-58.98505617748044
 21
-117.4660194850106
 31
0.0
1001
TOP
1070
     7
  0
LINE
  5
81A
330
7A2
100
AcDbEntity
  8
0
 62
     0
 48
35.0
100
AcDbLine
 10
-60.38395727572321
 20
-119.5202642577072
 30
0.0
 11
-58.98505617748044
 21
-117.4660194850106
 31
0.0
1001
TOP
1070
     7
  0
LINE
  5
81B
330
7A2
100
AcDbEntity
  8
0
 62
     0
 48
35.0
100
AcDbLine
 10
-61.81493486947904
 20
-122.314211233989
 30
0.0
 11
-55.21188458814901
 21
-122.314211233989
 31
0.0
1001
TOP
1070
     7
  0
LINE
  5
81C
330
7A2
100
AcDbEntity
  8
0
 62
     0
 48
35.0
100
AcDbLine
 10
-61.81493486947904
 20
-122.314211233989
 30
0.0
 11
-55.21188458814901
 21
-122.314211233989
 31
0.0
1001
TOP
1070
     7
  0
LINE
  5
81D
330
7A2
100
AcDbEntity
  8
0
 62
     0
 48
35.0
100
AcDbLine
 10
-63.25464512156552
 20
-117.4660194850106
 30
0.0
 11
-58.98505617748044
 21
-117.4660194850106
 31
0.0
1001
TOP
1070
     7
  0
LINE
  5
81E
330
7A2
100
AcDbEntity
  8
0
 62
     0
 48
35.0
100
AcDbLine
 10
-58.98505617748044
 20
-117.4660194850106
 30
0.0
 11
-63.25464512156552
 21
-117.4660194850106
 31
0.0
1001
TOP
1070
     7
  0
HATCH
  5
81F
330
7A2
100
AcDbEntity
  8
0
 62
     0
100
AcDbHatch
 10
0.0
 20
0.0
 30
0.0
210
0.0
220
0.0
230
1.0
  2
_USER
 70
     0
 71
     0
 91
        4
 92
        7
 72
     0
 73
     1
 93
        3
 10
-66.0597529074769
 20
-117.4660194850106
 10
-69.36127804814177
 20
-122.314211233989
 10
-62.75822776681187
 20
-122.314211233989
 97
        0
 92
       22
 72
     0
 73
     1
 93
        3
 10
-66.0597529074769
 20
-117.6910749960615
 10
-62.99774993622548
 20
-122.1875355432553
 10
-69.12175587872832
 20
-122.1875355432553
 97
        0
 92
        6
 72
     0
 73
     1
 93
        3
 10
-66.0597529074769
 20
-119.6068206886799
 10
-65.08551306836783
 20
-121.0374629973868
 10
-67.03399274658593
 20
-121.0374629973868
 97
        0
 92
        6
 72
     0
 73
     1
 93
        3
 10
-66.0597529074769
 20
-119.8318761997309
 10
-65.32503523778129
 20
-120.9107873066531
 10
-66.79447057717247
 20
-120.9107873066531
 97
        0
 75
     0
 76
     0
 52
45.0
 41
0.0025335138146728
 77
     0
 78
     1
 53
45.0
 43
-145.0763894181266
 44
-87.49410761997697
 45
-0.0017914647985849
 46
0.0017914647985849
 79
     0
 47
0.4498708634197186
 98
        4
 10
-66.98331794386297
 20
-118.9902610821707
 10
-66.98331794386297
 20
-118.9902610821707
 10
-66.98331794386297
 20
-118.9902610821707
 10
-66.98331794386297
 20
-118.9902610821707
1001
TOP
1070
     7
  0
HATCH
  5
820
330
7A2
100
AcDbEntity
  8
0
 62
     0
100
AcDbHatch
 10
0.0
 20
0.0
 30
0.0
210
0.0
220
0.0
230
1.0
  2
_USER
 70
     0
 71
     0
 91
        2
 92
        7
 72
     0
 73
     1
 93
       11
 10
-66.53139935614331
 20
-117.4660194850106
 10
-69.83292449680833
 20
-117.4660194850106
 10
-71.07099642455771
 20
-119.5073633793173
 10
-72.30906835230709
 20
-117.4660194850106
 10
-74.31356575913929
 20
-117.4660194850106
 10
-74.31356575913929
 20
-122.314211233989
 10
-72.30906835230709
 20
-122.314211233989
 10
-72.30906835230709
 20
-120.2728673396823
 10
-71.07099642455771
 20
-122.314211233989
 10
-69.83292449680833
 20
-120.2728673396823
 10
-69.83292449680833
 20
-122.314211233989
 97
        0
 92
       22
 72
     0
 73
     1
 93
       11
 10
-66.7709215255569
 20
-117.5926951757442
 10
-69.70624880607465
 20
-121.9031362281759
 10
-69.70624880607465
 20
-119.8197270702886
 10
-71.07099642455771
 20
-122.0699349587142
 10
-72.43574404304061
 20
-119.8197270702886
 10
-72.43574404304061
 20
-122.1875355432553
 10
-74.18689006840565
 20
-122.1875355432553
 10
-74.18689006840565
 20
-117.5926951757442
 10
-72.38039292569886
 20
-117.5926951757442
 10
-71.07099642455771
 20
-119.7516396545921
 10
-69.76159992341655
 20
-117.5926951757442
 97
        0
 75
     0
 76
     0
 52
45.0
 41
0.025335138146728
 77
     0
 78
     1
 53
45.0
 43
-1450.763894181266
 44
-874.9410761997696
 45
-0.0179146479858494
 46
0.0179146479858494
 79
     0
 47
0.9573929903502232
 98
        2
 10
-67.34607948332012
 20
-117.5184194242506
 10
-67.34607948332012
 20
-117.5184194242506
1001
TOP
1070
     7
  0
SPLINE
  5
821
330
7A2
100
AcDbEntity
  8
0
 62
     0
 48
35.0
100
AcDbSpline
210
0.0
220
0.0
230
1.0
 70
     8
 71
     3
 72
    24
 73
    20
 74
     0
 42
0.0000000001
 43
0.0000000001
 40
0.0000000000000053
 40
0.0000000000000053
 40
0.0000000000000053
 40
0.0000000000000053
 40
0.1581501624003457
 40
0.1581501624003457
 40
0.4220093341301429
 40
0.4220093341301429
 40
0.6858685058599401
 40
0.6858685058599401
 40
0.9497276775897372
 40
0.9497276775897372
 40
1.213586849319534
 40
1.213586849319534
 40
1.477446021049331
 40
1.477446021049331
 40
1.741305192779128
 40
1.741305192779128
 40
2.005164364508925
 40
2.005164364508925
 40
2.205823062185215
 40
2.205823062185215
 40
2.205823062185215
 40
2.205823062185215
 10
-63.25464512156552
 20
-117.5926951757442
 30
0.0
 10
-63.30957853437581
 20
-117.5926951757442
 30
0.0
 10
-63.36451185111707
 20
-117.5974032314108
 30
0.0
 10
-63.50938768950411
 20
-117.6224036500391
 30
0.0
 10
-63.59818304708389
 20
-117.6510520578116
 30
0.0
 10
-63.76631689685152
 20
-117.7327340600262
 30
0.0
 10
-63.8456422720105
 20
-117.7857714885274
 30
0.0
 10
-63.98926009294118
 20
-117.9129521081215
 30
0.0
 10
-64.05353427270899
 20
-117.9870909462505
 30
0.0
 10
-64.16227984941039
 20
-118.1515384506684
 30
0.0
 10
-64.20673504345993
 20
-118.2418334582757
 30
0.0
 10
-64.27242257807589
 20
-118.4322730812405
 30
0.0
 10
-64.29364497239166
 20
-118.5323981543247
 30
0.0
 10
-64.31120151374813
 20
-118.7353059536648
 30
0.0
 10
-64.30753304179575
 20
-118.8380668014803
 30
0.0
 10
-64.27558823470312
 20
-119.0388167042716
 30
0.0
 10
-64.24731668184321
 20
-119.13678425806
 30
0.0
 10
-64.17781560493117
 20
-119.2988866797025
 30
0.0
 10
-64.14133333111308
 20
-119.3655074020716
 30
0.0
 10
-64.0991957236717
 20
-119.4273852288381
 30
0.0
1001
TOP
1070
     7
  0
LINE
  5
822
330
7A2
100
AcDbEntity
  8
0
 62
     0
 48
35.0
100
AcDbLine
 10
-66.0597529074769
 20
-117.6910749960615
 30
0.0
 11
-62.99774993622548
 21
-122.1875355432553
 31
0.0
1001
TOP
1070
     7
  0
LINE
  5
823
330
7A2
100
AcDbEntity
  8
0
 62
     0
 48
35.0
100
AcDbLine
 10
-69.12175587872832
 20
-122.1875355432553
 30
0.0
 11
-66.0597529074769
 21
-117.6910749960615
 31
0.0
1001
TOP
1070
     7
  0
LINE
  5
824
330
7A2
100
AcDbEntity
  8
0
 62
     0
 48
35.0
100
AcDbLine
 10
-66.7709215255569
 20
-117.5926951757442
 30
0.0
 11
-69.70624880607465
 21
-121.9031362281759
 31
0.0
1001
TOP
1070
     7
  0
LINE
  5
825
330
7A2
100
AcDbEntity
  8
0
 62
     0
 48
35.0
100
AcDbLine
 10
-71.07099642455771
 20
-119.7516396545921
 30
0.0
 11
-69.76159992341655
 21
-117.5926951757442
 31
0.0
1001
TOP
1070
     7
  0
LINE
  5
826
330
7A2
100
AcDbEntity
  8
0
 62
     0
 48
35.0
100
AcDbLine
 10
-72.38039292569872
 20
-117.5926951757442
 30
0.0
 11
-71.07099642455771
 21
-119.7516396545921
 31
0.0
1001
TOP
1070
     7
  0
LINE
  5
827
330
7A2
100
AcDbEntity
  8
0
 62
     0
 48
35.0
100
AcDbLine
 10
-74.18689006840565
 20
-122.1875355432553
 30
0.0
 11
-74.18689006840565
 21
-117.5926951757442
 31
0.0
1001
TOP
1070
     7
  0
HATCH
  5
828
330
7A2
100
AcDbEntity
  8
0
 62
     0
 48
35.0
100
AcDbHatch
 10
0.0
 20
0.0
 30
0.0
210
0.0
220
0.0
230
1.0
  2
SOLID
 70
     1
 71
     0
 91
        4
 92
        7
 72
     1
 73
     1
 93
        5
 10
-89.10683207947483
 20
-124.6850987475274
 42
0.0
 10
-87.35349510180478
 20
-122.8315710854195
 42
-0.2526825286644724
 10
-89.17009369082693
 20
-117.7483067327306
 42
-0.2365496875282547
 10
-86.82351979772915
 20
-113.336123799095
 42
-0.3189181398811636
 10
-78.38492593237714
 20
-113.3361237990928
 42
0.9456749006874224
 97
        0
 92
       23
 72
     1
 73
     1
 93
        3
 10
-86.74226149114629
 20
-122.4148208963342
 42
0.0
 10
-85.7698443832773
 20
-121.35905375065
 42
-0.9367032511192702
 10
-80.26690527327478
 20
-115.3844341454997
 42
0.99129372955614
 97
        0
 92
       23
 72
     1
 73
     1
 93
        3
 10
-86.43848129988754
 20
-122.6938545839789
 42
0.9912937295511166
 10
-79.96312508201604
 20
-115.663467833145
 42
0.0
 10
-80.93554218988227
 20
-116.719234978829
 42
-0.936703251121934
 97
        0
 92
        7
 72
     1
 73
     1
 93
        4
 10
-78.93514128227815
 20
-123.7206381554776
 42
-0.3807594385329866
 10
-88.43908650051144
 20
-125.3124232616272
 42
0.9590989174885557
 10
-77.93529449403573
 20
-113.7467751337015
 42
0.0
 10
-79.51859154699184
 20
-115.3856343737545
 42
-0.3704192144445533
 97
        0
 75
     0
 76
     1
 47
0.0
 98
        5
 10
-101.6103226109866
 20
0.9480912693831555
 10
-90.36264523510974
 20
-117.349849835955
 10
-87.58269703194967
 20
-118.5564562835315
 10
-79.57205612305424
 20
-119.7630627311087
 10
-77.23104688846169
 20
-117.934871251367
1001
TOP
1070
     3
  0
ARC
  5
829
330
7A2
100
AcDbEntity
  8
0
  6
Continuous
 62
     0
370
     0
100
AcDbCircle
 10
-84.08039070875366
 20
-119.8928829652006
 30
0.0
 40
6.412901173208513
100
AcDbArc
 50
323.3529774061781
 51
44.65536847523947
1001
TOP
1070
     3
  0
ARC
  5
82A
330
7A2
100
AcDbEntity
  8
0
  6
Continuous
 62
     0
370
     0
100
AcDbCircle
 10
-83.55360802539527
 20
-118.6073813781558
 30
0.0
 40
5.68180609282049
100
AcDbArc
 50
171.3036725542793
 51
228.0269063594424
1001
TOP
1070
     3
  0
ARC
  5
82B
330
7A2
100
AcDbEntity
  8
0
  6
Continuous
 62
     0
370
     0
100
AcDbCircle
 10
-83.42875757753855
 20
-119.3102106827588
 30
0.0
 40
7.81856455868486
100
AcDbArc
 50
230.1466606584168
 51
45.36258570985855
1001
TOP
1070
     3
  0
ARC
  5
82C
330
7A2
100
AcDbEntity
  8
0
  6
Continuous
 62
     0
370
     0
100
AcDbCircle
 10
-83.2315418095875
 20
-119.1503493229755
 30
0.0
 40
4.77921441548658
100
AcDbArc
 50
227.8543072058956
 51
46.85228652634269
1001
TOP
1070
     3
  0
ARC
  5
82D
330
7A2
100
AcDbEntity
  8
0
  6
Continuous
 62
     0
370
     0
100
AcDbCircle
 10
-83.88248742200639
 20
-119.5265013945824
 30
0.0
 40
4.070040654606041
100
AcDbArc
 50
231.0971291910449
 51
43.60946454123602
1001
TOP
1070
     3
  0
ARC
  5
82E
330
7A2
100
AcDbEntity
  8
0
  6
Continuous
 62
     0
370
     0
100
AcDbCircle
 10
-83.47384476357294
 20
-118.9279394065033
 30
0.0
 40
4.77921441548658
100
AcDbArc
 50
47.8543072058956
 51
226.8522865263427
1001
TOP
1070
     3
  0
ARC
  5
82F
330
7A2
100
AcDbEntity
  8
0
  6
Continuous
 62
     0
370
     0
100
AcDbCircle
 10
-82.82289915115594
 20
-118.5517873348961
 30
0.0
 40
4.070040654606041
100
AcDbArc
 50
51.09712919104487
 51
223.609464541236
1001
TOP
1070
     3
  0
ARC
  5
830
330
7A2
100
AcDbEntity
  8
0
  6
Continuous
 62
     0
370
     0
100
AcDbCircle
 10
-83.42875757753855
 20
-119.3102106827588
 30
0.0
 40
7.81856455868486
100
AcDbArc
 50
49.82610094250503
 51
223.4287517252198
1001
TOP
1070
     3
  0
ELLIPSE
  5
831
330
7A2
100
AcDbEntity
  8
0
 62
     0
 48
35.0
100
AcDbEllipse
 10
-63.25464512156552
 20
-118.7418594189523
 30
0.0
 11
0.0000000000000065
 21
1.275839933941677
 31
0.0
210
0.0
220
0.0
230
1.0
 40
0.9241881291669608
 41
0.0000000000000056
 42
2.205823062185215
1001
TOP
1070
     7
  0
LINE
  5
832
330
7A2
100
AcDbEntity
  8
0
 62
     0
 48
35.0
100
AcDbLine
 10
-66.0597529074769
 20
-117.4660194850106
 30
0.0
 11
-62.75822776681187
 21
-122.314211233989
 31
0.0
1001
TOP
1070
     7
  0
LINE
  5
833
330
7A2
100
AcDbEntity
  8
0
 62
     0
 48
35.0
100
AcDbLine
 10
-62.75822776681187
 20
-122.314211233989
 30
0.0
 11
-66.0597529074769
 21
-117.4660194850106
 31
0.0
1001
TOP
1070
     7
  0
ELLIPSE
  5
834
330
7A2
100
AcDbEntity
  8
0
 62
     0
 48
35.0
100
AcDbEllipse
 10
-63.25464512156552
 20
-118.7418594189523
 30
0.0
 11
-0.0000000000000247
 21
1.275839933941677
 31
0.0
210
0.0
220
0.0
230
-1.0
 40
0.9241881291669727
 41
4.077362244994374
 42
6.283185307179586
1001
TOP
1070
     7
  0
LINE
  5
835
330
7A2
100
AcDbEntity
  8
0
 62
     0
 48
35.0
100
AcDbLine
 10
-72.30906835230709
 20
-117.4660194850106
 30
0.0
 11
-71.07099642455771
 21
-119.5073633793173
 31
0.0
1001
TOP
1070
     7
  0
LINE
  5
836
330
7A2
100
AcDbEntity
  8
0
 62
     0
 48
35.0
100
AcDbLine
 10
-72.30906835230709
 20
-117.4660194850106
 30
0.0
 11
-71.07099642455771
 21
-119.5073633793173
 31
0.0
1001
TOP
1070
     7
  0
LINE
  5
837
330
7A2
100
AcDbEntity
  8
0
 62
     0
 48
35.0
100
AcDbLine
 10
-71.07099642455771
 20
-119.5073633793173
 30
0.0
 11
-69.83292449680833
 21
-117.4660194850106
 31
0.0
1001
TOP
1070
     7
  0
LINE
  5
838
330
7A2
100
AcDbEntity
  8
0
 62
     0
 48
35.0
100
AcDbLine
 10
-69.83292449680833
 20
-117.4660194850106
 30
0.0
 11
-71.07099642455771
 21
-119.5073633793173
 31
0.0
1001
TOP
1070
     7
  0
LINE
  5
839
330
7A2
100
AcDbEntity
  8
0
 62
     0
 48
35.0
100
AcDbLine
 10
-74.31356575913929
 20
-122.314211233989
 30
0.0
 11
-74.31356575913929
 21
-117.4660194850106
 31
0.0
1001
TOP
1070
     7
  0
LINE
  5
83A
330
7A2
100
AcDbEntity
  8
0
 62
     0
 48
35.0
100
AcDbLine
 10
-74.31356575913929
 20
-122.314211233989
 30
0.0
 11
-74.31356575913929
 21
-117.4660194850106
 31
0.0
1001
TOP
1070
     7
  0
LINE
  5
83B
330
7A2
100
AcDbEntity
  8
0
 62
     0
 48
35.0
100
AcDbLine
 10
-66.53139935614331
 20
-117.4660194850106
 30
0.0
 11
-69.83292449680833
 21
-122.314211233989
 31
0.0
1001
TOP
1070
     7
  0
LINE
  5
83C
330
7A2
100
AcDbEntity
  8
0
 62
     0
 48
35.0
100
AcDbLine
 10
-69.36127804814191
 20
-122.314211233989
 30
0.0
 11
-66.0597529074769
 21
-117.4660194850106
 31
0.0
1001
TOP
1070
     7
  0
LINE
  5
83D
330
7A2
100
AcDbEntity
  8
0
 62
     0
 48
35.0
100
AcDbLine
 10
-69.83292449680833
 20
-122.314211233989
 30
0.0
 11
-66.53139935614331
 21
-117.4660194850106
 31
0.0
1001
TOP
1070
     7
  0
LINE
  5
83E
330
7A2
100
AcDbEntity
  8
0
 62
     0
 48
35.0
100
AcDbLine
 10
-69.36127804814191
 20
-122.314211233989
 30
0.0
 11
-66.0597529074769
 21
-117.4660194850106
 31
0.0
1001
TOP
1070
     7
  0
ARC
  5
83F
330
7A2
100
AcDbEntity
  8
0
  6
Continuous
 62
     0
370
     0
100
AcDbCircle
 10
-84.58073040170994
 20
-119.1810854104821
 30
0.0
 40
7.244322993216349
100
AcDbArc
 50
237.8184274609984
 51
321.1976420062449
1001
TOP
1070
     3
  0
LINE
  5
840
330
7A2
100
AcDbEntity
  8
0
  6
Continuous
 62
     0
370
     0
100
AcDbLine
 10
-87.35349510180478
 20
-122.8315710854195
 30
0.0
 11
-89.10683207947483
 21
-124.6850987475274
 31
0.0
1001
TOP
1070
     3
  0
LINE
  5
841
330
7A2
100
AcDbEntity
  8
0
  6
Continuous
 62
     0
370
     0
100
AcDbLine
 10
-85.7698443832773
 20
-121.35905375065
 30
0.0
 11
-86.74226149114629
 21
-122.4148208963342
 31
0.0
1001
TOP
1070
     3
  0
MTEXT
  5
842
330
7A2
100
AcDbEntity
  8
0
 62
     0
100
AcDbMText
 10
-74.31757327534964
 20
-125.8703128991548
 30
0.0
 40
3.546919340541919
 41
0.0
 71
     4
 72
     1
  1
{\fArial|b0|i1|c0|p2;Group}
  7
arial_ttf
 73
     1
 44
1.0
1001
TOP
1070
     7
1001
ACAD
1000
MTEXTBEGIN
1070
    73
1070
     1
1070
    44
1040
1.0
1070
    74
1070
     0
1000
MTEXTEND
  0
LINE
  5
843
330
7A2
100
AcDbEntity
  8
0
 62
     0
 48
35.0
100
AcDbLine
 10
-69.70624880607465
 20
-119.8197270702886
 30
0.0
 11
-71.07099642455771
 21
-122.0699349587142
 31
0.0
1001
TOP
1070
     7
  0
LINE
  5
844
330
7A2
100
AcDbEntity
  8
0
 62
     0
 48
35.0
100
AcDbLine
 10
-69.83292449680833
 20
-120.2728673396823
 30
0.0
 11
-71.07099642455771
 21
-122.314211233989
 31
0.0
1001
TOP
1070
     7
  0
LINE
  5
845
330
7A2
100
AcDbEntity
  8
0
 62
     0
 48
35.0
100
AcDbLine
 10
-69.83292449680833
 20
-120.2728673396823
 30
0.0
 11
-71.07099642455771
 21
-122.314211233989
 31
0.0
1001
TOP
1070
     7
  0
LINE
  5
846
330
7A2
100
AcDbEntity
  8
0
 62
     0
 48
35.0
100
AcDbLine
 10
-71.07099642455771
 20
-122.0699349587142
 30
0.0
 11
-72.43574404304061
 21
-119.8197270702886
 31
0.0
1001
TOP
1070
     7
  0
LINE
  5
847
330
7A2
100
AcDbEntity
  8
0
 62
     0
 48
35.0
100
AcDbLine
 10
-72.43574404304061
 20
-119.8197270702886
 30
0.0
 11
-72.43574404304061
 21
-122.1875355432553
 31
0.0
1001
TOP
1070
     7
  0
LINE
  5
848
330
7A2
100
AcDbEntity
  8
0
 62
     0
 48
35.0
100
AcDbLine
 10
-71.07099642455771
 20
-122.314211233989
 30
0.0
 11
-72.30906835230709
 21
-120.2728673396823
 31
0.0
1001
TOP
1070
     7
  0
LINE
  5
849
330
7A2
100
AcDbEntity
  8
0
 62
     0
 48
35.0
100
AcDbLine
 10
-72.30906835230709
 20
-120.2728673396823
 30
0.0
 11
-71.07099642455771
 21
-122.314211233989
 31
0.0
1001
TOP
1070
     7
  0
LINE
  5
84A
330
7A2
100
AcDbEntity
  8
0
 62
     0
 48
35.0
100
AcDbLine
 10
-72.30906835230709
 20
-120.2728673396823
 30
0.0
 11
-72.30906835230709
 21
-122.314211233989
 31
0.0
1001
TOP
1070
     7
  0
LINE
  5
84B
330
7A2
100
AcDbEntity
  8
0
 62
     0
 48
35.0
100
AcDbLine
 10
-72.30906835230709
 20
-122.314211233989
 30
0.0
 11
-72.30906835230709
 21
-120.2728673396823
 31
0.0
1001
TOP
1070
     7
  0
LINE
  5
84C
330
7A2
100
AcDbEntity
  8
0
 62
     0
 48
35.0
100
AcDbLine
 10
-72.43574404304061
 20
-122.1875355432553
 30
0.0
 11
-74.18689006840565
 21
-122.1875355432553
 31
0.0
1001
TOP
1070
     7
  0
LINE
  5
84D
330
7A2
100
AcDbEntity
  8
0
 62
     0
 48
35.0
100
AcDbLine
 10
-72.30906835230709
 20
-122.314211233989
 30
0.0
 11
-74.31356575913929
 21
-122.314211233989
 31
0.0
1001
TOP
1070
     7
  0
LINE
  5
84E
330
7A2
100
AcDbEntity
  8
0
 62
     0
 48
35.0
100
AcDbLine
 10
-74.31356575913929
 20
-122.314211233989
 30
0.0
 11
-72.30906835230709
 21
-122.314211233989
 31
0.0
1001
TOP
1070
     7
  0
HATCH
  5
84F
330
7A2
100
AcDbEntity
  8
0
 62
     0
100
AcDbHatch
 10
0.0
 20
0.0
 30
0.0
210
0.0
220
0.0
230
1.0
  2
_USER
 70
     0
 71
     0
 91
        2
 92
        7
 72
     0
 73
     1
 93
        3
 10
-66.0597529074769
 20
-119.6068206886799
 10
-67.03399274658593
 20
-121.0374629973868
 10
-65.08551306836783
 20
-121.0374629973868
 97
        0
 92
       22
 72
     0
 73
     1
 93
        3
 10
-66.0597529074769
 20
-119.8318761997309
 10
-65.32503523778129
 20
-120.9107873066531
 10
-66.79447057717247
 20
-120.9107873066531
 97
        0
 75
     0
 76
     0
 52
45.0
 41
0.025335138146728
 77
     0
 78
     1
 53
45.0
 43
-145.0763894181266
 44
-87.49410761997697
 45
-0.0179146479858494
 46
0.0179146479858494
 79
     0
 47
0.4498708634197186
 98
        2
 10
-66.33330440351575
 20
-120.1642077485881
 10
-66.33330440351575
 20
-120.1642077485881
1001
TOP
1070
     7
  0
LINE
  5
850
330
7A2
100
AcDbEntity
  8
0
 62
     0
 48
35.0
100
AcDbLine
 10
-66.0597529074769
 20
-119.6068206886799
 30
0.0
 11
-65.08551306836783
 21
-121.0374629973868
 31
0.0
1001
TOP
1070
     7
  0
LINE
  5
851
330
7A2
100
AcDbEntity
  8
0
 62
     0
 48
35.0
100
AcDbLine
 10
-65.08551306836783
 20
-121.0374629973868
 30
0.0
 11
-67.03399274658593
 21
-121.0374629973868
 31
0.0
1001
TOP
1070
     7
  0
LINE
  5
852
330
7A2
100
AcDbEntity
  8
0
 62
     0
 48
35.0
100
AcDbLine
 10
-62.99774993622548
 20
-122.1875355432553
 30
0.0
 11
-69.12175587872832
 21
-122.1875355432553
 31
0.0
1001
TOP
1070
     7
  0
LINE
  5
853
330
7A2
100
AcDbEntity
  8
0
 62
     0
 48
35.0
100
AcDbLine
 10
-65.32503523778129
 20
-120.9107873066531
 30
0.0
 11
-66.79447057717235
 21
-120.9107873066531
 31
0.0
1001
TOP
1070
     7
  0
LINE
  5
854
330
7A2
100
AcDbEntity
  8
0
 62
     0
 48
35.0
100
AcDbLine
 10
-66.79447057717235
 20
-120.9107873066531
 30
0.0
 11
-65.32503523778129
 21
-120.9107873066531
 31
0.0
1001
TOP
1070
     7
  0
LINE
  5
855
330
7A2
100
AcDbEntity
  8
0
 62
     0
 48
35.0
100
AcDbLine
 10
-66.0597529074769
 20
-119.8318761997309
 30
0.0
 11
-65.32503523778129
 21
-120.9107873066531
 31
0.0
1001
TOP
1070
     7
  0
LINE
  5
856
330
7A2
100
AcDbEntity
  8
0
 62
     0
 48
35.0
100
AcDbLine
 10
-65.32503523778129
 20
-120.9107873066531
 30
0.0
 11
-66.0597529074769
 21
-119.8318761997309
 31
0.0
1001
TOP
1070
     7
  0
LINE
  5
857
330
7A2
100
AcDbEntity
  8
0
 62
     0
 48
35.0
100
AcDbLine
 10
-62.75822776681187
 20
-122.314211233989
 30
0.0
 11
-69.36127804814191
 21
-122.314211233989
 31
0.0
1001
TOP
1070
     7
  0
LINE
  5
858
330
7A2
100
AcDbEntity
  8
0
 62
     0
 48
35.0
100
AcDbLine
 10
-69.36127804814191
 20
-122.314211233989
 30
0.0
 11
-62.75822776681187
 21
-122.314211233989
 31
0.0
1001
TOP
1070
     7
  0
LINE
  5
859
330
7A2
100
AcDbEntity
  8
0
 62
     0
 48
35.0
100
AcDbLine
 10
-67.03399274658593
 20
-121.0374629973868
 30
0.0
 11
-66.0597529074769
 21
-119.6068206886799
 31
0.0
1001
TOP
1070
     7
  0
LINE
  5
85A
330
7A2
100
AcDbEntity
  8
0
 62
     0
 48
35.0
100
AcDbLine
 10
-69.70624880607465
 20
-121.9031362281759
 30
0.0
 11
-69.70624880607465
 21
-119.8197270702886
 31
0.0
1001
TOP
1070
     7
  0
LINE
  5
85B
330
7A2
100
AcDbEntity
  8
0
 62
     0
 48
35.0
100
AcDbLine
 10
-69.83292449680833
 20
-122.314211233989
 30
0.0
 11
-69.83292449680833
 21
-120.2728673396823
 31
0.0
1001
TOP
1070
     7
  0
LINE
  5
85C
330
7A2
100
AcDbEntity
  8
0
 62
     0
 48
35.0
100
AcDbLine
 10
-69.83292449680833
 20
-120.2728673396823
 30
0.0
 11
-69.83292449680833
 21
-122.314211233989
 31
0.0
1001
TOP
1070
     7
  0
LINE
  5
85D
330
7A2
100
AcDbEntity
  8
0
 62
     0
 48
35.0
100
AcDbLine
 10
-66.79447057717235
 20
-120.9107873066531
 30
0.0
 11
-66.0597529074769
 21
-119.8318761997309
 31
0.0
1001
TOP
1070
     7
  0
LINE
  5
85E
330
7A2
100
AcDbEntity
  8
0
 62
     0
 48
35.0
100
AcDbLine
 10
-66.79447057717235
 20
-120.9107873066531
 30
0.0
 11
-66.0597529074769
 21
-119.8318761997309
 31
0.0
1001
TOP
1070
     7
  0
LINE
  5
85F
330
7A2
100
AcDbEntity
  8
0
 62
     0
 48
35.0
100
AcDbLine
 10
-62.28658131814547
 20
-122.089155722938
 30
0.0
 11
-61.12720238931629
 21
-120.386642152026
 31
0.0
1001
TOP
1070
     7
  0
LINE
  5
860
330
7A2
100
AcDbEntity
  8
0
 62
     0
 48
35.0
100
AcDbLine
 10
-64.09919572367169
 20
-119.4273852288381
 30
0.0
 11
-62.28658131814547
 21
-122.089155722938
 31
0.0
1001
TOP
1070
     7
  0
LINE
  5
861
330
7A2
100
AcDbEntity
  8
0
 62
     0
 48
35.0
100
AcDbLine
 10
-62.28658131814547
 20
-122.314211233989
 30
0.0
 11
-60.88768021990269
 21
-120.2599664612924
 31
0.0
1001
TOP
1070
     7
  0
LINE
  5
862
330
7A2
100
AcDbEntity
  8
0
 62
     0
 48
35.0
100
AcDbLine
 10
-62.28658131814547
 20
-122.314211233989
 30
0.0
 11
-60.88768021990269
 21
-120.2599664612924
 31
0.0
1001
TOP
1070
     7
  0
LINE
  5
863
330
7A2
100
AcDbEntity
  8
0
 62
     0
 48
35.0
100
AcDbLine
 10
-64.20389943823022
 20
-119.4986864404721
 30
0.0
 11
-62.28658131814547
 21
-122.314211233989
 31
0.0
1001
TOP
1070
     7
  0
LINE
  5
864
330
7A2
100
AcDbEntity
  8
0
 62
     0
 48
35.0
100
AcDbLine
 10
-62.28658131814547
 20
-122.314211233989
 30
0.0
 11
-64.20389943823022
 21
-119.4986864404721
 31
0.0
1001
TOP
1070
     7
  0
SPLINE
  5
865
330
7A2
100
AcDbEntity
  8
0
 62
     0
 48
35.0
100
AcDbSpline
210
0.0
220
0.0
230
1.0
 70
     8
 71
     3
 72
    30
 73
    26
 74
     0
 42
0.0000000001
 43
0.0000000001
 40
-0.0000000000000524
 40
-0.0000000000000524
 40
-0.0000000000000524
 40
-0.0000000000000524
 40
0.1824421076755008
 40
0.1824421076755008
 40
0.4761425538560592
 40
0.4761425538560592
 40
0.7698430000366176
 40
0.7698430000366176
 40
1.063543446217175
 40
1.063543446217175
 40
1.357243892397734
 40
1.357243892397734
 40
1.650944338578292
 40
1.650944338578292
 40
1.94464478475885
 40
1.94464478475885
 40
2.238345230939409
 40
2.238345230939409
 40
2.532045677119967
 40
2.532045677119967
 40
2.825746123300525
 40
2.825746123300525
 40
3.119446569481084
 40
3.119446569481084
 40
3.14159265358974
 40
3.14159265358974
 40
3.14159265358974
 40
3.14159265358974
 10
-61.79889662172247
 20
-119.3935885669735
 30
0.0
 10
-61.82801918605008
 20
-119.3935885669735
 30
0.0
 10
-61.85714024691256
 20
-119.3964743713324
 30
0.0
 10
-61.93170457364849
 20
-119.4113594826831
 30
0.0
 10
-61.97624183455568
 20
-119.4278758313603
 30
0.0
 10
-62.05834848076569
 20
-119.4736931806466
 30
0.0
 10
-62.0959102146717
 20
-119.5029715884364
 30
0.0
 10
-62.16106903274834
 20
-119.5713154618428
 30
0.0
 10
-62.18867086925595
 20
-119.6103660572506
 30
0.0
 10
-62.2320288660338
 20
-119.6947817940763
 30
0.0
 10
-62.24779066696232
 20
-119.7401405838774
 30
0.0
 10
-62.26650896108115
 20
-119.8335365762234
 30
0.0
 10
-62.26946788470744
 20
-119.8815710315527
 30
0.0
 10
-62.26241107253716
 20
-119.9766367853344
 30
0.0
 10
-62.25239443931906
 20
-120.0236658197004
 30
0.0
 10
-62.21998452291666
 20
-120.1130585704336
 30
0.0
 10
-62.19758693181447
 20
-120.1554181223108
 30
0.0
 10
-62.14185817278681
 20
-120.2319148227701
 30
0.0
 10
-62.10852083961026
 20
-120.2660415171282
 30
0.0
 10
-62.03336878109912
 20
-120.3228205744273
 30
0.0
 10
-61.9915544050944
 20
-120.3454528329149
 30
0.0
 10
-61.90304576294059
 20
-120.3767488368783
 30
0.0
 10
-61.85637006557766
 20
-120.3853917965642
 30
0.0
 10
-61.80596681800122
 20
-120.3865997942068
 30
0.0
 10
-61.80243171988192
 20
-120.386642152026
 30
0.0
 10
-61.79889662172247
 20
-120.386642152026
 30
0.0
1001
TOP
1070
     7
  0
ELLIPSE
  5
866
330
7A2
100
AcDbEntity
  8
0
 62
     0
 48
35.0
100
AcDbEllipse
 10
-61.79889662172247
 20
-119.8901153594998
 30
0.0
 11
-0.0000000000000179
 21
0.369851101792622
 31
0.0
210
0.0
220
0.0
230
1.0
 40
0.9241881291669439
 41
-0.0000000000000524
 42
3.14159265358974
1001
TOP
1070
     7
  0
ELLIPSE
  5
867
330
7A2
100
AcDbEntity
  8
0
 62
     0
 48
35.0
100
AcDbEllipse
 10
-61.79889662172247
 20
-119.8901153594998
 30
0.0
 11
0.0000000000000014
 21
0.3698511017926221
 31
0.0
210
0.0
220
0.0
230
-1.0
 40
0.9241881291669781
 41
3.141592653589793
 42
6.283185307179586
1001
TOP
1070
     7
  0
LINE
  5
868
330
7A2
100
AcDbEntity
  8
0
 62
     0
 48
35.0
100
AcDbLine
 10
-61.12720238931629
 20
-120.386642152026
 30
0.0
 11
-61.79889662172244
 21
-120.386642152026
 31
0.0
1001
TOP
1070
     7
  0
LINE
  5
869
330
7A2
100
AcDbEntity
  8
0
 62
     0
 48
35.0
100
AcDbLine
 10
-60.88768021990269
 20
-120.2599664612924
 30
0.0
 11
-61.79889662172244
 21
-120.2599664612924
 31
0.0
1001
TOP
1070
     7
  0
LINE
  5
86A
330
7A2
100
AcDbEntity
  8
0
 62
     0
 48
35.0
100
AcDbLine
 10
-60.88768021990269
 20
-120.2599664612924
 30
0.0
 11
-61.79889662172244
 21
-120.2599664612924
 31
0.0
1001
TOP
1070
     7
  0
LINE
  5
86B
330
7A2
100
AcDbEntity
  8
0
 62
     0
 48
35.0
100
AcDbLine
 10
-60.45095203726091
 20
-119.3935885669735
 30
0.0
 11
-61.79889662172244
 21
-119.3935885669735
 31
0.0
1001
TOP
1070
     7
  0
LINE
  5
86C
330
7A2
100
AcDbEntity
  8
0
 62
     0
 48
35.0
100
AcDbLine
 10
-60.38395727572321
 20
-119.5202642577072
 30
0.0
 11
-61.79889662172244
 21
-119.5202642577072
 31
0.0
1001
TOP
1070
     7
  0
LINE
  5
86D
330
7A2
100
AcDbEntity
  8
0
 62
     0
 48
35.0
100
AcDbLine
 10
-61.79889662172244
 20
-119.5202642577072
 30
0.0
 11
-60.38395727572321
 21
-119.5202642577072
 31
0.0
1001
TOP
1070
     7
  0
ARC
  5
86E
330
7A2
100
AcDbEntity
  8
0
  6
Continuous
 62
     0
370
     0
100
AcDbCircle
 10
-82.60422286505365
 20
-119.2783342215524
 30
0.0
 40
7.287820751835251
100
AcDbArc
 50
54.62314853322021
 51
125.3768514667798
1001
TOP
1070
     3
  0
ARC
  5
86F
330
7A2
100
AcDbEntity
  8
0
  6
Continuous
 62
     0
370
     0
100
AcDbCircle
 10
-83.59467039887949
 20
-117.8834459848848
 30
0.0
 40
5.577060830030723
100
AcDbArc
 50
125.3768514667798
 51
178.611514748478
1001
TOP
1070
     3
  0
LINE
  5
870
330
7A2
100
AcDbEntity
  8
0
  6
Continuous
 62
     0
370
     0
100
AcDbLine
 10
-60.69446481241445
 20
-112.9391844538175
 30
0.0
 11
-60.69446481241445
 21
-112.1241649228533
 31
0.0
1001
TOP
1070
     5
  0
LINE
  5
871
330
7A2
100
AcDbEntity
  8
0
  6
Continuous
 62
     0
370
     0
100
AcDbLine
 10
-62.2682997475075
 20
-112.1241649228533
 30
0.0
 11
-62.2682997475075
 21
-112.9391844538175
 31
0.0
1001
TOP
1070
     5
  0
LINE
  5
872
330
7A2
100
AcDbEntity
  8
0
  6
Continuous
 62
     0
370
     0
100
AcDbLine
 10
-62.2682997475075
 20
-112.9391844538175
 30
0.0
 11
-62.2682997475075
 21
-112.1241649228533
 31
0.0
1001
TOP
1070
     5
  0
ARC
  5
873
330
7A2
100
AcDbEntity
  8
0
  6
Continuous
 62
     0
370
     0
100
AcDbCircle
 10
-60.9819943923974
 20
-113.5413789530081
 30
0.0
 40
1.420288590899619
100
AcDbArc
 50
93.77067625261661
 51
154.9129671807293
1001
TOP
1070
     5
  0
LINE
  5
874
330
7A2
100
AcDbEntity
  8
0
  6
Continuous
 62
     0
370
     0
100
AcDbLine
 10
-63.18519671984217
 20
-112.1241649228533
 30
0.0
 11
-63.18519671984217
 21
-116.1992625776742
 31
0.0
1001
TOP
1070
     5
  0
LINE
  5
875
330
7A2
100
AcDbEntity
  8
0
  6
Continuous
 62
     0
370
     0
100
AcDbLine
 10
-69.19596576070446
 20
-112.1241649228533
 30
0.0
 11
-69.19596576070446
 21
-116.1992625776742
 31
0.0
1001
TOP
1070
     5
  0
LINE
  5
876
330
7A2
100
AcDbEntity
  8
0
  6
Continuous
 62
     0
370
     0
100
AcDbLine
 10
-68.2790687883681
 20
-116.1992625776742
 30
0.0
 11
-68.2790687883681
 21
-112.1241649228533
 31
0.0
1001
TOP
1070
     5
  0
LINE
  5
877
330
7A2
100
AcDbEntity
  8
0
  6
Continuous
 62
     0
370
     0
100
AcDbLine
 10
-73.37369040698053
 20
-111.8185325987417
 30
0.0
 11
-73.37369040698053
 21
-115.2823656053394
 31
0.0
1001
TOP
1070
     5
  0
ARC
  5
878
330
7A2
100
AcDbEntity
  8
0
  6
Continuous
 62
     0
370
     0
100
AcDbCircle
 10
-71.84552878642276
 20
-112.9391844538175
 30
0.0
 40
2.037548827410502
100
AcDbArc
 50
0.0
 51
90.0
1001
TOP
1070
     5
  0
ARC
  5
879
330
7A2
100
AcDbEntity
  8
0
  6
Continuous
 62
     0
370
     0
100
AcDbCircle
 10
-72.04928366916323
 20
-113.1429393365587
 30
0.0
 40
1.324406737816826
100
AcDbArc
 50
0.0
 51
90.0
1001
TOP
1070
     5
  0
LINE
  5
87A
330
7A2
100
AcDbEntity
  8
0
  6
Continuous
 62
     0
370
     0
100
AcDbLine
 10
-74.29058737931462
 20
-110.9016356264067
 30
0.0
 11
-74.29058737931462
 21
-116.1992625776742
 31
0.0
1001
TOP
1070
     5
  0
ARC
  5
87B
330
7A2
100
AcDbEntity
  8
0
  6
Continuous
 62
     0
370
     0
100
AcDbCircle
 10
-65.63025531273462
 20
-114.1617137502637
 30
0.0
 40
2.037548827410503
100
AcDbArc
 50
354.0835439993984
 51
342.3574175336819
1001
TOP
1070
     5
  0
ARC
  5
87C
330
7A2
100
AcDbEntity
  8
0
  6
Continuous
 62
     0
370
     0
100
AcDbCircle
 10
-71.84552878642276
 20
-114.1617137502637
 30
0.0
 40
2.037548827410502
100
AcDbArc
 50
270.0
 51
0.0
1001
TOP
1070
     5
  0
ARC
  5
87D
330
7A2
100
AcDbEntity
  8
0
  6
Continuous
 62
     0
370
     0
100
AcDbCircle
 10
-72.04928366916323
 20
-113.9579588675226
 30
0.0
 40
1.324406737816826
100
AcDbArc
 50
270.0
 51
0.0
1001
TOP
1070
     5
  0
LINE
  5
87E
330
7A2
100
AcDbEntity
  8
0
  6
Continuous
 62
     0
370
     0
100
AcDbLine
 10
-80.93554218988227
 20
-116.719234978829
 30
0.0
 11
-79.96312508201604
 21
-115.663467833145
 31
0.0
1001
TOP
1070
     3
  0
LINE
  5
87F
330
7A2
100
AcDbEntity
  8
0
 62
     0
 48
35.0
100
AcDbLine
 10
-74.18689006840565
 20
-117.5926951757442
 30
0.0
 11
-72.38039292569872
 21
-117.5926951757442
 31
0.0
1001
TOP
1070
     7
  0
LINE
  5
880
330
7A2
100
AcDbEntity
  8
0
  6
Continuous
 62
     0
370
     0
100
AcDbLine
 10
-74.29058737931462
 20
-116.1992625776742
 30
0.0
 11
-71.84552878642276
 21
-116.1992625776742
 31
0.0
1001
TOP
1070
     5
  0
LINE
  5
881
330
7A2
100
AcDbEntity
  8
0
 62
     0
 48
35.0
100
AcDbLine
 10
-74.31356575913929
 20
-117.4660194850106
 30
0.0
 11
-72.30906835230709
 21
-117.4660194850106
 31
0.0
1001
TOP
1070
     7
  0
LINE
  5
882
330
7A2
100
AcDbEntity
  8
0
 62
     0
 48
35.0
100
AcDbLine
 10
-74.31356575913929
 20
-117.4660194850106
 30
0.0
 11
-72.30906835230709
 21
-117.4660194850106
 31
0.0
1001
TOP
1070
     7
  0
LINE
  5
883
330
7A2
100
AcDbEntity
  8
0
  6
Continuous
 62
     0
370
     0
100
AcDbLine
 10
-77.93529449403573
 20
-113.7467751337015
 30
0.0
 11
-79.51859154699184
 21
-115.3856343737545
 31
0.0
1001
TOP
1070
     3
  0
LINE
  5
884
330
7A2
100
AcDbEntity
  8
0
  6
Continuous
 62
     0
370
     0
100
AcDbLine
 10
-73.37369040698053
 20
-115.2823656053394
 30
0.0
 11
-72.04928366916323
 21
-115.2823656053394
 31
0.0
1001
TOP
1070
     5
  0
LINE
  5
885
330
7A2
100
AcDbEntity
  8
0
  6
Continuous
 62
     0
370
     0
100
AcDbLine
 10
-62.2682997475075
 20
-116.1992625776742
 30
0.0
 11
-62.2682997475075
 21
-113.7542039847817
 31
0.0
1001
TOP
1070
     5
  0
LINE
  5
886
330
7A2
100
AcDbEntity
  8
0
 62
     0
 48
35.0
100
AcDbLine
 10
-69.76159992341655
 20
-117.5926951757442
 30
0.0
 11
-66.7709215255569
 21
-117.5926951757442
 31
0.0
1001
TOP
1070
     7
  0
LINE
  5
887
330
7A2
100
AcDbEntity
  8
0
  6
Continuous
 62
     0
370
     0
100
AcDbLine
 10
-69.19596576070446
 20
-116.1992625776742
 30
0.0
 11
-68.2790687883681
 21
-116.1992625776742
 31
0.0
1001
TOP
1070
     5
  0
LINE
  5
888
330
7A2
100
AcDbEntity
  8
0
 62
     0
 48
35.0
100
AcDbLine
 10
-69.83292449680833
 20
-117.4660194850106
 30
0.0
 11
-66.53139935614331
 21
-117.4660194850106
 31
0.0
1001
TOP
1070
     7
  0
LINE
  5
889
330
7A2
100
AcDbEntity
  8
0
 62
     0
 48
35.0
100
AcDbLine
 10
-69.83292449680833
 20
-117.4660194850106
 30
0.0
 11
-66.53139935614331
 21
-117.4660194850106
 31
0.0
1001
TOP
1070
     7
  0
LINE
  5
88A
330
7A2
100
AcDbEntity
  8
0
  6
Continuous
 62
     0
370
     0
100
AcDbLine
 10
-63.18519671984217
 20
-116.1992625776742
 30
0.0
 11
-62.2682997475075
 21
-116.1992625776742
 31
0.0
1001
TOP
1070
     5
  0
LINE
  5
88B
330
7A2
100
AcDbEntity
  8
0
  6
Continuous
 62
     0
370
     0
100
AcDbLine
 10
-66.63344700230891
 20
-113.5770966190099
 30
0.0
 11
-64.62685126461593
 21
-113.5770966190099
 31
0.0
1001
TOP
1070
     5
  0
ARC
  5
88C
330
7A2
100
AcDbEntity
  8
0
  6
Continuous
 62
     0
370
     0
100
AcDbCircle
 10
-65.63014913346243
 20
-114.0125171873688
 30
0.0
 40
1.093708226622137
100
AcDbArc
 50
23.46032899245549
 51
156.5396710075445
1001
TOP
1070
     5
  0
ARC
  5
88D
330
7A2
100
AcDbEntity
  8
0
  6
Continuous
 62
     0
370
     0
100
AcDbCircle
 10
-65.63025531273462
 20
-114.0598363088933
 30
0.0
 40
1.222529296446303
100
AcDbArc
 50
194.7813103722964
 51
323.9519363800014
1001
TOP
1070
     5
  0
LINE
  5
88E
330
7A2
100
AcDbEntity
  8
0
  6
Continuous
 62
     0
370
     0
100
AcDbLine
 10
-66.81232703448762
 20
-114.3717406617001
 30
0.0
 11
-63.59271613869741
 21
-114.3717406617001
 31
0.0
1001
TOP
1070
     5
  0
LINE
  5
88F
330
7A2
100
AcDbEntity
  8
0
  6
Continuous
 62
     0
370
     0
100
AcDbLine
 10
-69.80797995901181
 20
-114.1617137502637
 30
0.0
 11
-69.80797995901181
 21
-112.9391844538175
 31
0.0
1001
TOP
1070
     5
  0
LINE
  5
890
330
7A2
100
AcDbEntity
  8
0
  6
Continuous
 62
     0
370
     0
100
AcDbLine
 10
-70.72487693134547
 20
-113.9579588675226
 30
0.0
 11
-70.72487693134547
 21
-113.1429393365587
 31
0.0
1001
TOP
1070
     5
  0
LINE
  5
891
330
7A2
100
AcDbEntity
  8
0
  6
Continuous
 62
     0
370
     0
100
AcDbLine
 10
-64.64181148171786
 20
-114.7792504271823
 30
0.0
 11
-63.68854120485413
 21
-114.7792504271823
 31
0.0
1001
TOP
1070
     5
  0
ARC
  5
892
330
7A2
100
AcDbEntity
  8
0
  6
Continuous
 62
     0
370
     0
100
AcDbCircle
 10
-60.69523607507363
 20
-114.8647736202653
 30
0.0
 40
1.925589320905964
100
AcDbArc
 50
89.97705113130416
 51
144.7782320142341
1001
TOP
1070
     5
  0
LINE
  5
893
330
7A2
100
AcDbEntity
  8
0
  6
Continuous
 62
     0
370
     0
100
AcDbLine
 10
-71.84552878642276
 20
-110.9016356264067
 30
0.0
 11
-74.29058737931462
 21
-110.9016356264067
 31
0.0
1001
TOP
1070
     5
  0
LINE
  5
894
330
7A2
100
AcDbEntity
  8
0
  6
Continuous
 62
     0
370
     0
100
AcDbLine
 10
-72.04928366916323
 20
-111.8185325987417
 30
0.0
 11
-73.37369040698053
 21
-111.8185325987417
 31
0.0
1001
TOP
1070
     5
  0
LINE
  5
895
330
7A2
100
AcDbEntity
  8
0
  6
Continuous
 62
     0
370
     0
100
AcDbLine
 10
-68.2790687883681
 20
-112.1241649228533
 30
0.0
 11
-69.19596576070446
 21
-112.1241649228533
 31
0.0
1001
TOP
1070
     5
  0
HATCH
  5
896
330
7A2
100
AcDbEntity
  8
0
  6
Continuous
 62
     0
100
AcDbHatch
 10
0.0
 20
0.0
 30
0.0
210
0.0
220
0.0
230
1.0
  2
SOLID
 70
     1
 71
     0
 91
        1
 92
        1
 93
        4
 72
     1
 10
-68.27906878836866
 20
-110.901635626407
 11
-69.19596576070394
 21
-110.901635626407
 72
     1
 10
-69.19596576070276
 20
-110.901635626407
 11
-69.19596576070276
 21
-111.7166551573712
 72
     1
 10
-69.19596576070276
 20
-111.7166551573713
 11
-68.27906878836748
 21
-111.7166551573713
 72
     1
 10
-68.27906878836866
 20
-111.7166551573713
 11
-68.27906878836866
 21
-110.9016356264071
 97
        0
 75
     0
 76
     1
 98
        1
 10
-90.78092639041216
 20
-42.05123987417141
1001
TOP
1070
     3
  0
LINE
  5
897
330
7A2
100
AcDbEntity
  8
0
  6
Continuous
 62
     0
370
     0
100
AcDbLine
 10
-68.2790687883681
 20
-110.9016356264067
 30
0.0
 11
-69.19596576070446
 21
-110.9016356264067
 31
0.0
1001
TOP
1070
     3
  0
LINE
  5
898
330
7A2
100
AcDbEntity
  8
0
  6
Continuous
 62
     0
370
     0
100
AcDbLine
 10
-69.19596576070446
 20
-111.7166551573711
 30
0.0
 11
-68.2790687883681
 21
-111.7166551573711
 31
0.0
1001
TOP
1070
     3
  0
LINE
  5
899
330
7A2
100
AcDbEntity
  8
0
  6
Continuous
 62
     0
370
     0
100
AcDbLine
 10
-69.19596576070446
 20
-110.9016356264067
 30
0.0
 11
-69.19596576070446
 21
-111.7166551573711
 31
0.0
1001
TOP
1070
     3
  0
LINE
  5
89A
330
7A2
100
AcDbEntity
  8
0
  6
Continuous
 62
     0
370
     0
100
AcDbLine
 10
-68.2790687883681
 20
-111.7166551573711
 30
0.0
 11
-68.2790687883681
 21
-110.9016356264067
 31
0.0
1001
TOP
1070
     3
  0
LINE
  5
89B
330
7A2
100
AcDbEntity
  8
0
  6
Continuous
 62
     0
370
     0
100
AcDbLine
 10
-62.2682997475075
 20
-112.1241649228533
 30
0.0
 11
-63.18519671984217
 21
-112.1241649228533
 31
0.0
1001
TOP
1070
     5
  0
LINE
  5
89C
330
7A2
100
AcDbEntity
  8
0
  6
Continuous
 62
     0
370
     0
100
AcDbLine
 10
-61.07539714488699
 20
-112.1241649228533
 30
0.0
 11
-60.69446481241445
 21
-112.1241649228533
 31
0.0
1001
TOP
1070
     5
  0
HATCH
  5
89D
330
7A2
100
AcDbEntity
  8
0
 62
     0
100
AcDbHatch
 10
0.0
 20
0.0
 30
0.0
210
0.0
220
0.0
230
1.0
  2
_USER
 70
     0
 71
     0
 91
        1
 92
        7
 72
     0
 73
     1
 93
       10
 10
-54.74023813948258
 20
-120.5280353264706
 10
-54.74023813948258
 20
-120.401359635737
 10
-54.86691383021626
 20
-120.401359635737
 10
-54.86691383021626
 20
-121.9031362281759
 10
-57.80224111073401
 20
-117.5926951757442
 10
-54.74023813948258
 20
-117.5926951757442
 10
-54.74023813948258
 20
-117.4660194850106
 10
-55.9841087431369
 20
-117.4660194850106
 10
-58.04176328014761
 20
-117.4660194850106
 10
-54.74023813948258
 20
-122.314211233989
 97
        0
 75
     0
 76
     0
 52
45.0
 41
0.0025335138146728
 77
     0
 78
     1
 53
45.0
 43
-145.0763894181266
 44
-87.49410761997697
 45
-0.0017914647985849
 46
0.0017914647985849
 79
     0
 47
0.4461251062465665
 98
        1
 10
-54.8362670216586
 20
-121.3166148990838
1001
TOP
1070
     7
  0
HATCH
  5
89E
330
7A2
100
AcDbEntity
  8
0
 62
     0
100
AcDbHatch
 10
0.0
 20
0.0
 30
0.0
210
0.0
220
0.0
230
1.0
  2
_USER
 70
     0
 71
     0
 91
        1
 92
        5
 93
        4
 72
     3
 10
-54.74023813948258
 20
-118.9970274057406
 11
0.0000000000000191
 21
1.531007920730015
 40
0.9241881291669681
 50
225.5902274342953
 51
269.9999999998805
 73
     1
 72
     1
 10
-53.32529879348335
 20
-118.9970274057436
 11
-53.45198553326438
 21
-118.9970274057436
 72
     4
 94
        3
 73
     0
 74
     0
 95
       14
 96
       10
 40
1.570795969069011
 40
1.570795969069011
 40
1.570795969069011
 40
1.570795969069011
 40
1.65015641853114
 40
1.65015641853114
 40
1.900218194579288
 40
1.900218194579288
 40
2.150279970627436
 40
2.150279970627436
 40
2.304293052918541
 40
2.304293052918541
 40
2.304293052918541
 40
2.304293052918541
 10
-53.45198553326431
 20
-118.9970274057436
 10
-53.45198158211704
 20
-119.034430677625
 10
-53.45334691869451
 20
-119.0718339199225
 10
-53.46472105405071
 20
-119.2265882361045
 10
-53.48700279000212
 20
-119.3428332730632
 10
-53.55733833335295
 20
-119.5654419004505
 10
-53.60538428448778
 20
-119.6717876203973
 10
-53.70121068695233
 20
-119.8302262709895
 10
-53.74199976905138
 20
-119.8874630288648
 10
-53.78651093678628
 20
-119.9409116585938
 72
     1
 10
-53.78651093678628
 20
-119.9409116585938
 11
-53.69131210153944
 21
-120.0245622082532
 97
        0
 75
     0
 76
     0
 52
45.0
 41
0.0025335138146728
 77
     0
 78
     1
 53
45.0
 43
-145.0763894181266
 44
-87.49410761997697
 45
-0.0017914647985849
 46
0.0017914647985849
 79
     0
 47
0.2575911848540708
 98
        1
 10
-53.63656385159679
 20
-119.8167355947266
1001
TOP
1070
     7
  0
HATCH
  5
89F
330
7A2
100
AcDbEntity
  8
0
 62
     0
100
AcDbHatch
 10
0.0
 20
0.0
 30
0.0
210
0.0
220
0.0
230
1.0
  2
_USER
 70
     0
 71
     0
 91
        2
 92
        5
 93
        4
 72
     4
 94
        3
 73
     0
 74
     0
 95
       30
 96
       26
 40
0.0
 40
0.0
 40
0.0
 40
0.0
 40
0.2183510909231661
 40
0.2183510909231661
 40
0.4936624224999413
 40
0.4936624224999413
 40
0.7689737540767166
 40
0.7689737540767166
 40
1.044285085653491
 40
1.044285085653491
 40
1.319596417230266
 40
1.319596417230266
 40
1.594907748807042
 40
1.594907748807042
 40
1.870219080383817
 40
1.870219080383817
 40
2.145530411960592
 40
2.145530411960592
 40
2.420841743537367
 40
2.420841743537367
 40
2.696153075114142
 40
2.696153075114142
 40
2.971464406690918
 40
2.971464406690918
 40
3.141592653589793
 40
3.141592653589793
 40
3.141592653589793
 40
3.141592653589793
 10
-54.74023813948258
 20
-119.6850726674086
 10
-54.69250090735166
 20
-119.6850726674086
 10
-54.6447678281525
 20
-119.6794043866639
 10
-54.53966508163017
 20
-119.6541702265889
 10
-54.48305398398193
 20
-119.6313500792412
 10
-54.37826245167876
 20
-119.5703359772027
 10
-54.33008944912756
 20
-119.5321599177175
 10
-54.24560994747756
 20
-119.4437049292107
 10
-54.20930219542544
 20
-119.3934391142717
 10
-54.15089343810642
 20
-119.2847059553161
 10
-54.12878978550686
 20
-119.226246378407
 10
-54.10011688133195
 20
-119.1053481257629
 10
-54.09354632106552
 20
-119.042914844631
 10
-54.0963208933846
 20
-118.918426507191
 10
-54.10566614573124
 20
-118.8563763863714
 10
-54.13972492096575
 20
-118.7369977667907
 10
-54.16444002235574
 20
-118.6796748941309
 10
-54.22773735732003
 20
-118.573926782915
 10
-54.26632232157054
 20
-118.5255100400767
 10
-54.35483686494389
 20
-118.4413811323452
 10
-54.40476679624896
 20
-118.4056831824192
 10
-54.51236227101464
 20
-118.3500985169982
 10
-54.5700180679151
 20
-118.3302297706637
 10
-54.66585041542181
 20
-118.3124163749508
 10
-54.70304367629082
 20
-118.3089821440726
 10
-54.74023813948258
 20
-118.3089821440726
 72
     1
 10
-54.74023813948273
 20
-118.3089821440726
 11
-55.74432402568182
 21
-118.3089821440726
 72
     1
 10
-55.74432402568175
 20
-118.3089821440726
 11
-54.80723290102027
 21
-119.6850726674086
 72
     1
 10
-54.8072329010203
 20
-119.6850726674086
 11
-54.7402381394826
 21
-119.6850726674086
 97
        0
 92
       20
 93
        3
 72
     3
 10
-54.74023813948258
 20
-118.9970274057406
 11
0.0000000000000191
 21
0.561369570934339
 40
0.9241881291669693
 50
0.0
 51
180.0
 73
     0
 72
     1
 10
-54.74023813948258
 20
-119.5583969766749
 11
-55.50480185626819
 21
-118.4356578348063
 72
     1
 10
-55.50480185626815
 20
-118.4356578348063
 11
-54.74023813948251
 21
-118.4356578348063
 97
        0
 75
     0
 76
     0
 52
45.0
 41
0.0025335138146728
 77
     0
 78
     1
 53
45.0
 43
-145.0763894181266
 44
-87.49410761997697
 45
-0.0017914647985849
 46
0.0017914647985849
 79
     0
 47
0.2009774095371007
 98
        2
 10
-54.34341556933452
 20
-118.5398857854049
 10
-54.34341556933452
 20
-118.5398857854049
1001
TOP
1070
     7
  0
SPLINE
  5
8A0
330
7A2
100
AcDbEntity
  8
0
 62
     0
 48
35.0
100
AcDbSpline
210
0.0
220
0.0
230
1.0
 70
     8
 71
     3
 72
    30
 73
    26
 74
     0
 42
0.0000000001
 43
0.0000000001
 40
0.0
 40
0.0
 40
0.0
 40
0.0
 40
0.1701282468988753
 40
0.1701282468988753
 40
0.4454395784756504
 40
0.4454395784756504
 40
0.7207509100524256
 40
0.7207509100524256
 40
0.9960622416292006
 40
0.9960622416292006
 40
1.271373573205975
 40
1.271373573205975
 40
1.54668490478275
 40
1.54668490478275
 40
1.821996236359526
 40
1.821996236359526
 40
2.097307567936301
 40
2.097307567936301
 40
2.372618899513076
 40
2.372618899513076
 40
2.647930231089851
 40
2.647930231089851
 40
2.923241562666627
 40
2.923241562666627
 40
3.141592653589793
 40
3.141592653589793
 40
3.141592653589793
 40
3.141592653589793
 10
-54.74023813948258
 20
-118.3089821440726
 30
0.0
 10
-54.70304367629083
 20
-118.3089821440726
 30
0.0
 10
-54.66585041542183
 20
-118.3124163749508
 30
0.0
 10
-54.5700180679151
 20
-118.3302297706637
 30
0.0
 10
-54.51236227101464
 20
-118.3500985169982
 30
0.0
 10
-54.40476679624897
 20
-118.4056831824192
 30
0.0
 10
-54.3548368649439
 20
-118.4413811323452
 30
0.0
 10
-54.26632232157053
 20
-118.5255100400767
 30
0.0
 10
-54.22773735732002
 20
-118.573926782915
 30
0.0
 10
-54.16444002235573
 20
-118.6796748941309
 30
0.0
 10
-54.13972492096576
 20
-118.7369977667907
 30
0.0
 10
-54.10566614573125
 20
-118.8563763863714
 30
0.0
 10
-54.09632089338462
 20
-118.918426507191
 30
0.0
 10
-54.0935463210655
 20
-119.042914844631
 30
0.0
 10
-54.10011688133195
 20
-119.1053481257629
 30
0.0
 10
-54.12878978550685
 20
-119.226246378407
 30
0.0
 10
-54.15089343810641
 20
-119.2847059553161
 30
0.0
 10
-54.20930219542544
 20
-119.3934391142717
 30
0.0
 10
-54.24560994747756
 20
-119.4437049292107
 30
0.0
 10
-54.33008944912756
 20
-119.5321599177175
 30
0.0
 10
-54.37826245167875
 20
-119.5703359772027
 30
0.0
 10
-54.48305398398196
 20
-119.6313500792412
 30
0.0
 10
-54.53966508163017
 20
-119.6541702265889
 30
0.0
 10
-54.64476782815251
 20
-119.6794043866639
 30
0.0
 10
-54.69250090735164
 20
-119.6850726674086
 30
0.0
 10
-54.74023813948258
 20
-119.6850726674086
 30
0.0
1001
TOP
1070
     7
  0
LINE
  5
8A1
330
7A2
100
AcDbEntity
  8
0
 62
     0
 48
35.0
100
AcDbLine
 10
-54.8072329010203
 20
-119.6850726674086
 30
0.0
 11
-55.74432402568175
 21
-118.3089821440726
 31
0.0
1001
TOP
1070
     7
  0
SPLINE
  5
8A2
330
7A2
100
AcDbEntity
  8
0
 62
     0
 48
35.0
100
AcDbSpline
210
0.0
220
0.0
230
1.0
 70
     8
 71
     3
 72
    32
 73
    28
 74
     0
 42
0.0000000001
 43
0.0000000001
 40
0.0
 40
0.0
 40
0.0
 40
0.0
 40
0.1497857622422505
 40
0.1497857622422505
 40
0.3998475382903988
 40
0.3998475382903988
 40
0.6499093143385471
 40
0.6499093143385471
 40
0.8999710903866953
 40
0.8999710903866953
 40
1.150032866434843
 40
1.150032866434843
 40
1.400094642482991
 40
1.400094642482991
 40
1.65015641853114
 40
1.65015641853114
 40
1.900218194579288
 40
1.900218194579288
 40
2.150279970627436
 40
2.150279970627436
 40
2.400341746675584
 40
2.400341746675584
 40
2.650403522723732
 40
2.650403522723732
 40
2.90046529877188
 40
2.90046529877188
 40
3.141592653589793
 40
3.141592653589793
 40
3.141592653589793
 40
3.141592653589793
 10
-54.74023813948258
 20
-117.5926951757442
 30
0.0
 10
-54.6764357781586
 20
-117.5926951757442
 30
0.0
 10
-54.61263358808477
 20
-117.5978735911549
 30
0.0
 10
-54.44412002383462
 20
-117.6253911582683
 30
0.0
 10
-54.34062279087021
 20
-117.656940645111
 30
0.0
 10
-54.14360382541426
 20
-117.7470336413038
 30
0.0
 10
-54.05009394418144
 20
-117.8055793359545
 30
0.0
 10
-53.87890924744493
 20
-117.946363297167
 30
0.0
 10
-53.80125025998069
 20
-118.0285976012438
 30
0.0
 10
-53.66685074661251
 20
-118.2118444865032
 30
0.0
 10
-53.61012485347913
 20
-118.3128456342427
 30
0.0
 10
-53.52142212635278
 20
-118.5273295036155
 30
0.0
 10
-53.48945523253516
 20
-118.6407955556964
 30
0.0
 10
-53.45246863403926
 20
-118.8729617439322
 30
0.0
 10
-53.44745302373638
 20
-118.9916427093074
 30
0.0
 10
-53.46472105405069
 20
-119.2265882361045
 30
0.0
 10
-53.48700279000212
 20
-119.3428332730632
 30
0.0
 10
-53.55733833335296
 20
-119.5654419004505
 30
0.0
 10
-53.6053842844878
 20
-119.6717876203973
 30
0.0
 10
-53.7239886465166
 20
-119.8678871774179
 30
0.0
 10
-53.79453388014852
 20
-119.9576273325199
 30
0.0
 10
-53.95346402757059
 20
-120.1150437990705
 30
0.0
 10
-54.04183297458633
 20
-120.1827133097665
 30
0.0
 10
-54.23077434042633
 20
-120.2920718505754
 30
0.0
 10
-54.33133292183862
 20
-120.3337613161305
 30
0.0
 10
-54.53482009655246
 20
-120.3879060474375
 30
0.0
 10
-54.63752814631042
 20
-120.401359635737
 30
0.0
 10
-54.74023813948258
 20
-120.401359635737
 30
0.0
1001
TOP
1070
     7
  0
LINE
  5
8A3
330
7A2
100
AcDbEntity
  8
0
 62
     0
 48
35.0
100
AcDbLine
 10
-54.86691383021626
 20
-121.9031362281759
 30
0.0
 11
-57.80224111073401
 21
-117.5926951757442
 31
0.0
1001
TOP
1070
     7
  0
LINE
  5
8A4
330
7A2
100
AcDbEntity
  8
0
 62
     0
 48
35.0
100
AcDbLine
 10
-55.45140675756261
 20
-122.1875355432553
 30
0.0
 11
-58.51340972881403
 21
-117.6910749960615
 31
0.0
1001
TOP
1070
     7
  0
LINE
  5
8A5
330
7A2
100
AcDbEntity
  8
0
 62
     0
 48
35.0
100
AcDbLine
 10
-54.74023813948258
 20
-119.558396976675
 30
0.0
 11
-55.50480185626815
 21
-118.4356578348063
 31
0.0
1001
TOP
1070
     7
  0
LINE
  5
8A6
330
7A2
100
AcDbEntity
  8
0
 62
     0
 48
35.0
100
AcDbLine
 10
-54.74023813948258
 20
-119.558396976675
 30
0.0
 11
-55.50480185626815
 21
-118.4356578348063
 31
0.0
1001
TOP
1070
     7
  0
LINE
  5
8A7
330
7A2
100
AcDbEntity
  8
0
 62
     0
 48
35.0
100
AcDbLine
 10
-55.21188458814901
 20
-122.314211233989
 30
0.0
 11
-58.51340972881403
 21
-117.4660194850106
 31
0.0
1001
TOP
1070
     7
  0
LINE
  5
8A8
330
7A2
100
AcDbEntity
  8
0
 62
     0
 48
35.0
100
AcDbLine
 10
-54.74023813948258
 20
-122.314211233989
 30
0.0
 11
-58.04176328014761
 21
-117.4660194850106
 31
0.0
1001
TOP
1070
     7
  0
LINE
  5
8A9
330
7A2
100
AcDbEntity
  8
0
 62
     0
 48
35.0
100
AcDbLine
 10
-54.74023813948258
 20
-122.314211233989
 30
0.0
 11
-58.04176328014761
 21
-117.4660194850106
 31
0.0
1001
TOP
1070
     7
  0
LINE
  5
8AA
330
7A2
100
AcDbEntity
  8
0
 62
     0
 48
35.0
100
AcDbLine
 10
-55.21188458814901
 20
-122.314211233989
 30
0.0
 11
-58.51340972881403
 21
-117.4660194850106
 31
0.0
1001
TOP
1070
     7
  0
ELLIPSE
  5
8AB
330
7A2
100
AcDbEntity
  8
0
 62
     0
 48
35.0
100
AcDbEllipse
 10
-54.74023813948258
 20
-118.9970274057406
 30
0.0
 11
0.0000000000000016
 21
1.531007920730014
 31
0.0
210
0.0
220
0.0
230
-1.0
 40
0.9241881291669686
 41
0.0
 42
3.141592653589793
1001
TOP
1070
     7
  0
ELLIPSE
  5
8AC
330
7A2
100
AcDbEntity
  8
0
 62
     0
 48
35.0
100
AcDbEllipse
 10
-54.74023813948258
 20
-118.9970274057406
 30
0.0
 11
0.0000000000000191
 21
1.531007920730015
 31
0.0
210
0.0
220
0.0
230
1.0
 40
0.9241881291669681
 41
3.141592653589806
 42
6.283185307179599
1001
TOP
1070
     7
  0
ELLIPSE
  5
8AD
330
7A2
100
AcDbEntity
  8
0
 62
     0
 48
35.0
100
AcDbEllipse
 10
-54.74023813948258
 20
-118.9970274057406
 30
0.0
 11
0.0000000000000191
 21
0.561369570934339
 31
0.0
210
0.0
220
0.0
230
-1.0
 40
0.9241881291669693
 41
0.0
 42
3.141592653589793
1001
TOP
1070
     7
  0
ELLIPSE
  5
8AE
330
7A2
100
AcDbEntity
  8
0
 62
     0
 48
35.0
100
AcDbEllipse
 10
-54.74023813948258
 20
-118.9970274057406
 30
0.0
 11
-0.0000000000000951
 21
0.5613695709343391
 31
0.0
210
0.0
220
0.0
230
1.0
 40
0.9241881291669697
 41
3.141592653589633
 42
6.283185307179426
1001
TOP
1070
     7
  0
MTEXT
  5
8AF
330
7A2
100
AcDbEntity
  8
0
 62
     0
100
AcDbMText
 10
-60.23954023564079
 20
-126.6336630186635
 30
0.0
 40
1.266756907336399
 41
0.0
 71
     4
 72
     1
  1
{\fArial|b0|i1|c0|p2;srl}
  7
arial_ttf
 73
     1
 44
1.0
1001
TOP
1070
     7
1001
ACAD
1000
MTEXTBEGIN
1070
    73
1070
     1
1070
    44
1040
1.0
1070
    74
1070
     0
1000
MTEXTEND
  0
LINE
  5
8B0
330
7A2
100
AcDbEntity
  8
0
 62
     0
 48
35.0
100
AcDbLine
 10
-57.53916988970497
 20
-121.0374629973868
 30
0.0
 11
-58.51340972881403
 21
-119.6068206886799
 31
0.0
1001
TOP
1070
     7
  0
LINE
  5
8B1
330
7A2
100
AcDbEntity
  8
0
 62
     0
 48
35.0
100
AcDbLine
 10
-59.48764956792309
 20
-121.0374629973868
 30
0.0
 11
-58.51340972881403
 21
-119.6068206886799
 31
0.0
1001
TOP
1070
     7
  0
LINE
  5
8B2
330
7A2
100
AcDbEntity
  8
0
 62
     0
 48
35.0
100
AcDbLine
 10
-57.53916988970497
 20
-121.0374629973868
 30
0.0
 11
-59.48764956792309
 21
-121.0374629973868
 31
0.0
1001
TOP
1070
     7
  0
LINE
  5
8B3
330
7A2
100
AcDbEntity
  8
0
 62
     0
 48
35.0
100
AcDbLine
 10
-57.77869205911843
 20
-120.9107873066531
 30
0.0
 11
-58.51340972881403
 21
-119.8318761997309
 31
0.0
1001
TOP
1070
     7
  0
LINE
  5
8B4
330
7A2
100
AcDbEntity
  8
0
 62
     0
 48
35.0
100
AcDbLine
 10
-58.51340972881403
 20
-119.8318761997309
 30
0.0
 11
-57.77869205911843
 21
-120.9107873066531
 31
0.0
1001
TOP
1070
     7
  0
LINE
  5
8B5
330
7A2
100
AcDbEntity
  8
0
 62
     0
 48
35.0
100
AcDbLine
 10
-59.24812739850962
 20
-120.9107873066531
 30
0.0
 11
-58.51340972881403
 21
-119.8318761997309
 31
0.0
1001
TOP
1070
     7
  0
LINE
  5
8B6
330
7A2
100
AcDbEntity
  8
0
 62
     0
 48
35.0
100
AcDbLine
 10
-59.24812739850962
 20
-120.9107873066531
 30
0.0
 11
-58.51340972881403
 21
-119.8318761997309
 31
0.0
1001
TOP
1070
     7
  0
LINE
  5
8B7
330
7A2
100
AcDbEntity
  8
0
 62
     0
 48
35.0
100
AcDbLine
 10
-57.77869205911843
 20
-120.9107873066531
 30
0.0
 11
-59.24812739850962
 21
-120.9107873066531
 31
0.0
1001
TOP
1070
     7
  0
LINE
  5
8B8
330
7A2
100
AcDbEntity
  8
0
 62
     0
 48
35.0
100
AcDbLine
 10
-59.24812739850962
 20
-120.9107873066531
 30
0.0
 11
-57.77869205911843
 21
-120.9107873066531
 31
0.0
1001
TOP
1070
     7
  0
LINE
  5
8B9
330
7A2
100
AcDbEntity
  8
0
 62
     0
 48
35.0
100
AcDbLine
 10
-54.86691383021626
 20
-120.401359635737
 30
0.0
 11
-54.86691383021626
 21
-121.9031362281759
 31
0.0
1001
TOP
1070
     7
  0
LINE
  5
8BA
330
7A2
100
AcDbEntity
  8
0
 62
     0
 48
35.0
100
AcDbLine
 10
-54.74023813948258
 20
-120.5280353264706
 30
0.0
 11
-54.74023813948258
 21
-122.314211233989
 31
0.0
1001
TOP
1070
     7
  0
LINE
  5
8BB
330
7A2
100
AcDbEntity
  8
0
 62
     0
 48
35.0
100
AcDbLine
 10
-54.74023813948258
 20
-122.314211233989
 30
0.0
 11
-54.74023813948258
 21
-120.5280353264706
 31
0.0
1001
TOP
1070
     7
  0
HATCH
  5
8BC
330
7A2
100
AcDbEntity
  8
0
 62
     0
100
AcDbHatch
 10
0.0
 20
0.0
 30
0.0
210
0.0
220
0.0
230
1.0
  2
_USER
 70
     0
 71
     0
 91
        1
 92
        5
 93
       19
 72
     1
 10
-53.69131210153954
 20
-120.0245622082532
 11
-53.78650864405642
 21
-119.9409136731995
 72
     4
 94
        3
 73
     0
 74
     0
 95
        8
 96
        4
 40
2.304293052918541
 40
2.304293052918541
 40
2.304293052918541
 40
2.304293052918541
 40
2.307314448136514
 40
2.307314448136514
 40
2.307314448136514
 40
2.307314448136514
 10
-53.78651093678628
 20
-119.9409116585938
 10
-53.78738414721323
 20
-119.9419602022102
 10
-53.78825879011235
 20
-119.9430072879374
 10
-53.78913486138576
 20
-119.9440529109734
 72
     4
 94
        3
 73
     0
 74
     0
 95
       10
 96
        6
 40
2.307314448136514
 40
2.307314448136514
 40
2.307314448136514
 40
2.307314448136514
 40
2.400341746675584
 40
2.400341746675584
 40
2.405447192958027
 40
2.405447192958027
 40
2.405447192958027
 40
2.405447192958027
 10
-53.78913486138576
 20
-119.9440529109734
 10
-53.81610867249413
 20
-119.9762471389102
 10
-53.84443657430529
 20
-120.0070547439515
 10
-53.87562137161393
 20
-120.0379425313352
 10
-53.87724750088804
 20
-120.0395448954579
 10
-53.87887731783413
 20
-120.0411426415548
 72
     4
 94
        3
 73
     0
 74
     0
 95
        8
 96
        4
 40
2.405447192958027
 40
2.405447192958027
 40
2.405447192958027
 40
2.405447192958027
 40
2.457827493704215
 40
2.457827493704215
 40
2.457827493704215
 40
2.457827493704215
 10
-53.87887731783413
 20
-120.0411426415548
 10
-53.89559873591803
 20
-120.0575350226397
 10
-53.91270832298171
 20
-120.0734413045206
 10
-53.93018032462418
 20
-120.0888435508284
 72
     4
 94
        3
 73
     0
 74
     0
 95
        8
 96
        4
 40
2.457827493704215
 40
2.457827493704215
 40
2.457827493704215
 40
2.457827493704215
 40
2.513618936967894
 40
2.513618936967894
 40
2.513618936967894
 40
2.513618936967894
 10
-53.93018032462418
 20
-120.0888435508284
 10
-53.94879014882224
 20
-120.1052488317982
 10
-53.96781112735848
 20
-120.1210822913663
 10
-53.98721213946657
 20
-120.1363222558182
 72
     4
 94
        3
 73
     0
 74
     0
 95
        8
 96
        4
 40
2.513618936967894
 40
2.513618936967894
 40
2.513618936967894
 40
2.513618936967894
 40
2.583791771554712
 40
2.583791771554712
 40
2.583791771554712
 40
2.583791771554712
 10
-53.98721213946657
 20
-120.1363222558182
 10
-54.01161416124324
 20
-120.1554906343728
 10
-54.03661739110269
 20
-120.1737201115053
 10
-54.06215990567957
 20
-120.1909675613701
 72
     4
 94
        3
 73
     0
 74
     0
 95
        8
 96
        4
 40
2.583791771554712
 40
2.583791771554712
 40
2.583791771554712
 40
2.583791771554712
 40
2.636124747512267
 40
2.636124747512267
 40
2.636124747512267
 40
2.636124747512267
 10
-54.06215990567957
 20
-120.1909675613701
 10
-54.08120881269771
 20
-120.2038302365693
 10
-54.10055765733314
 20
-120.2161467310419
 10
-54.12018075492784
 20
-120.2278991569907
 72
     4
 94
        3
 73
     0
 74
     0
 95
       10
 96
        6
 40
2.636124747512267
 40
2.636124747512267
 40
2.636124747512267
 40
2.636124747512267
 40
2.650403522723732
 40
2.650403522723732
 40
2.685200358615633
 40
2.685200358615633
 40
2.685200358615633
 40
2.685200358615633
 10
-54.12018075492784
 20
-120.2278991569907
 10
-54.12553481313636
 20
-120.2311057441423
 10
-54.13090928789576
 20
-120.2342703396464
 10
-54.14944953250623
 20
-120.2450013624048
 10
-54.16271329080731
 20
-120.2523586159575
 10
-54.1760867081633
 20
-120.2594612829393
 72
     4
 94
        3
 73
     0
 74
     0
 95
        8
 96
        4
 40
2.685200358615633
 40
2.685200358615633
 40
2.685200358615633
 40
2.685200358615633
 40
2.737506648087128
 40
2.737506648087128
 40
2.737506648087128
 40
2.737506648087128
 10
-54.1760867081633
 20
-120.2594612829393
 10
-54.19618950836111
 20
-120.270137947804
 10
-54.21654009230493
 20
-120.2802393531582
 10
-54.23711052564402
 20
-120.2897551126197
 72
     4
 94
        3
 73
     0
 74
     0
 95
        8
 96
        4
 40
2.737506648087128
 40
2.737506648087128
 40
2.737506648087128
 40
2.737506648087128
 40
2.786626518124236
 40
2.786626518124236
 40
2.786626518124236
 40
2.786626518124236
 10
-54.23711052564402
 20
-120.2897551126197
 10
-54.25642783953559
 20
-120.2986911865179
 10
-54.27593903291664
 20
-120.3071107944664
 10
-54.29562097190729
 20
-120.3150053349653
 72
     4
 94
        3
 73
     0
 74
     0
 95
        8
 96
        4
 40
2.786626518124236
 40
2.786626518124236
 40
2.786626518124236
 40
2.786626518124236
 40
2.838974042926319
 40
2.838974042926319
 40
2.838974042926319
 40
2.838974042926319
 10
-54.29562097190729
 20
-120.3150053349653
 10
-54.31659620634289
 20
-120.3234186238087
 10
-54.33776536293418
 20
-120.331235573971
 10
-54.35910044121259
 20
-120.3384457744866
 72
     4
 94
        3
 73
     0
 74
     0
 95
        8
 96
        4
 40
2.838974042926319
 40
2.838974042926319
 40
2.838974042926319
 40
2.838974042926319
 40
2.888047762325737
 40
2.888047762325737
 40
2.888047762325737
 40
2.888047762325737
 10
-54.35910044121259
 20
-120.3384457744866
 10
-54.37910122728135
 20
-120.3452050502738
 10
-54.39924783056623
 20
-120.3514310953184
 10
-54.41951718233293
 20
-120.3571153323425
 72
     4
 94
        3
 73
     0
 74
     0
 95
       10
 96
        6
 40
2.888047762325737
 40
2.888047762325737
 40
2.888047762325737
 40
2.888047762325737
 40
2.90046529877188
 40
2.90046529877188
 40
2.94031906855226
 40
2.94031906855226
 40
2.94031906855226
 40
2.94031906855226
 10
-54.41951718233293
 20
-120.3571153323425
 10
-54.42464610708896
 20
-120.3585536627009
 10
-54.42978289123917
 20
-120.3599573019358
 10
-54.45143756507909
 20
-120.3657192694812
 10
-54.46802487187741
 20
-120.3697538448228
 10
-54.48467637963784
 20
-120.3734283595784
 72
     4
 94
        3
 73
     0
 74
     0
 95
        8
 96
        4
 40
2.94031906855226
 40
2.94031906855226
 40
2.94031906855226
 40
2.94031906855226
 40
2.989464419457947
 40
2.989464419457947
 40
2.989464419457947
 40
2.989464419457947
 10
-54.48467637963784
 20
-120.3734283595784
 10
-54.50521005051768
 20
-120.3779595574568
 10
-54.52584134787113
 20
-120.3819432332409
 10
-54.54654645377004
 20
-120.385376616326
 72
     4
 94
        3
 73
     0
 74
     0
 95
        8
 96
        4
 40
2.989464419457947
 40
2.989464419457947
 40
2.989464419457947
 40
2.989464419457947
 40
3.041801140513261
 40
3.041801140513261
 40
3.041801140513261
 40
3.041801140513261
 10
-54.54654645377004
 20
-120.385376616326
 10
-54.56859609492391
 20
-120.3890329543008
 10
-54.5907294417303
 20
-120.3920652099394
 10
-54.61291772840701
 20
-120.3944700370812
 72
     4
 94
        3
 73
     0
 74
     0
 95
        8
 96
        4
 40
3.041801140513261
 40
3.041801140513261
 40
3.041801140513261
 40
3.041801140513261
 40
3.090883418648763
 40
3.090883418648763
 40
3.090883418648763
 40
3.090883418648763
 10
-54.61291772840701
 20
-120.3944700370812
 10
-54.63372628568871
 20
-120.3967253253809
 10
-54.65458316264861
 20
-120.398428789606
 10
-54.67546463294426
 20
-120.3995776698054
 72
     4
 94
        3
 73
     0
 74
     0
 95
        8
 96
        4
 40
3.090883418648763
 40
3.090883418648763
 40
3.090883418648763
 40
3.090883418648763
 40
3.141592653589793
 40
3.141592653589793
 40
3.141592653589793
 40
3.141592653589793
 10
-54.67546463294426
 20
-120.3995776698054
 10
-54.69703827262373
 20
-120.4007646325578
 10
-54.71863816307806
 20
-120.401359635737
 10
-54.74023813948258
 20
-120.401359635737
 72
     1
 10
-54.74023813948258
 20
-120.401359635737
 11
-54.7402381394826
 21
-120.5280353264706
 72
     3
 10
-54.74023813948258
 20
-118.9970274057406
 11
0.0000000000000191
 21
1.531007920730015
 40
0.9241881291669681
 50
180.0
 51
225.5902274342953
 73
     1
 97
        0
 75
     0
 76
     0
 52
45.0
 41
0.0025335138146728
 77
     0
 78
     1
 53
45.0
 43
-145.0763894181266
 44
-87.49410761997697
 45
-0.0017914647985849
 46
0.0017914647985849
 79
     0
 47
0.2575911848540708
 98
        1
 10
-53.80640194311254
 20
-120.0647276742589
1001
TOP
1070
     7
  0
LINE
  5
8BD
330
7A2
100
AcDbEntity
  8
0
 62
     0
100
AcDbLine
 10
-54.74023813948258
 20
-120.5280353264706
 30
0.0
 11
-54.74023813948258
 21
-120.401359635737
 31
0.0
1001
TOP
1070
     7
  0
LINE
  5
8BE
330
7A2
100
AcDbEntity
  8
0
 62
     0
100
AcDbLine
 10
-54.74023813948258
 20
-120.401359635737
 30
0.0
 11
-54.86691383021626
 21
-120.401359635737
 31
0.0
1001
TOP
1070
     7
  0
LINE
  5
8BF
330
7A2
100
AcDbEntity
  8
0
 62
     0
100
AcDbLine
 10
-54.74023813948258
 20
-119.6850726674086
 30
0.0
 11
-54.8072329010203
 21
-119.6850726674086
 31
0.0
1001
TOP
1070
     7
  0
LINE
  5
8C0
330
7A2
100
AcDbEntity
  8
0
  6
Continuous
 62
     0
370
     0
100
AcDbLine
 10
-57.59331549709571
 20
-112.9391844538175
 30
0.0
 11
-57.59331549709571
 21
-112.1241649228533
 31
0.0
1001
TOP
1070
     5
  0
LINE
  5
8C1
330
7A2
100
AcDbEntity
  8
0
  6
Continuous
 62
     0
370
     0
100
AcDbLine
 10
-59.16715043218804
 20
-112.1241649228533
 30
0.0
 11
-59.16715043218804
 21
-112.9391844538175
 31
0.0
1001
TOP
1070
     5
  0
LINE
  5
8C2
330
7A2
100
AcDbEntity
  8
0
  6
Continuous
 62
     0
370
     0
100
AcDbLine
 10
-59.16715043218804
 20
-112.9391844538175
 30
0.0
 11
-59.16715043218804
 21
-112.1241649228533
 31
0.0
1001
TOP
1070
     5
  0
ARC
  5
8C3
330
7A2
100
AcDbEntity
  8
0
  6
Continuous
 62
     0
370
     0
100
AcDbCircle
 10
-57.88084507707851
 20
-113.5413789530081
 30
0.0
 40
1.420288590899619
100
AcDbArc
 50
93.77067625261661
 51
154.9129671807293
1001
TOP
1070
     5
  0
LINE
  5
8C4
330
7A2
100
AcDbEntity
  8
0
  6
Continuous
 62
     0
370
     0
100
AcDbLine
 10
-60.08404740452328
 20
-112.1241649228533
 30
0.0
 11
-60.08404740452328
 21
-116.1992625776742
 31
0.0
1001
TOP
1070
     5
  0
ARC
  5
8C5
330
7A2
100
AcDbEntity
  8
0
  6
Continuous
 62
     0
370
     0
100
AcDbCircle
 10
-55.36100922258572
 20
-114.1617137502637
 30
0.0
 40
2.037548827410503
100
AcDbArc
 50
354.0835439993984
 51
342.3574175336819
1001
TOP
1070
     5
  0
LINE
  5
8C6
330
7A2
100
AcDbEntity
  8
0
  6
Continuous
 62
     0
370
     0
100
AcDbLine
 10
-59.16715043218804
 20
-116.1992625776742
 30
0.0
 11
-59.16715043218804
 21
-113.7542039847817
 31
0.0
1001
TOP
1070
     5
  0
LINE
  5
8C7
330
7A2
100
AcDbEntity
  8
0
 62
     0
 48
35.0
100
AcDbLine
 10
-55.9841087431369
 20
-117.4660194850106
 30
0.0
 11
-54.74023813948258
 21
-117.4660194850106
 31
0.0
1001
TOP
1070
     7
  0
LINE
  5
8C8
330
7A2
100
AcDbEntity
  8
0
 62
     0
 48
35.0
100
AcDbLine
 10
-55.74432402568175
 20
-118.3089821440726
 30
0.0
 11
-54.74023813948258
 21
-118.3089821440726
 31
0.0
1001
TOP
1070
     7
  0
LINE
  5
8C9
330
7A2
100
AcDbEntity
  8
0
 62
     0
 48
35.0
100
AcDbLine
 10
-57.80224111073401
 20
-117.5926951757442
 30
0.0
 11
-54.74023813948258
 21
-117.5926951757442
 31
0.0
1001
TOP
1070
     7
  0
LINE
  5
8CA
330
7A2
100
AcDbEntity
  8
0
 62
     0
 48
35.0
100
AcDbLine
 10
-55.50480185626815
 20
-118.4356578348063
 30
0.0
 11
-54.74023813948258
 21
-118.4356578348063
 31
0.0
1001
TOP
1070
     7
  0
LINE
  5
8CB
330
7A2
100
AcDbEntity
  8
0
 62
     0
 48
35.0
100
AcDbLine
 10
-54.74023813948258
 20
-118.4356578348063
 30
0.0
 11
-55.50480185626815
 21
-118.4356578348063
 31
0.0
1001
TOP
1070
     7
  0
LINE
  5
8CC
330
7A2
100
AcDbEntity
  8
0
 62
     0
 48
35.0
100
AcDbLine
 10
-58.04176328014761
 20
-117.4660194850106
 30
0.0
 11
-54.74023813948258
 21
-117.4660194850106
 31
0.0
1001
TOP
1070
     7
  0
LINE
  5
8CD
330
7A2
100
AcDbEntity
  8
0
 62
     0
 48
35.0
100
AcDbLine
 10
-58.04176328014761
 20
-117.4660194850106
 30
0.0
 11
-54.74023813948258
 21
-117.4660194850106
 31
0.0
1001
TOP
1070
     7
  0
LINE
  5
8CE
330
7A2
100
AcDbEntity
  8
0
  6
Continuous
 62
     0
370
     0
100
AcDbLine
 10
-60.08404740452328
 20
-116.1992625776742
 30
0.0
 11
-59.16715043218804
 21
-116.1992625776742
 31
0.0
1001
TOP
1070
     5
  0
HATCH
  5
8CF
330
7A2
100
AcDbEntity
  8
0
 62
     0
100
AcDbHatch
 10
0.0
 20
0.0
 30
0.0
210
0.0
220
0.0
230
1.0
  2
_USER
 70
     0
 71
     0
 91
        1
 92
        5
 93
        4
 72
     3
 10
-54.74023813948258
 20
-118.9970274057406
 11
0.0000000000000191
 21
1.531007920730015
 40
0.9241881291669681
 50
269.9999999998805
 51
360.0000000000008
 73
     1
 72
     1
 10
-54.74023813948258
 20
-117.4660194850106
 11
-54.74023813948257
 21
-117.5926951757442
 72
     4
 94
        3
 73
     0
 74
     0
 95
       20
 96
       16
 40
0.0
 40
0.0
 40
0.0
 40
0.0
 40
0.1497857622422505
 40
0.1497857622422505
 40
0.3998475382903988
 40
0.3998475382903988
 40
0.6499093143385471
 40
0.6499093143385471
 40
0.8999710903866953
 40
0.8999710903866953
 40
1.150032866434843
 40
1.150032866434843
 40
1.400094642482991
 40
1.400094642482991
 40
1.570795969069011
 40
1.570795969069011
 40
1.570795969069011
 40
1.570795969069011
 10
-54.74023813948258
 20
-117.5926951757442
 10
-54.6764357781586
 20
-117.5926951757442
 10
-54.61263358808477
 20
-117.5978735911549
 10
-54.44412002383461
 20
-117.6253911582683
 10
-54.3406227908702
 20
-117.656940645111
 10
-54.14360382541426
 20
-117.7470336413038
 10
-54.05009394418143
 20
-117.8055793359545
 10
-53.87890924744493
 20
-117.946363297167
 10
-53.80125025998069
 20
-118.0285976012438
 10
-53.66685074661251
 20
-118.2118444865032
 10
-53.61012485347913
 20
-118.3128456342427
 10
-53.52142212635278
 20
-118.5273295036155
 10
-53.48945523253518
 20
-118.6407955556964
 10
-53.45833772992239
 20
-118.8361212212832
 10
-53.45199403203288
 20
-118.9165743819504
 10
-53.45198553326431
 20
-118.9970274057436
 72
     1
 10
-53.45198553326431
 20
-118.9970274057436
 11
-53.32529879348332
 21
-118.9970274057436
 97
        0
 75
     0
 76
     0
 52
45.0
 41
0.0025335138146728
 77
     0
 78
     1
 53
45.0
 43
-145.0763894181266
 44
-87.49410761997697
 45
-0.0017914647985849
 46
0.0017914647985849
 79
     0
 47
0.2575911848540708
 98
        1
 10
-53.38180661361352
 20
-118.6942449356742
1001
TOP
1070
     7
  0
LINE
  5
8D0
330
7A2
100
AcDbEntity
  8
0
 62
     0
100
AcDbLine
 10
-54.74023813948258
 20
-117.4660194850106
 30
0.0
 11
-54.74023813948258
 21
-117.5926951757442
 31
0.0
1001
TOP
1070
     7
  0
LINE
  5
8D1
330
7A2
100
AcDbEntity
  8
0
  6
Continuous
 62
     0
370
     0
100
AcDbLine
 10
-56.36420091215945
 20
-113.5770966190099
 30
0.0
 11
-54.35760517446663
 21
-113.5770966190099
 31
0.0
1001
TOP
1070
     5
  0
ARC
  5
8D2
330
7A2
100
AcDbEntity
  8
0
  6
Continuous
 62
     0
370
     0
100
AcDbCircle
 10
-55.36090304331354
 20
-114.0125171873688
 30
0.0
 40
1.093708226622137
100
AcDbArc
 50
23.46032899245549
 51
156.5396710075445
1001
TOP
1070
     5
  0
ARC
  5
8D3
330
7A2
100
AcDbEntity
  8
0
  6
Continuous
 62
     0
370
     0
100
AcDbCircle
 10
-55.36100922258572
 20
-114.0598363088933
 30
0.0
 40
1.222529296446303
100
AcDbArc
 50
194.7813103722964
 51
323.9519363800014
1001
TOP
1070
     5
  0
LINE
  5
8D4
330
7A2
100
AcDbEntity
  8
0
  6
Continuous
 62
     0
370
     0
100
AcDbLine
 10
-56.54308094434046
 20
-114.3717406617001
 30
0.0
 11
-53.32347004854796
 21
-114.3717406617001
 31
0.0
1001
TOP
1070
     5
  0
ARC
  5
8D5
330
7A2
100
AcDbEntity
  8
0
  6
Continuous
 62
     0
370
     0
100
AcDbCircle
 10
-57.59408675975575
 20
-114.8647736202653
 30
0.0
 40
1.925589320905964
100
AcDbArc
 50
89.97705113130416
 51
144.7782320142341
1001
TOP
1070
     5
  0
LINE
  5
8D6
330
7A2
100
AcDbEntity
  8
0
  6
Continuous
 62
     0
370
     0
100
AcDbLine
 10
-54.37256539156898
 20
-114.7792504271823
 30
0.0
 11
-53.41929511470581
 21
-114.7792504271823
 31
0.0
1001
TOP
1070
     5
  0
LINE
  5
8D7
330
7A2
100
AcDbEntity
  8
0
  6
Continuous
 62
     0
370
     0
100
AcDbLine
 10
-57.97424782956825
 20
-112.1241649228533
 30
0.0
 11
-57.59331549709571
 21
-112.1241649228533
 31
0.0
1001
TOP
1070
     5
  0
LINE
  5
8D8
330
7A2
100
AcDbEntity
  8
0
  6
Continuous
 62
     0
370
     0
100
AcDbLine
 10
-59.16715043218804
 20
-112.1241649228533
 30
0.0
 11
-60.08404740452328
 21
-112.1241649228533
 31
0.0
1001
TOP
1070
     5
  0
INSERT
  5
8D9
102
{ACAD_XDICTIONARY
360
8DA
102
}
330
7A2
100
AcDbEntity
  8
0
  6
Continuous
 62
     0
100
AcDbBlockReference
  2
*U1
 10
0.0
 20
0.0
 30
0.0
1001
TOP
1070
     7
  0
LINE
  5
8E1
330
7A2
100
AcDbEntity
  8
0
  6
Continuous
 62
     0
100
AcDbLine
 10
-100.0
 20
-62.0
 30
0.0
 11
-100.0
 21
-143.5
 31
0.0
1001
TOP
1070
     7
  0
TEXT
  5
8E2
330
7A2
100
AcDbEntity
  8
0
 62
     0
 48
35.0
100
AcDbText
 10
-35.41624434455162
 20
-115.9234
 30
0.0
 40
1.846799999999999
  1
Via del Selciatore, 12
  7
STYLE1
 11
-35.41624434455162
 21
-115.0
 31
0.0
100
AcDbText
 73
     2
1001
TOP
1070
     7
  0
TEXT
  5
8E3
330
7A2
100
AcDbEntity
  8
0
 62
     0
 48
35.0
100
AcDbText
 10
-34.53083356224761
 20
-118.9234
 30
0.0
 40
1.846799999999999
  1
40127 Bologna (BO)
  7
STYLE1
 11
-34.53083356224761
 21
-118.0
 31
0.0
100
AcDbText
 73
     2
1001
TOP
1070
     7
  0
TEXT
  5
8E4
330
7A2
100
AcDbEntity
  8
0
 62
     0
 48
35.0
100
AcDbText
 10
-33.33233765748673
 20
-121.9234
 30
0.0
 40
1.846799999999999
  1
Tel. 051 / 535318
  7
STYLE1
 11
-33.33233765748673
 21
-121.0
 31
0.0
100
AcDbText
 73
     2
1001
TOP
1070
     7
  0
TEXT
  5
8E5
330
7A2
100
AcDbEntity
  8
0
 62
     0
 48
35.0
100
AcDbText
 10
-33.33233765748673
 20
-124.9234
 30
0.0
 40
1.846799999999999
  1
Fax  051 / 531297
  7
STYLE1
 11
-33.33233765748673
 21
-124.0
 31
0.0
100
AcDbText
 73
     2
1001
TOP
1070
     7
  0
TEXT
  5
8E6
330
7A2
100
AcDbEntity
  8
0
 62
     0
 48
35.0
100
AcDbText
 10
-34.17737320773631
 20
-127.75
 30
0.0
 40
1.5
  1
E-mail: info@macapsrl.it
  7
STYLE1
 11
-34.17737320773631
 21
-127.0
 31
0.0
100
AcDbText
 73
     2
1001
TOP
1070
     7
  0
TEXT
  5
8E7
330
7A2
100
AcDbEntity
  8
0
 62
     0
 48
35.0
100
AcDbText
 10
-31.41067151111702
 20
-111.9234
 30
0.0
 40
1.846799999999999
  1
Sede Bologna:
  7
STYLE1
 11
-31.41067151111702
 21
-111.0
 31
0.0
100
AcDbText
 73
     2
1001
TOP
1070
     7
  0
TEXT
  5
8E8
330
7A2
100
AcDbEntity
  8
0
 62
     0
 48
35.0
100
AcDbText
 10
3.295716631763752
 20
-111.9234
 30
0.0
 40
1.846799999999999
  1
Sede Modena:
  7
STYLE1
 11
3.295716631763752
 21
-111.0
 31
0.0
100
AcDbText
 73
     2
1001
TOP
1070
     7
  0
LINE
  5
8E9
330
7A2
100
AcDbEntity
  8
0
 62
     0
 48
35.0
100
AcDbLine
 10
7.000000000000056
 20
142.5
 30
0.0
 11
98.00000000000004
 21
142.5
 31
0.0
1001
TOP
1070
     1
  0
LINE
  5
8EA
330
7A2
100
AcDbEntity
  8
0
 62
     0
100
AcDbLine
 10
7.000000000000056
 20
143.5
 30
0.0
 11
100.0
 21
143.5
 31
0.0
1001
TOP
1070
   256
  0
ARC
  5
8EB
330
7A2
100
AcDbEntity
  8
0
 62
     0
 48
35.0
100
AcDbCircle
 10
98.00000000000004
 20
141.5
 30
0.0
 40
1.0
100
AcDbArc
 50
0.0
 51
90.0
1001
TOP
1070
     1
  0
LINE
  5
8EC
330
7A2
100
AcDbEntity
  8
0
 62
     0
 48
35.0
100
AcDbLine
 10
99.00000000000003
 20
141.5
 30
0.0
 11
99.00000000000005
 21
113.5
 31
0.0
1001
TOP
1070
     1
  0
LINE
  5
8ED
330
7A2
100
AcDbEntity
  8
0
 62
     0
100
AcDbLine
 10
100.0
 20
143.5
 30
0.0
 11
100.0
 21
113.5
 31
0.0
1001
TOP
1070
   256
  0
ARC
  5
8EE
330
7A2
100
AcDbEntity
  8
0
 62
     0
 48
35.0
100
AcDbCircle
 10
98.00000000000006
 20
113.5
 30
0.0
 40
1.0
100
AcDbArc
 50
270.0
 51
0.0
1001
TOP
1070
     1
  0
ARC
  5
8EF
330
7A2
100
AcDbEntity
  8
0
 62
     0
100
AcDbCircle
 10
98.00000000000006
 20
113.5
 30
0.0
 40
2.0
100
AcDbArc
 50
270.0
 51
0.0
1001
TOP
1070
   256
  0
LINE
  5
8F0
330
7A2
100
AcDbEntity
  8
0
 62
     0
 48
35.0
100
AcDbLine
 10
98.00000000000006
 20
112.5
 30
0.0
 11
7.000000000000056
 21
112.5
 31
0.0
1001
TOP
1070
     1
  0
LINE
  5
8F1
330
7A2
100
AcDbEntity
  8
0
 62
     0
100
AcDbLine
 10
98.00000000000006
 20
111.4999999999999
 30
0.0
 11
7.000000000000056
 21
111.5
 31
0.0
1001
TOP
1070
   256
  0
ARC
  5
8F2
330
7A2
100
AcDbEntity
  8
0
 62
     0
 48
35.0
100
AcDbCircle
 10
7.000000000000056
 20
113.5
 30
0.0
 40
1.0
100
AcDbArc
 50
180.0
 51
270.0
1001
TOP
1070
     1
  0
ARC
  5
8F3
330
7A2
100
AcDbEntity
  8
0
 62
     0
100
AcDbCircle
 10
7.000000000000056
 20
113.5
 30
0.0
 40
2.0
100
AcDbArc
 50
180.0
 51
270.0
1001
TOP
1070
   256
  0
LINE
  5
8F4
330
7A2
100
AcDbEntity
  8
0
 62
     0
 48
35.0
100
AcDbLine
 10
6.000000000000056
 20
113.5
 30
0.0
 11
6.000000000000056
 21
141.5
 31
0.0
1001
TOP
1070
     1
  0
LINE
  5
8F5
330
7A2
100
AcDbEntity
  8
0
 62
     0
100
AcDbLine
 10
5.000000000000056
 20
113.5
 30
0.0
 11
5.000000000000056
 21
141.5
 31
0.0
1001
TOP
1070
   256
  0
ARC
  5
8F6
330
7A2
100
AcDbEntity
  8
0
 62
     0
 48
35.0
100
AcDbCircle
 10
7.000000000000056
 20
141.5
 30
0.0
 40
1.0
100
AcDbArc
 50
90.0
 51
180.0
1001
TOP
1070
     1
  0
ARC
  5
8F7
330
7A2
100
AcDbEntity
  8
0
 62
     0
100
AcDbCircle
 10
7.000000000000056
 20
141.5
 30
0.0
 40
2.0
100
AcDbArc
 50
90.0
 51
180.0
1001
TOP
1070
   256
  0
MTEXT
  5
8F8
330
7A2
100
AcDbEntity
  8
0
 62
     0
100
AcDbMText
 10
29.58535811428735
 20
135.6251466847724
 30
0.0
 40
6.0
 41
54.93080742428151
 71
     1
 72
     5
  1
{\fVrinda|b0|i0|c0|p2;BAR CODE\PMontaggio}
 73
     1
 44
1.0
1001
TOP
1070
   256
1001
ACAD
1000
MTEXTBEGIN
1070
    73
1070
     1
1070
    44
1040
1.0
1070
    74
1070
     0
1000
MTEXTEND
  0
ENDBLK
  5
8FC
330
7A2
100
AcDbEntity
  8
0
 62
     3
100
AcDbBlockEnd
  0
BLOCK
  5
91B
330
91A
100
AcDbEntity
  8
0
 62
     3
100
AcDbBlockBegin
  2
*D4
 70
     1
 10
0.0
 20
0.0
 30
0.0
  3
*D4
  1

  0
LINE
  5
927
330
91A
100
AcDbEntity
  8
P-0000
  6
Continuous
 62
     2
370
    -2
100
AcDbLine
 10
-200.0659707201563
 20
807.676618557627
 30
0.0
 11
-210.5659707201564
 21
807.676618557627
 31
0.0
  0
LINE
  5
928
330
91A
100
AcDbEntity
  8
P-0000
  6
Continuous
 62
     2
370
    -2
100
AcDbLine
 10
-197.9659707201563
 20
825.6766185576269
 30
0.0
 11
-210.5659707201564
 21
825.6766185576269
 31
0.0
  0
LINE
  5
929
330
91A
100
AcDbEntity
  8
P-0000
  6
Continuous
 62
     2
370
    -2
100
AcDbLine
 10
-209.0659707201564
 20
809.6766185576269
 30
0.0
 11
-209.0659707201564
 21
823.676618557627
 31
0.0
  0
SOLID
  5
92A
330
91A
100
AcDbEntity
  8
P-0000
  6
Continuous
 62
     2
100
AcDbTrace
 10
-209.3993040534897
 20
809.6766185576269
 30
0.0
 11
-208.732637386823
 21
809.6766185576269
 31
0.0
 12
-209.0659707201564
 22
807.676618557627
 32
0.0
 13
-209.0659707201564
 23
807.676618557627
 33
0.0
  0
SOLID
  5
92B
330
91A
100
AcDbEntity
  8
P-0000
  6
Continuous
 62
     2
100
AcDbTrace
 10
-209.3993040534897
 20
823.676618557627
 30
0.0
 11
-208.732637386823
 21
823.676618557627
 31
0.0
 12
-209.0659707201564
 22
825.6766185576269
 32
0.0
 13
-209.0659707201564
 23
825.6766185576269
 33
0.0
  0
MTEXT
  5
92C
330
91A
100
AcDbEntity
  8
P-0000
  6
Continuous
 62
     1
100
AcDbMText
 10
-211.0885654723431
 20
816.6766185576269
 30
0.0
 40
2.0
 41
0.0
 71
     5
 72
     1
  1
\A1;18
  7
Stile_Quota
 11
0.0000000000000001
 21
1.0
 31
0.0
 73
     1
 44
1.0
1001
ACAD
1000
MTEXTBEGIN
1070
    73
1070
     1
1070
    44
1040
1.0
1070
    74
1070
     0
1000
MTEXTEND
  0
POINT
  5
92D
330
91A
100
AcDbEntity
  8
Defpoints
  6
Continuous
 62
     0
100
AcDbPoint
 10
-199.0659707201563
 20
807.676618557627
 30
0.0
  0
POINT
  5
92E
330
91A
100
AcDbEntity
  8
Defpoints
  6
Continuous
 62
     0
100
AcDbPoint
 10
-196.9659707201563
 20
825.6766185576269
 30
0.0
  0
POINT
  5
92F
330
91A
100
AcDbEntity
  8
Defpoints
  6
Continuous
 62
     0
100
AcDbPoint
 10
-209.0659707201564
 20
825.6766185576269
 30
0.0
  0
ENDBLK
  5
91C
330
91A
100
AcDbEntity
  8
0
 62
     3
100
AcDbBlockEnd
  0
BLOCK
  5
933
330
932
100
AcDbEntity
  8
0
 62
     3
100
AcDbBlockBegin
  2
*D5
 70
     1
 10
0.0
 20
0.0
 30
0.0
  3
*D5
  1

  0
LINE
  5
B18
330
932
100
AcDbEntity
  8
P-0000
  6
Continuous
 62
     2
370
    -2
100
AcDbLine
 10
-197.9659707201563
 20
825.6766185576269
 30
0.0
 11
-210.5659707201565
 21
825.6766185576269
 31
0.0
  0
LINE
  5
B19
330
932
100
AcDbEntity
  8
P-0000
  6
Continuous
 62
     2
370
    -2
100
AcDbLine
 10
-197.9659707201563
 20
870.6766185576269
 30
0.0
 11
-210.5659707201565
 21
870.6766185576269
 31
0.0
  0
LINE
  5
B1A
330
932
100
AcDbEntity
  8
P-0000
  6
Continuous
 62
     2
370
    -2
100
AcDbLine
 10
-209.0659707201565
 20
827.6766185576269
 30
0.0
 11
-209.0659707201564
 21
868.6766185576269
 31
0.0
  0
SOLID
  5
B1B
330
932
100
AcDbEntity
  8
P-0000
  6
Continuous
 62
     2
100
AcDbTrace
 10
-209.3993040534898
 20
827.6766185576269
 30
0.0
 11
-208.7326373868231
 21
827.6766185576269
 31
0.0
 12
-209.0659707201565
 22
825.6766185576269
 32
0.0
 13
-209.0659707201565
 23
825.6766185576269
 33
0.0
  0
SOLID
  5
B1C
330
932
100
AcDbEntity
  8
P-0000
  6
Continuous
 62
     2
100
AcDbTrace
 10
-209.3993040534898
 20
868.6766185576269
 30
0.0
 11
-208.7326373868231
 21
868.6766185576269
 31
0.0
 12
-209.0659707201564
 22
870.6766185576269
 32
0.0
 13
-209.0659707201564
 23
870.6766185576269
 33
0.0
  0
MTEXT
  5
B1D
330
932
100
AcDbEntity
  8
P-0000
  6
Continuous
 62
     1
100
AcDbMText
 10
-211.0885654723432
 20
848.1766185576269
 30
0.0
 40
2.0
 41
0.0
 71
     5
 72
     1
  1
\A1;45
  7
Stile_Quota
 11
0.0000000000000001
 21
1.0
 31
0.0
 73
     1
 44
1.0
1001
ACAD
1000
MTEXTBEGIN
1070
    73
1070
     1
1070
    44
1040
1.0
1070
    74
1070
     0
1000
MTEXTEND
  0
POINT
  5
B1E
330
932
100
AcDbEntity
  8
Defpoints
  6
Continuous
 62
     0
100
AcDbPoint
 10
-196.9659707201563
 20
825.6766185576269
 30
0.0
  0
POINT
  5
B1F
330
932
100
AcDbEntity
  8
Defpoints
  6
Continuous
 62
     0
100
AcDbPoint
 10
-196.9659707201563
 20
870.6766185576269
 30
0.0
  0
POINT
  5
B20
330
932
100
AcDbEntity
  8
Defpoints
  6
Continuous
 62
     0
100
AcDbPoint
 10
-209.0659707201564
 20
870.6766185576269
 30
0.0
  0
ENDBLK
  5
934
330
932
100
AcDbEntity
  8
0
 62
     3
100
AcDbBlockEnd
  0
BLOCK
  5
94B
330
94A
100
AcDbEntity
  8
0
 62
     3
100
AcDbBlockBegin
  2
*D6
 70
     1
 10
0.0
 20
0.0
 30
0.0
  3
*D6
  1

  0
LINE
  5
B21
330
94A
100
AcDbEntity
  8
P-0000
  6
Continuous
 62
     2
370
    -2
100
AcDbLine
 10
-197.9659707201563
 20
870.6766185576269
 30
0.0
 11
-210.5659707201565
 21
870.6766185576269
 31
0.0
  0
LINE
  5
B22
330
94A
100
AcDbEntity
  8
P-0000
  6
Continuous
 62
     2
370
    -2
100
AcDbLine
 10
-200.0659707201563
 20
888.676618557627
 30
0.0
 11
-210.5659707201565
 21
888.676618557627
 31
0.0
  0
LINE
  5
B23
330
94A
100
AcDbEntity
  8
P-0000
  6
Continuous
 62
     2
370
    -2
100
AcDbLine
 10
-209.0659707201564
 20
872.676618557627
 30
0.0
 11
-209.0659707201564
 21
886.6766185576269
 31
0.0
  0
SOLID
  5
B24
330
94A
100
AcDbEntity
  8
P-0000
  6
Continuous
 62
     2
100
AcDbTrace
 10
-209.3993040534898
 20
872.676618557627
 30
0.0
 11
-208.7326373868231
 21
872.676618557627
 31
0.0
 12
-209.0659707201564
 22
870.6766185576269
 32
0.0
 13
-209.0659707201564
 23
870.6766185576269
 33
0.0
  0
SOLID
  5
B25
330
94A
100
AcDbEntity
  8
P-0000
  6
Continuous
 62
     2
100
AcDbTrace
 10
-209.3993040534898
 20
886.6766185576269
 30
0.0
 11
-208.7326373868231
 21
886.6766185576269
 31
0.0
 12
-209.0659707201564
 22
888.676618557627
 32
0.0
 13
-209.0659707201564
 23
888.676618557627
 33
0.0
  0
MTEXT
  5
B26
330
94A
100
AcDbEntity
  8
P-0000
  6
Continuous
 62
     1
100
AcDbMText
 10
-211.0885654723432
 20
879.676618557627
 30
0.0
 40
2.0
 41
0.0
 71
     5
 72
     1
  1
\A1;18
  7
Stile_Quota
 11
0.0000000000000001
 21
1.0
 31
0.0
 73
     1
 44
1.0
1001
ACAD
1000
MTEXTBEGIN
1070
    73
1070
     1
1070
    44
1040
1.0
1070
    74
1070
     0
1000
MTEXTEND
  0
POINT
  5
B27
330
94A
100
AcDbEntity
  8
Defpoints
  6
Continuous
 62
     0
100
AcDbPoint
 10
-196.9659707201563
 20
870.6766185576269
 30
0.0
  0
POINT
  5
B28
330
94A
100
AcDbEntity
  8
Defpoints
  6
Continuous
 62
     0
100
AcDbPoint
 10
-199.0659707201563
 20
888.676618557627
 30
0.0
  0
POINT
  5
B29
330
94A
100
AcDbEntity
  8
Defpoints
  6
Continuous
 62
     0
100
AcDbPoint
 10
-209.0659707201564
 20
888.676618557627
 30
0.0
  0
ENDBLK
  5
94C
330
94A
100
AcDbEntity
  8
0
 62
     3
100
AcDbBlockEnd
  0
BLOCK
  5
965
330
964
100
AcDbEntity
  8
0
 62
     3
100
AcDbBlockBegin
  2
*D7
 70
     1
 10
0.0
 20
0.0
 30
0.0
  3
*D7
  1

  0
LINE
  5
B4E
330
964
100
AcDbEntity
  8
P-0000
  6
Continuous
 62
     2
370
    -2
100
AcDbLine
 10
-197.3491766367054
 20
867.0543345875483
 30
0.0
 11
-198.9435786088886
 21
865.8469065975221
 31
0.0
  0
LINE
  5
B4F
330
964
100
AcDbEntity
  8
P-0000
  6
Continuous
 62
     2
370
    -2
100
AcDbLine
 10
-187.782764803607
 20
874.2989025277054
 30
0.0
 11
-176.6196267971999
 21
882.7526585569996
 31
0.0
  0
LINE
  5
B50
330
964
100
AcDbEntity
  8
P-0000
  6
Continuous
 62
     2
370
    -2
100
AcDbLine
 10
-195.7547746645224
 20
868.2617625775744
 30
0.0
 11
-189.3771667757901
 21
873.0914745376791
 31
0.0
  0
SOLID
  5
B51
330
964
100
AcDbEntity
  8
P-0000
  6
Continuous
 62
     2
100
AcDbTrace
 10
-197.5504146350432
 20
867.3200682495787
 30
0.0
 11
-197.1479386383677
 21
866.7886009255177
 31
0.0
 12
-195.7547746645224
 22
868.2617625775744
 32
0.0
 13
-195.7547746645224
 23
868.2617625775744
 33
0.0
  0
SOLID
  5
B52
330
964
100
AcDbEntity
  8
P-0000
  6
Continuous
 62
     2
100
AcDbTrace
 10
-187.9840028019448
 20
874.5646361897359
 30
0.0
 11
-187.5815268052693
 21
874.0331688656748
 31
0.0
 12
-189.3771667757901
 22
873.0914745376791
 32
0.0
 13
-189.3771667757901
 23
873.0914745376791
 33
0.0
  0
MTEXT
  5
B53
102
{ACAD_XDICTIONARY
360
C00
102
}
330
964
100
AcDbEntity
  8
P-0000
  6
Continuous
 62
     1
100
AcDbMText
 10
-182.625063572447
 20
880.7419090682724
 30
0.0
 40
2.0
 41
0.0
 71
     5
 72
     1
  1
\A1;N\U+00B02 M8
  7
Stile_Quota
 11
0.7972009860915391
 21
0.6037139950131004
 31
0.0
 73
     1
 44
1.0
1001
ACAD
1000
MTEXTBEGIN
1070
    73
1070
     1
1070
    44
1040
1.0
1070
    74
1070
     0
1000
MTEXTEND
  0
POINT
  5
B54
330
964
100
AcDbEntity
  8
Defpoints
  6
Continuous
 62
     0
100
AcDbPoint
 10
-189.3771667757901
 20
873.0914745376791
 30
0.0
  0
POINT
  5
B55
330
964
100
AcDbEntity
  8
Defpoints
  6
Continuous
 62
     0
100
AcDbPoint
 10
-195.7547746645224
 20
868.2617625775744
 30
0.0
  0
ENDBLK
  5
966
330
964
100
AcDbEntity
  8
0
 62
     3
100
AcDbBlockEnd
  0
BLOCK
  5
990
330
98F
100
AcDbEntity
  8
0
 62
     3
100
AcDbBlockBegin
  2
*D8
 70
     1
 10
0.0
 20
0.0
 30
0.0
  3
*D8
  1

  0
LINE
  5
99C
330
98F
100
AcDbEntity
  8
P-0000
  6
Continuous
 62
     2
370
    -2
100
AcDbLine
 10
-200.0659707201563
 20
807.676618557627
 30
0.0
 11
-220.5659707201565
 21
807.676618557627
 31
0.0
  0
LINE
  5
99D
330
98F
100
AcDbEntity
  8
P-0000
  6
Continuous
 62
     2
370
    -2
100
AcDbLine
 10
-200.0659707201563
 20
888.676618557627
 30
0.0
 11
-220.5659707201565
 21
888.676618557627
 31
0.0
  0
LINE
  5
99E
330
98F
100
AcDbEntity
  8
P-0000
  6
Continuous
 62
     2
370
    -2
100
AcDbLine
 10
-219.0659707201565
 20
809.6766185576269
 30
0.0
 11
-219.0659707201565
 21
886.6766185576269
 31
0.0
  0
SOLID
  5
99F
330
98F
100
AcDbEntity
  8
P-0000
  6
Continuous
 62
     2
100
AcDbTrace
 10
-219.3993040534898
 20
809.6766185576269
 30
0.0
 11
-218.7326373868232
 21
809.6766185576269
 31
0.0
 12
-219.0659707201565
 22
807.676618557627
 32
0.0
 13
-219.0659707201565
 23
807.676618557627
 33
0.0
  0
SOLID
  5
9A0
330
98F
100
AcDbEntity
  8
P-0000
  6
Continuous
 62
     2
100
AcDbTrace
 10
-219.3993040534898
 20
886.6766185576269
 30
0.0
 11
-218.7326373868232
 21
886.6766185576269
 31
0.0
 12
-219.0659707201565
 22
888.676618557627
 32
0.0
 13
-219.0659707201565
 23
888.676618557627
 33
0.0
  0
MTEXT
  5
9A1
330
98F
100
AcDbEntity
  8
P-0000
  6
Continuous
 62
     1
100
AcDbMText
 10
-221.0885654723432
 20
848.1766185576269
 30
0.0
 40
2.0
 41
0.0
 71
     5
 72
     1
  1
\A1;81
  7
Stile_Quota
 11
0.0000000000000001
 21
1.0
 31
0.0
 73
     1
 44
1.0
1001
ACAD
1000
MTEXTBEGIN
1070
    73
1070
     1
1070
    44
1040
1.0
1070
    74
1070
     0
1000
MTEXTEND
  0
POINT
  5
9A2
330
98F
100
AcDbEntity
  8
Defpoints
  6
Continuous
 62
     0
100
AcDbPoint
 10
-199.0659707201563
 20
807.676618557627
 30
0.0
  0
POINT
  5
9A3
330
98F
100
AcDbEntity
  8
Defpoints
  6
Continuous
 62
     0
100
AcDbPoint
 10
-199.0659707201563
 20
888.676618557627
 30
0.0
  0
POINT
  5
9A4
330
98F
100
AcDbEntity
  8
Defpoints
  6
Continuous
 62
     0
100
AcDbPoint
 10
-219.0659707201565
 20
888.676618557627
 30
0.0
  0
ENDBLK
  5
991
330
98F
100
AcDbEntity
  8
0
 62
     3
100
AcDbBlockEnd
  0
BLOCK
  5
9A9
330
9A8
100
AcDbEntity
  8
0
 62
     3
100
AcDbBlockBegin
  2
*D9
 70
     1
 10
0.0
 20
0.0
 30
0.0
  3
*D9
  1

  0
LINE
  5
9BF
330
9A8
100
AcDbEntity
  8
P-0000
  6
Continuous
 62
     2
370
    -2
100
AcDbLine
 10
-199.0659707201563
 20
923.1916942361204
 30
0.0
 11
-199.0659707201563
 21
912.6916942361203
 31
0.0
  0
LINE
  5
9C0
330
9A8
100
AcDbEntity
  8
P-0000
  6
Continuous
 62
     2
370
    -2
100
AcDbLine
 10
-186.0659707201563
 20
923.1916942361204
 30
0.0
 11
-186.0659707201563
 21
912.6916942361203
 31
0.0
  0
LINE
  5
9C1
330
9A8
100
AcDbEntity
  8
P-0000
  6
Continuous
 62
     2
370
    -2
100
AcDbLine
 10
-197.0659707201562
 20
914.1916942361204
 30
0.0
 11
-188.0659707201563
 21
914.1916942361204
 31
0.0
  0
SOLID
  5
9C2
330
9A8
100
AcDbEntity
  8
P-0000
  6
Continuous
 62
     2
100
AcDbTrace
 10
-197.0659707201562
 20
914.5250275694538
 30
0.0
 11
-197.0659707201562
 21
913.858360902787
 31
0.0
 12
-199.0659707201563
 22
914.1916942361204
 32
0.0
 13
-199.0659707201563
 23
914.1916942361204
 33
0.0
  0
SOLID
  5
9C3
330
9A8
100
AcDbEntity
  8
P-0000
  6
Continuous
 62
     2
100
AcDbTrace
 10
-188.0659707201563
 20
914.5250275694538
 30
0.0
 11
-188.0659707201563
 21
913.858360902787
 31
0.0
 12
-186.0659707201563
 22
914.1916942361204
 32
0.0
 13
-186.0659707201563
 23
914.1916942361204
 33
0.0
  0
MTEXT
  5
9C4
330
9A8
100
AcDbEntity
  8
P-0000
  6
Continuous
 62
     1
100
AcDbMText
 10
-192.5659707201563
 20
916.2128312623595
 30
0.0
 40
2.0
 41
0.0
 71
     5
 72
     1
  1
\A1;13
  7
Stile_Quota
 73
     1
 44
1.0
1001
ACAD
1000
MTEXTBEGIN
1070
    73
1070
     1
1070
    44
1040
1.0
1070
    74
1070
     0
1000
MTEXTEND
  0
POINT
  5
9C5
330
9A8
100
AcDbEntity
  8
Defpoints
  6
Continuous
 62
     0
100
AcDbPoint
 10
-199.0659707201563
 20
924.1916942361203
 30
0.0
  0
POINT
  5
9C6
330
9A8
100
AcDbEntity
  8
Defpoints
  6
Continuous
 62
     0
100
AcDbPoint
 10
-186.0659707201563
 20
924.1916942361203
 30
0.0
  0
POINT
  5
9C7
330
9A8
100
AcDbEntity
  8
Defpoints
  6
Continuous
 62
     0
100
AcDbPoint
 10
-186.0659707201563
 20
914.1916942361204
 30
0.0
  0
ENDBLK
  5
9AA
330
9A8
100
AcDbEntity
  8
0
 62
     3
100
AcDbBlockEnd
  0
BLOCK
  5
9CB
330
9CA
100
AcDbEntity
  8
0
 62
     3
100
AcDbBlockBegin
  2
*D10
 70
     1
 10
0.0
 20
0.0
 30
0.0
  3
*D10
  1

  0
LINE
  5
9D9
330
9CA
100
AcDbEntity
  8
P-0000
  6
Continuous
 62
     2
370
    -2
100
AcDbLine
 10
-200.0659707201563
 20
924.1916942361203
 30
0.0
 11
-210.5659707201563
 21
924.1916942361203
 31
0.0
  0
LINE
  5
9DA
330
9CA
100
AcDbEntity
  8
P-0000
  6
Continuous
 62
     2
370
    -2
100
AcDbLine
 10
-197.5659707201563
 20
930.0916942361203
 30
0.0
 11
-210.5659707201563
 21
930.0916942361203
 31
0.0
  0
LINE
  5
9DB
330
9CA
100
AcDbEntity
  8
P-0000
  6
Continuous
 62
     2
370
    -2
100
AcDbLine
 10
-209.0659707201564
 20
922.1916942361204
 30
0.0
 11
-209.0659707201564
 21
920.1916942361204
 31
0.0
  0
LINE
  5
9DC
330
9CA
100
AcDbEntity
  8
P-0000
  6
Continuous
 62
     2
370
    -2
100
AcDbLine
 10
-209.0659707201564
 20
932.0916942361204
 30
0.0
 11
-209.0659707201564
 21
939.7535018162953
 31
0.0
  0
LINE
  5
9DD
330
9CA
100
AcDbEntity
  8
P-0000
  6
Continuous
 62
     2
370
    -2
100
AcDbLine
 10
-209.0659707201564
 20
924.1916942361203
 30
0.0
 11
-209.0659707201564
 21
930.0916942361203
 31
0.0
  0
SOLID
  5
9DE
330
9CA
100
AcDbEntity
  8
P-0000
  6
Continuous
 62
     2
100
AcDbTrace
 10
-209.3993040534897
 20
922.1916942361204
 30
0.0
 11
-208.732637386823
 21
922.1916942361204
 31
0.0
 12
-209.0659707201564
 22
924.1916942361203
 32
0.0
 13
-209.0659707201564
 23
924.1916942361203
 33
0.0
  0
SOLID
  5
9DF
330
9CA
100
AcDbEntity
  8
P-0000
  6
Continuous
 62
     2
100
AcDbTrace
 10
-209.3993040534897
 20
932.0916942361204
 30
0.0
 11
-208.732637386823
 21
932.0916942361204
 31
0.0
 12
-209.0659707201564
 22
930.0916942361203
 32
0.0
 13
-209.0659707201564
 23
930.0916942361203
 33
0.0
  0
MTEXT
  5
9E0
330
9CA
100
AcDbEntity
  8
P-0000
  6
Continuous
 62
     1
100
AcDbMText
 10
-211.0892943353168
 20
936.9225980262079
 30
0.0
 40
2.0
 41
0.0
 71
     5
 72
     1
  1
\A1;5.9
  7
Stile_Quota
 11
0.0000000000000001
 21
1.0
 31
0.0
 73
     1
 44
1.0
1001
ACAD
1000
MTEXTBEGIN
1070
    73
1070
     1
1070
    44
1040
1.0
1070
    74
1070
     0
1000
MTEXTEND
  0
POINT
  5
9E1
330
9CA
100
AcDbEntity
  8
Defpoints
  6
Continuous
 62
     0
100
AcDbPoint
 10
-199.0659707201563
 20
924.1916942361203
 30
0.0
  0
POINT
  5
9E2
330
9CA
100
AcDbEntity
  8
Defpoints
  6
Continuous
 62
     0
100
AcDbPoint
 10
-196.5659707201563
 20
930.0916942361203
 30
0.0
  0
POINT
  5
9E3
330
9CA
100
AcDbEntity
  8
Defpoints
  6
Continuous
 62
     0
100
AcDbPoint
 10
-209.0659707201564
 20
930.0916942361203
 30
0.0
  0
ENDBLK
  5
9CC
330
9CA
100
AcDbEntity
  8
0
 62
     3
100
AcDbBlockEnd
  0
BLOCK
  5
9E7
330
9E6
100
AcDbEntity
  8
0
 62
     3
100
AcDbBlockBegin
  2
*D11
 70
     1
 10
0.0
 20
0.0
 30
0.0
  3
*D11
  1

  0
LINE
  5
B32
330
9E6
100
AcDbEntity
  8
P-0000
  6
Continuous
 62
     2
370
    -2
100
AcDbLine
 10
-186.0659707201562
 20
928.5916942361206
 30
0.0
 11
-186.0659707201562
 21
937.8804066998021
 31
0.0
  0
LINE
  5
B33
330
9E6
100
AcDbEntity
  8
P-0000
  6
Continuous
 62
     2
370
    -2
100
AcDbLine
 10
-188.5659707201562
 20
931.0916942361206
 30
0.0
 11
-188.5659707201562
 21
937.8804066998021
 31
0.0
  0
LINE
  5
B34
330
9E6
100
AcDbEntity
  8
P-0000
  6
Continuous
 62
     2
370
    -2
100
AcDbLine
 10
-190.5659707201562
 20
936.3804066998021
 30
0.0
 11
-192.5659707201562
 21
936.3804066998023
 31
0.0
  0
LINE
  5
B35
330
9E6
100
AcDbEntity
  8
P-0000
  6
Continuous
 62
     2
370
    -2
100
AcDbLine
 10
-184.0659707201562
 20
936.3804066998021
 30
0.0
 11
-165.5849211574739
 21
936.3804066998021
 31
0.0
  0
LINE
  5
B36
330
9E6
100
AcDbEntity
  8
P-0000
  6
Continuous
 62
     2
370
    -2
100
AcDbLine
 10
-188.5659707201562
 20
936.3804066998021
 30
0.0
 11
-186.0659707201562
 21
936.3804066998021
 31
0.0
  0
SOLID
  5
B37
330
9E6
100
AcDbEntity
  8
P-0000
  6
Continuous
 62
     2
100
AcDbTrace
 10
-190.5659707201562
 20
936.7137400331355
 30
0.0
 11
-190.5659707201562
 21
936.0470733664687
 31
0.0
 12
-188.5659707201562
 22
936.3804066998021
 32
0.0
 13
-188.5659707201562
 23
936.3804066998021
 33
0.0
  0
SOLID
  5
B38
330
9E6
100
AcDbEntity
  8
P-0000
  6
Continuous
 62
     2
100
AcDbTrace
 10
-184.0659707201562
 20
936.7137400331355
 30
0.0
 11
-184.0659707201562
 21
936.0470733664687
 31
0.0
 12
-186.0659707201562
 22
936.3804066998021
 32
0.0
 13
-186.0659707201562
 23
936.3804066998021
 33
0.0
  0
MTEXT
  5
B39
102
{ACAD_XDICTIONARY
360
BF4
102
}
330
9E6
100
AcDbEntity
  8
P-0000
  6
Continuous
 62
     1
100
AcDbMText
 10
-173.825445938815
 20
938.4030014519886
 30
0.0
 40
2.0
 41
0.0
 71
     5
 72
     1
  1
\A1;sm. 2.5x45\U+00B0
  7
Stile_Quota
 73
     1
 44
1.0
1001
ACAD
1000
MTEXTBEGIN
1070
    73
1070
     1
1070
    44
1040
1.0
1070
    74
1070
     0
1000
MTEXTEND
  0
POINT
  5
B3A
330
9E6
100
AcDbEntity
  8
Defpoints
  6
Continuous
 62
     0
100
AcDbPoint
 10
-186.0659707201562
 20
927.5916942361206
 30
0.0
  0
POINT
  5
B3B
330
9E6
100
AcDbEntity
  8
Defpoints
  6
Continuous
 62
     0
100
AcDbPoint
 10
-188.5659707201562
 20
930.0916942361206
 30
0.0
  0
POINT
  5
B3C
330
9E6
100
AcDbEntity
  8
Defpoints
  6
Continuous
 62
     0
100
AcDbPoint
 10
-188.5659707201562
 20
936.3804066998021
 30
0.0
  0
ENDBLK
  5
9E8
330
9E6
100
AcDbEntity
  8
0
 62
     3
100
AcDbBlockEnd
  0
BLOCK
  5
A56
330
A55
100
AcDbEntity
  8
0
 62
     3
100
AcDbBlockBegin
  2
*D12
 70
     1
 10
0.0
 20
0.0
 30
0.0
  3
*D12
  1

  0
LINE
  5
A62
330
A55
100
AcDbEntity
  8
P-0000
  6
Continuous
 62
     2
370
    -2
100
AcDbLine
 10
-192.5659707201563
 20
820.2766185576269
 30
0.0
 11
-192.5659707201563
 21
796.1766185576269
 31
0.0
  0
LINE
  5
A63
330
A55
100
AcDbEntity
  8
P-0000
  6
Continuous
 62
     2
370
    -2
100
AcDbLine
 10
-186.0659707201562
 20
806.676618557627
 30
0.0
 11
-186.0659707201562
 21
796.1766185576269
 31
0.0
  0
LINE
  5
A64
330
A55
100
AcDbEntity
  8
P-0000
  6
Continuous
 62
     2
370
    -2
100
AcDbLine
 10
-190.5659707201563
 20
797.6766185576269
 30
0.0
 11
-188.0659707201562
 21
797.6766185576269
 31
0.0
  0
SOLID
  5
A65
330
A55
100
AcDbEntity
  8
P-0000
  6
Continuous
 62
     2
100
AcDbTrace
 10
-190.5659707201563
 20
798.0099518909603
 30
0.0
 11
-190.5659707201563
 21
797.3432852242936
 31
0.0
 12
-192.5659707201563
 22
797.6766185576269
 32
0.0
 13
-192.5659707201563
 23
797.6766185576269
 33
0.0
  0
SOLID
  5
A66
330
A55
100
AcDbEntity
  8
P-0000
  6
Continuous
 62
     2
100
AcDbTrace
 10
-188.0659707201562
 20
798.0099518909603
 30
0.0
 11
-188.0659707201562
 21
797.3432852242936
 31
0.0
 12
-186.0659707201562
 22
797.6766185576269
 32
0.0
 13
-186.0659707201562
 23
797.6766185576269
 33
0.0
  0
MTEXT
  5
A67
330
A55
100
AcDbEntity
  8
P-0000
  6
Continuous
 62
     1
100
AcDbMText
 10
-189.3159707201562
 20
799.6992133098135
 30
0.0
 40
2.0
 41
0.0
 71
     5
 72
     1
  1
\A1;6.5
  7
Stile_Quota
 73
     1
 44
1.0
1001
ACAD
1000
MTEXTBEGIN
1070
    73
1070
     1
1070
    44
1040
1.0
1070
    74
1070
     0
1000
MTEXTEND
  0
POINT
  5
A68
330
A55
100
AcDbEntity
  8
Defpoints
  6
Continuous
 62
     0
100
AcDbPoint
 10
-192.5659707201563
 20
821.2766185576269
 30
0.0
  0
POINT
  5
A69
330
A55
100
AcDbEntity
  8
Defpoints
  6
Continuous
 62
     0
100
AcDbPoint
 10
-186.0659707201562
 20
807.676618557627
 30
0.0
  0
POINT
  5
A6A
330
A55
100
AcDbEntity
  8
Defpoints
  6
Continuous
 62
     0
100
AcDbPoint
 10
-186.0659707201562
 20
797.6766185576269
 30
0.0
  0
ENDBLK
  5
A57
330
A55
100
AcDbEntity
  8
0
 62
     3
100
AcDbBlockEnd
  0
BLOCK
  5
A6F
330
A6E
100
AcDbEntity
  8
0
 62
     3
100
AcDbBlockBegin
  2
*D13
 70
     1
 10
0.0
 20
0.0
 30
0.0
  3
*D13
  1

  0
LINE
  5
A7B
330
A6E
100
AcDbEntity
  8
P-0000
  6
Continuous
 62
     2
370
    -2
100
AcDbLine
 10
-192.5659707201563
 20
820.2766185576269
 30
0.0
 11
-192.5659707201563
 21
796.1766185576269
 31
0.0
  0
LINE
  5
A7C
330
A6E
100
AcDbEntity
  8
P-0000
  6
Continuous
 62
     2
370
    -2
100
AcDbLine
 10
-199.0659707201563
 20
806.676618557627
 30
0.0
 11
-199.0659707201563
 21
796.1766185576269
 31
0.0
  0
LINE
  5
A7D
330
A6E
100
AcDbEntity
  8
P-0000
  6
Continuous
 62
     2
370
    -2
100
AcDbLine
 10
-194.5659707201563
 20
797.6766185576269
 30
0.0
 11
-197.0659707201563
 21
797.6766185576269
 31
0.0
  0
SOLID
  5
A7E
330
A6E
100
AcDbEntity
  8
P-0000
  6
Continuous
 62
     2
100
AcDbTrace
 10
-194.5659707201563
 20
798.0099518909603
 30
0.0
 11
-194.5659707201563
 21
797.3432852242936
 31
0.0
 12
-192.5659707201563
 22
797.6766185576269
 32
0.0
 13
-192.5659707201563
 23
797.6766185576269
 33
0.0
  0
SOLID
  5
A7F
330
A6E
100
AcDbEntity
  8
P-0000
  6
Continuous
 62
     2
100
AcDbTrace
 10
-197.0659707201563
 20
798.0099518909603
 30
0.0
 11
-197.0659707201563
 21
797.3432852242936
 31
0.0
 12
-199.0659707201563
 22
797.6766185576269
 32
0.0
 13
-199.0659707201563
 23
797.6766185576269
 33
0.0
  0
MTEXT
  5
A80
330
A6E
100
AcDbEntity
  8
P-0000
  6
Continuous
 62
     1
100
AcDbMText
 10
-195.8159707201563
 20
799.6992133098135
 30
0.0
 40
2.0
 41
0.0
 71
     5
 72
     1
  1
\A1;6.5
  7
Stile_Quota
 73
     1
 44
1.0
1001
ACAD
1000
MTEXTBEGIN
1070
    73
1070
     1
1070
    44
1040
1.0
1070
    74
1070
     0
1000
MTEXTEND
  0
POINT
  5
A81
330
A6E
100
AcDbEntity
  8
Defpoints
  6
Continuous
 62
     0
100
AcDbPoint
 10
-192.5659707201563
 20
821.2766185576269
 30
0.0
  0
POINT
  5
A82
330
A6E
100
AcDbEntity
  8
Defpoints
  6
Continuous
 62
     0
100
AcDbPoint
 10
-199.0659707201563
 20
807.676618557627
 30
0.0
  0
POINT
  5
A83
330
A6E
100
AcDbEntity
  8
Defpoints
  6
Continuous
 62
     0
100
AcDbPoint
 10
-199.0659707201563
 20
797.6766185576269
 30
0.0
  0
ENDBLK
  5
A70
330
A6E
100
AcDbEntity
  8
0
 62
     3
100
AcDbBlockEnd
  0
ENDSEC
  0
SECTION
  2
ENTITIES
  0
LINE
  5
6EA
330
2
100
AcDbEntity
  8
P-0000
  6
Continuous
 62
     7
100
AcDbLine
 10
-6.499999999999971
 20
98.51507567849342
 30
0.0
 11
6.500000000000028
 21
98.51507567849342
 31
0.0
  0
LINE
  5
6EB
330
2
100
AcDbEntity
  8
P-0000
  6
Continuous
 62
     7
100
AcDbLine
 10
6.500000000000028
 20
98.51507567849342
 30
0.0
 11
6.500000000000056
 21
101.9150756784936
 31
0.0
  0
LINE
  5
6EC
330
2
100
AcDbEntity
  8
P-0000
  6
Continuous
 62
     7
100
AcDbLine
 10
-6.499999999999971
 20
98.51507567849342
 30
0.0
 11
-6.499999999999971
 21
101.9150756784934
 31
0.0
  0
LINE
  5
6ED
330
2
100
AcDbEntity
  8
P-0000
  6
Continuous
 62
     7
100
AcDbLine
 10
-3.999999999999971
 20
104.4150756784934
 30
0.0
 11
4.000000000000056
 21
104.4150756784936
 31
0.0
  0
LINE
  5
6EE
330
2
100
AcDbEntity
  8
P-0000
  6
Continuous
 62
     7
100
AcDbLine
 10
6.500000000000056
 20
101.9150756784936
 30
0.0
 11
4.000000000000056
 21
104.4150756784936
 31
0.0
  0
LINE
  5
6EF
330
2
100
AcDbEntity
  8
P-0000
  6
Continuous
 62
     7
100
AcDbLine
 10
-3.999999999999971
 20
104.4150756784934
 30
0.0
 11
-6.499999999999971
 21
101.9150756784934
 31
0.0
  0
LINE
  5
6FA
330
2
100
AcDbEntity
  8
P-0000
  6
Continuous
 62
     7
100
AcDbLine
 10
-6.499999999999971
 20
63.0
 30
0.0
 11
6.500000000000028
 21
63.0
 31
0.0
  0
LINE
  5
6FB
330
2
100
AcDbEntity
  8
P-0000
  6
Continuous
 62
     7
100
AcDbLine
 10
6.500000000000028
 20
63.0
 30
0.0
 11
6.500000000000142
 21
-18.0
 31
0.0
  0
LINE
  5
6FC
330
2
100
AcDbEntity
  8
P-0000
  6
Continuous
 62
     7
100
AcDbLine
 10
6.500000000000142
 20
-18.0
 30
0.0
 11
-6.5
 21
-18.0
 31
0.0
  0
LINE
  5
6FD
330
2
100
AcDbEntity
  8
P-0000
  6
Continuous
 62
     7
100
AcDbLine
 10
-6.5
 20
-18.0
 30
0.0
 11
-6.5
 21
63.0
 31
0.0
  0
LINE
  5
6FE
330
2
100
AcDbEntity
  8
P-0000
  6
Continuous
 62
     3
100
AcDbLine
 10
-3.999999999999971
 20
63.0
 30
0.0
 11
-3.999999999999971
 21
-18.0
 31
0.0
  0
LINE
  5
6FF
330
2
100
AcDbEntity
  8
P-0000
  6
Continuous
 62
     3
100
AcDbLine
 10
4.000000000000028
 20
-18.0
 30
0.0
 11
4.000000000000028
 21
63.0
 31
0.0
  0
CIRCLE
  5
704
330
2
100
AcDbEntity
  8
P-0000
  6
Continuous
 62
     7
100
AcDbCircle
 10
0.0
 20
45.0
 30
0.0
 40
3.2332125
  0
ARC
  5
705
330
2
100
AcDbEntity
  8
P-0000
  6
Continuous
 62
     3
100
AcDbCircle
 10
0.0
 20
45.0
 30
0.0
 40
4.0
100
AcDbArc
 50
180.0
 51
90.0
  0
LINE
  5
706
330
2
100
AcDbEntity
  8
P-0000
  6
ASSI
 62
     2
100
AcDbLine
 10
-4.399999999999977
 20
45.0
 30
0.0
 11
4.399999999999977
 21
45.0
 31
0.0
  0
LINE
  5
707
330
2
100
AcDbEntity
  8
P-0000
  6
ASSI
 62
     2
100
AcDbLine
 10
0.0
 20
49.39999999999997
 30
0.0
 11
0.0
 21
40.5999999999999
 31
0.0
  0
CIRCLE
  5
70C
330
2
100
AcDbEntity
  8
P-0000
  6
Continuous
 62
     7
100
AcDbCircle
 10
0.0
 20
0.0
 30
0.0
 40
3.2332125
  0
ARC
  5
70D
330
2
100
AcDbEntity
  8
P-0000
  6
Continuous
 62
     3
100
AcDbCircle
 10
0.0
 20
0.0
 30
0.0
 40
4.0
100
AcDbArc
 50
270.0
 51
180.0
  0
LINE
  5
70E
330
2
100
AcDbEntity
  8
P-0000
  6
ASSI
 62
     2
100
AcDbLine
 10
-4.399999999999977
 20
0.0
 30
0.0
 11
4.399999999999977
 21
0.0
 31
0.0
  0
LINE
  5
70F
330
2
100
AcDbEntity
  8
P-0000
  6
ASSI
 62
     2
100
AcDbLine
 10
0.0
 20
-4.399999999999977
 30
0.0
 11
0.0
 21
4.40000000000009
 31
0.0
  0
LINE
  5
74E
330
2
100
AcDbEntity
  8
P-0000
  6
TRATTEGGIO
 62
     1
100
AcDbLine
 10
-3.233212499999979
 20
98.51507567849331
 30
0.0
 11
-3.233212500000178
 21
104.4150756784933
 31
0.0
  0
LINE
  5
74F
330
2
100
AcDbEntity
  8
P-0000
  6
TRATTEGGIO
 62
     1
100
AcDbLine
 10
3.233212500000036
 20
98.51507567849353
 30
0.0
 11
3.233212499999837
 21
104.4150756784935
 31
0.0
  0
LINE
  5
750
330
2
100
AcDbEntity
  8
P-0000
  6
TRATTEGGIO
 62
     3
100
AcDbLine
 10
-3.999999999999971
 20
98.51507567849331
 30
0.0
 11
-4.00000000000017
 21
104.4150756784933
 31
0.0
  0
LINE
  5
751
330
2
100
AcDbEntity
  8
P-0000
  6
TRATTEGGIO
 62
     3
100
AcDbLine
 10
4.000000000000028
 20
98.51507567849353
 30
0.0
 11
3.999999999999829
 21
104.4150756784935
 31
0.0
  0
LINE
  5
752
330
2
100
AcDbEntity
  8
P-0000
  6
ASSI
 62
     2
100
AcDbLine
 10
0.0000000000000284
 20
98.22007567849347
 30
0.0
 11
-0.0000000000001705
 21
104.7100756784933
 31
0.0
  0
ENDSEC
  0
SECTION
  2
OBJECTS
  0
DICTIONARY
  5
1A
330
0
100
AcDbDictionary
281
     1
  3
ACAD_COLOR
350
2C5
  3
ACAD_GROUP
350
18
  3
ACAD_LAYOUT
350
45
  3
ACAD_MATERIAL
350
2B0
  3
ACAD_MLEADERSTYLE
350
354
  3
ACAD_MLINESTYLE
350
19
  3
ACAD_PLOTSETTINGS
350
46
  3
ACAD_PLOTSTYLENAME
350
43
  3
ACAD_SCALELIST
350
332
  3
ACAD_TABLESTYLE
350
2C6
  3
ACAD_VISUALSTYLE
350
2B4
  3
ACDB_RECOMPOSE_DATA
350
BBF
  3
AcDbVariableDictionary
350
2AA
  3
AEC_PROPERTY_SET_DEFS
350
B4D
  3
ASE_INDEX_DICTIONARY
350
B5B
  3
DWGPROPS
350
BC0
  3
qs_topprt_diz
350
50
  3
QSCATDICT
350
6D9
  3
QsPallStyleDict
350
758
  3
QsTop499
350
B56
  3
TopSpotLight
350
6E0
  0
DICTIONARY
  5
300
330
12
100
AcDbDictionary
280
     1
281
     1
  0
DICTIONARY
  5
7A0
330
A
100
AcDbDictionary
280
     1
281
     1
  3
ACAD_LAYERSTATES
360
7A1
  0
DICTIONARY
  5
37B
330
4
100
AcDbDictionary
280
     1
281
     1
  3
ADSK_XREC_LAYER_RECONCILED
360
A8D
  0
DICTIONARY
  5
A8E
330
6DB
100
AcDbDictionary
280
     1
281
     1
  3
ADSK_XREC_LAYER_RECONCILED
360
A8F
  0
DICTIONARY
  5
A90
330
6F1
100
AcDbDictionary
280
     1
281
     1
  3
ADSK_XREC_LAYER_RECONCILED
360
A91
  0
DICTIONARY
  5
A92
330
75C
100
AcDbDictionary
280
     1
281
     1
  3
ADSK_XREC_LAYER_RECONCILED
360
A93
  0
DICTIONARY
  5
6F8
330
2
100
AcDbDictionary
280
     1
281
     1
  3
ACAD_SORTENTS
360
6F9
  0
DICTIONARY
  5
75F
330
75E
100
AcDbDictionary
280
     1
281
     1
  3
ACAD_ENHANCEDBLOCK
360
760
  3
AcDbDynamicBlockRoundTripPurgePreventer
360
769
  0
DICTIONARY
  5
775
330
774
100
AcDbDictionary
280
     1
281
     1
  0
DICTIONARY
  5
781
330
780
100
AcDbDictionary
280
     1
281
     1
  3
ACAD_SORTENTS
360
782
  0
DICTIONARY
  5
8F9
330
7A2
100
AcDbDictionary
280
     1
281
     1
  3
ACAD_SORTENTS
360
8FA
  0
DICTIONARY
  5
8DA
330
8D9
100
AcDbDictionary
280
     1
281
     1
  3
AcDbBlockRepresentation
360
8DB
  0
DICTIONARY
  5
C00
330
B53
100
AcDbDictionary
280
     1
281
     1
  3
ACAD_MTEXT_RT
360
C01
  0
DICTIONARY
  5
BF4
330
B39
100
AcDbDictionary
280
     1
281
     1
  3
ACAD_MTEXT_RT
360
BF5
  0
DICTIONARY
  5
2C5
102
{ACAD_REACTORS
330
1A
102
}
330
1A
100
AcDbDictionary
281
     1
  0
DICTIONARY
  5
18
102
{ACAD_REACTORS
330
1A
102
}
330
1A
100
AcDbDictionary
281
     1
  0
DICTIONARY
  5
45
102
{ACAD_REACTORS
330
1A
102
}
330
1A
100
AcDbDictionary
281
     1
  3
Layout1
350
48
  3
Model
350
47
  0
DICTIONARY
  5
2B0
102
{ACAD_REACTORS
330
1A
102
}
330
1A
100
AcDbDictionary
281
     1
  3
ByBlock
350
2B2
  3
ByLayer
350
2B1
  3
Global
350
2B3
  0
DICTIONARY
  5
354
102
{ACAD_REACTORS
330
1A
102
}
330
1A
100
AcDbDictionary
281
     1
  3
Standard
350
355
  0
DICTIONARY
  5
19
102
{ACAD_REACTORS
330
1A
102
}
330
1A
100
AcDbDictionary
281
     1
  3
STANDARD
350
1C
  0
DICTIONARY
  5
46
102
{ACAD_REACTORS
330
1A
102
}
330
1A
100
AcDbDictionary
281
     1
  3
Kyocera_1010 OR
350
B45
  3
Kyocera_1010 VER
350
B46
  3
Olivetti_200 A3
350
B47
  3
Olivetti_200 A4
350
B48
  3
PLOTTER
350
B49
  0
ACDBDICTIONARYWDFLT
  5
43
102
{ACAD_REACTORS
330
1A
102
}
330
1A
100
AcDbDictionary
281
     1
  3
Normal
350
44
100
AcDbDictionaryWithDefault
340
44
  0
DICTIONARY
  5
332
102
{ACAD_REACTORS
330
1A
102
}
330
1A
100
AcDbDictionary
281
     1
  3
A0
350
333
  3
A1
350
334
  3
A2
350
335
  3
A3
350
336
  3
A4
350
337
  3
A5
350
338
  3
A6
350
339
  3
A7
350
33A
  3
A8
350
33B
  3
A9
350
33C
  3
B0
350
33D
  3
B1
350
33E
  3
B2
350
33F
  3
B3
350
340
  3
B4
350
341
  3
B5
350
342
  3
B6
350
343
  3
B7
350
344
  3
B8
350
345
  3
B9
350
346
  3
C0
350
347
  3
C1
350
348
  3
C2
350
349
  3
C3
350
34A
  3
C4
350
34B
  3
C5
350
34C
  3
C6
350
34D
  3
C7
350
34E
  3
C8
350
34F
  3
C9
350
350
  3
D0
350
351
  3
D1
350
352
  3
D2
350
353
  0
DICTIONARY
  5
2C6
102
{ACAD_REACTORS
330
1A
102
}
330
1A
100
AcDbDictionary
281
     1
  3
QSTABFORI
350
31A
  3
QSTABREGION
350
2CC
  3
Standard
350
2C7
  0
DICTIONARY
  5
2B4
102
{ACAD_REACTORS
330
1A
102
}
330
1A
100
AcDbDictionary
281
     1
  3
2dWireframe
350
2BA
  3
3D Hidden
350
2BC
  3
3dWireframe
350
2BB
  3
Basic
350
2B9
  3
Brighten
350
2C0
  3
ColorChange
350
2C4
  3
Conceptual
350
2BD
  3
Dim
350
2BF
  3
EdgeColorOff
350
AED
  3
Facepattern
350
2C3
  3
Flat
350
2B5
  3
FlatWithEdges
350
2B6
  3
Gouraud
350
2B7
  3
GouraudWithEdges
350
2B8
  3
Hidden
350
BA8
  3
JitterOff
350
AEB
  3
Linepattern
350
2C2
  3
OverhangOff
350
AEC
  3
Realistic
350
2BE
  3
Shaded
350
BAD
  3
Shaded with edges
350
BAC
  3
Shades of Gray
350
BA9
  3
Sketchy
350
BAA
  3
Thicken
350
2C1
  3
Wireframe
350
BA7
  3
X-Ray
350
BAB
  0
XRECORD
  5
BBF
102
{ACAD_REACTORS
330
1A
102
}
330
1A
100
AcDbXrecord
280
     1
 90
        1
330
2C7
330
2CC
330
31A
  0
DICTIONARY
  5
2AA
102
{ACAD_REACTORS
330
1A
102
}
330
1A
100
AcDbDictionary
281
     1
  3
CANNOSCALE
350
36B
  3
CMLEADERSTYLE
350
369
  3
CTABLESTYLE
350
312
  3
DIMASSOC
350
2AB
  3
DRAWORDERCTL
350
AC6
  3
INDEXCTL
350
314
  3
LIGHTINGUNITS
350
36C
  3
MSLTSCALE
350
36A
  3
SORTENTS
350
313
  3
XCLIPFRAME
350
BBB
  0
DICTIONARY
  5
B4D
102
{ACAD_REACTORS
330
1A
102
}
330
1A
100
AcDbDictionary
281
     1
  0
DICTIONARY
  5
B5B
102
{ACAD_REACTORS
330
1A
102
}
330
1A
100
AcDbDictionary
281
     1
  3
ASEBlockHierarchyIndexRecord
350
B5D
1001
DCO15
1040
1713691922.123
  0
XRECORD
  5
BC0
102
{ACAD_REACTORS
330
1A
102
}
330
1A
100
AcDbXrecord
280
     1
  1
DWGPROPS COOKIE
  2

  3

  4

  6

  7

  8
mpistoia
  9

300
=
301
=
302
=
303
=
304
=
305
=
306
=
307
=
308
=
309
=
 40
0.0099011921296296
 41
2455127.407986134
 42
2455637.609098646
  1

 90
        0
  0
DICTIONARY
  5
50
102
{ACAD_REACTORS
330
1A
102
}
330
1A
100
AcDbDictionary
281
     1
  3
UCNT
350
51
  0
DICTIONARY
  5
6D9
102
{ACAD_REACTORS
330
1A
102
}
330
1A
100
AcDbDictionary
281
     1
  3
DEFAULT
350
6DA
  0
DICTIONARY
  5
758
102
{ACAD_REACTORS
330
1A
102
}
330
1A
100
AcDbDictionary
281
     1
  3
DEFAULT
350
759
  0
DICTIONARY
  5
B56
102
{ACAD_REACTORS
330
1A
102
}
330
1A
100
AcDbDictionary
281
     1
  3
TOP
350
B59
  3
X0f48
350
B57
  3
X41c6
350
B58
  0
DICTIONARY
  5
6E0
102
{ACAD_REACTORS
330
1A
102
}
330
1A
100
AcDbDictionary
281
     1
  3
colors
350
6E1
  0
DICTIONARY
  5
7A1
102
{ACAD_REACTORS
330
7A0
102
}
330
7A0
100
AcDbDictionary
281
     1
  0
XRECORD
  5
A8D
102
{ACAD_REACTORS
330
37B
102
}
330
37B
100
AcDbXrecord
280
     1
290
     1
  0
XRECORD
  5
A8F
102
{ACAD_REACTORS
330
A8E
102
}
330
A8E
100
AcDbXrecord
280
     1
290
     1
  0
XRECORD
  5
A91
102
{ACAD_REACTORS
330
A90
102
}
330
A90
100
AcDbXrecord
280
     1
290
     1
  0
XRECORD
  5
A93
102
{ACAD_REACTORS
330
A92
102
}
330
A92
100
AcDbXrecord
280
     1
290
     1
  0
SORTENTSTABLE
  5
6F9
102
{ACAD_REACTORS
330
6F8
102
}
330
6F8
100
AcDbSortentsTable
330
2
331
6EE
  5
6F6
331
6EC
  5
6F4
331
6EA
  5
6F2
331
6EF
  5
6F7
331
6ED
  5
6F5
331
6EB
  5
6F3
  0
ACAD_EVALUATION_GRAPH
  5
760
102
{ACAD_REACTORS
330
75F
102
}
330
75F
100
AcDbEvalGraph
 96
       16
 97
       16
 91
        0
 93
       32
 95
        1
360
761
 92
        2
 92
        5
 92
        0
 92
        6
 91
        1
 93
       32
 95
        2
360
762
 92
       -1
 92
       -1
 92
        2
 92
        2
 91
        2
 93
       32
 95
        3
360
763
 92
        0
 92
        0
 92
       -1
 92
       -1
 91
        3
 93
       32
 95
        4
360
764
 92
        1
 92
        1
 92
       -1
 92
       -1
 91
        4
 93
       32
 95
        5
360
765
 92
       -1
 92
       -1
 92
        5
 92
        5
 91
        5
 93
       32
 95
        6
360
766
 92
        3
 92
        3
 92
       -1
 92
       -1
 91
        6
 93
       32
 95
        7
360
767
 92
        4
 92
        4
 92
       -1
 92
       -1
 91
        7
 93
       32
 95
       15
360
768
 92
        6
 92
        6
 92
       -1
 92
       -1
 92
        0
 93
        0
 94
        1
 91
        0
 91
        2
 92
       -1
 92
       -1
 92
       -1
 92
        1
 92
       -1
 92
        1
 93
        0
 94
        1
 91
        0
 91
        3
 92
       -1
 92
       -1
 92
        0
 92
        3
 92
       -1
 92
        2
 93
        0
 94
        2
 91
        1
 91
        0
 92
       -1
 92
        5
 92
       -1
 92
       -1
 92
       -1
 92
        3
 93
        0
 94
        1
 91
        0
 91
        5
 92
       -1
 92
       -1
 92
        1
 92
        4
 92
       -1
 92
        4
 93
        0
 94
        1
 91
        0
 91
        6
 92
       -1
 92
       -1
 92
        3
 92
        6
 92
       -1
 92
        5
 93
        0
 94
        2
 91
        4
 91
        0
 92
        2
 92
       -1
 92
       -1
 92
       -1
 92
       -1
 92
        6
 93
        0
 94
        2
 91
        0
 91
        7
 92
       -1
 92
       -1
 92
        4
 92
       -1
 92
       -1
  0
ACDB_DYNAMICBLOCKPURGEPREVENTER_VERSION
  5
769
102
{ACAD_REACTORS
330
75F
102
}
330
75F
100
AcDbDynamicBlockPurgePreventer
 70
     1
  0
SORTENTSTABLE
  5
782
102
{ACAD_REACTORS
330
781
102
}
330
781
100
AcDbSortentsTable
330
780
  0
SORTENTSTABLE
  5
8FA
102
{ACAD_REACTORS
330
8F9
102
}
330
8F9
100
AcDbSortentsTable
330
7A2
331
7F4
  5
7BB
331
7BA
  5
7D7
331
7DF
  5
7B7
331
7FC
  5
7B1
331
7C2
  5
7DE
331
7E7
  5
7C3
331
7CA
  5
7E7
331
7EF
  5
7BF
331
7D2
  5
7F1
331
7B5
  5
7B8
331
7DA
  5
7F9
331
7F7
  5
7BE
331
7BD
  5
7D9
331
7E2
  5
7E6
331
7C5
  5
7E1
331
7EA
  5
7C6
331
7CD
  5
7EC
331
7D5
  5
7F4
331
7B0
  5
7CE
331
7F2
  5
7B6
331
7B8
  5
7D3
331
7DD
  5
7B0
331
7FA
  5
7B4
331
7C0
  5
7DB
331
7E5
  5
7CD
331
7C8
  5
7E4
331
7ED
  5
7C9
331
7D0
  5
7EF
331
7B3
  5
7D1
331
7D8
  5
7F7
331
7F5
  5
7BC
331
7BB
  5
7D6
331
7E0
  5
7E8
331
7C3
  5
7DF
331
7E8
  5
7C4
331
7CB
  5
7EA
331
7D3
  5
7F2
331
7B6
  5
7BA
331
7F0
  5
7C0
331
7DB
  5
7FB
331
7F8
  5
7B2
331
7BE
  5
7DA
331
7E3
  5
7CB
331
7C6
  5
7E2
331
7EB
  5
7C7
331
7CE
  5
7ED
331
7B1
  5
7CF
331
7D6
  5
7F5
331
7F3
  5
7B9
331
7B9
  5
7D5
331
7DE
  5
7B3
331
7FB
  5
7FA
331
7C1
  5
7DD
331
7E6
  5
7C2
331
7C9
  5
7E5
331
7EE
  5
7CA
331
7D1
  5
7F0
331
7B4
  5
7D2
331
7D9
  5
7F8
331
7F6
  5
7BD
331
7BC
  5
7D8
331
7E1
  5
7E9
331
7C4
  5
7E0
331
7E9
  5
7C5
331
7CC
  5
7EB
331
7D4
  5
7F3
331
7B7
  5
7D4
331
7F1
  5
7C1
331
7DC
  5
7FC
331
7F9
  5
7B5
331
7BF
  5
7DC
331
7E4
  5
7CC
331
7C7
  5
7E3
331
7EC
  5
7C8
331
7CF
  5
7EE
331
7B2
  5
7D0
331
7D7
  5
7F6
  0
DICTIONARY
  5
8DB
102
{ACAD_REACTORS
330
8DA
102
}
330
8DA
100
AcDbDictionary
280
     1
281
     1
  3
AcDbRepData
360
8DC
  3
AppDataCache
360
8DD
  0
XRECORD
  5
C01
102
{ACAD_REACTORS
330
C00
102
}
330
C00
100
AcDbXrecord
280
     1
 40
7849.0
  1
\A1;N°2 M8
  0
XRECORD
  5
BF5
102
{ACAD_REACTORS
330
BF4
102
}
330
BF4
100
AcDbXrecord
280
     1
 40
14338.0
  1
\A1;sm. 2.5x45°
  0
LAYOUT
  5
48
102
{ACAD_XDICTIONARY
360
BC3
102
}
102
{ACAD_REACTORS
330
45
102
}
330
45
100
AcDbPlotSettings
  1

  2
RICOH Aficio 270 PCL 6 A4
  4

  6

 40
0.0
 41
0.0
 42
0.0
 43
0.0
 44
0.0
 45
0.0
 46
0.0
 47
0.0
 48
0.0
 49
0.0
140
0.0
141
0.0
142
1.0
143
1.0
 70
   688
 72
     0
 73
     0
 74
     5
  7
DIERRE BN.ctb
 75
    16
147
1.0
148
0.0
149
0.0
100
AcDbLayout
  1
Layout1
 70
     1
 71
     1
 10
0.0
 20
0.0
 11
12.0
 21
9.0
 12
0.0
 22
0.0
 32
0.0
 14
1.000000000000000E+20
 24
1.000000000000000E+20
 34
1.000000000000000E+20
 15
-1.000000000000000E+20
 25
-1.000000000000000E+20
 35
-1.000000000000000E+20
146
0.0
 13
0.0
 23
0.0
 33
0.0
 16
1.0
 26
0.0
 36
0.0
 17
0.0
 27
1.0
 37
0.0
 76
     0
330
7
  0
LAYOUT
  5
47
102
{ACAD_XDICTIONARY
360
BC1
102
}
102
{ACAD_REACTORS
330
45
102
}
330
45
100
AcDbPlotSettings
  1
Olivetti_200 A4
  2
Olivetti_200.pc3
  4
A4
  6

 40
4.984749794006347
 41
5.154074668884277
 42
5.111740112304687
 43
4.9847412109375
 44
210.0156707763672
 45
297.0106506347656
 46
51.67548120477697
 47
0.0
 48
0.0
 49
0.0
140
0.0
141
0.0
142
1.0
143
0.4718508448115938
 70
 11956
 72
     1
 73
     0
 74
     1
  7
DIERRE BN.ctb
 75
     0
147
2.119313785268927
148
-222.4649060220283
149
-239.0808115236937
100
AcDbLayout
  1
Model
 70
     1
 71
     0
 10
0.0
 20
0.0
 11
12.0
 21
9.0
 12
0.0
 22
0.0
 32
0.0
 14
0.0
 24
0.0
 34
0.0
 15
0.0
 25
0.0
 35
0.0
146
0.0
 13
0.0
 23
0.0
 33
0.0
 16
1.0
 26
0.0
 36
0.0
 17
0.0
 27
1.0
 37
0.0
 76
     0
330
2
331
2AE
1001
ACAD_PSEXT
1000
Olivetti_200.pc3
1000
Olivetti d-Copia 200MF KX
1000
IP_192.168.1.151
1000

1070
     0
  0
MATERIAL
  5
2B2
102
{ACAD_XDICTIONARY
360
BC7
102
}
102
{ACAD_REACTORS
330
2B0
102
}
330
2B0
100
AcDbMaterial
  1
ByBlock
 73
     1
 78
     1
172
     1
176
     1
270
     1
274
     1
  0
MATERIAL
  5
2B1
102
{ACAD_XDICTIONARY
360
BC5
102
}
102
{ACAD_REACTORS
330
2B0
102
}
330
2B0
100
AcDbMaterial
  1
ByLayer
 73
     1
 78
     1
172
     1
176
     1
270
     1
274
     1
  0
MATERIAL
  5
2B3
102
{ACAD_XDICTIONARY
360
BC9
102
}
102
{ACAD_REACTORS
330
2B0
102
}
330
2B0
100
AcDbMaterial
  1
Global
 73
     1
 78
     1
172
     1
176
     1
270
     1
274
     1
  0
MLEADERSTYLE
  5
355
102
{ACAD_REACTORS
330
354
102
}
330
354
100
AcDbMLeaderStyle
170
     2
171
     1
172
     0
 90
        2
 40
0.0
 41
0.0
173
     1
 91
-1056964608
340
E
 92
       -2
290
     1
 42
2.0
291
     1
 43
0.36
  3
Standard
 44
4.0
300

342
C
174
     1
178
     6
175
     1
176
     0
 93
-1056964608
 45
4.0
292
     0
297
     0
 46
4.0
 94
-1056964608
 47
1.0
 49
1.0
140
1.0
293
     1
141
0.0
294
     1
177
     0
142
1.0
295
     0
296
     0
143
0.125
1001
ACAD_MLEADERVER
1070
     2
  0
MLINESTYLE
  5
1C
102
{ACAD_REACTORS
330
19
102
}
330
19
100
AcDbMlineStyle
  2
STANDARD
 70
     0
  3

 62
     0
 51
90.0
 52
90.0
 71
     2
 49
0.5
 62
   256
  6
BYLAYER
 49
-0.5
 62
   256
  6
BYLAYER
  0
PLOTSETTINGS
  5
B45
102
{ACAD_XDICTIONARY
360
BF6
102
}
102
{ACAD_REACTORS
330
46
102
}
330
46
100
AcDbPlotSettings
  1
Kyocera_1010 OR
  2
Kyocera_1010.pc3
  4
A4
  6

 40
4.984749794006347
 41
5.154074668884277
 42
5.111740112304687
 43
4.9847412109375
 44
210.0156707763672
 45
297.0106506347656
 46
0.0
 47
109.7870247470818
 48
0.0
 49
0.0
140
0.0
141
0.0
142
1.0
143
0.6770771918566143
 70
 11956
 72
     1
 73
     1
 74
     1
  7
DIERRE BN.ctb
 75
     0
147
1.476936473458659
148
-222.4649060220283
149
-239.0808115236937
1001
ACAD_PSEXT
1000
Kyocera_1010.pc3
1000
Kyocera Mita FS-1010 KX
1000
\\PC5
1000

1070
     0
  0
PLOTSETTINGS
  5
B46
102
{ACAD_XDICTIONARY
360
BF8
102
}
102
{ACAD_REACTORS
330
46
102
}
330
46
100
AcDbPlotSettings
  1
Kyocera_1010 VER
  2
Kyocera_1010.pc3
  4
A4
  6

 40
4.984749794006347
 41
5.154074668884277
 42
5.111740112304687
 43
4.9847412109375
 44
210.0156707763672
 45
297.0106506347656
 46
51.67548120477697
 47
0.0
 48
0.0
 49
0.0
140
0.0
141
0.0
142
1.0
143
0.4718508448115938
 70
 11956
 72
     1
 73
     0
 74
     1
  7
DIERRE BN.ctb
 75
     0
147
2.119313785268927
148
-222.4649060220283
149
-239.0808115236937
1001
ACAD_PSEXT
1000
Kyocera_1010.pc3
1000
Kyocera Mita FS-1010 KX
1000
\\PC5
1000

1070
     0
  0
PLOTSETTINGS
  5
B47
102
{ACAD_XDICTIONARY
360
BFA
102
}
102
{ACAD_REACTORS
330
46
102
}
330
46
100
AcDbPlotSettings
  1
Olivetti_200 A3
  2
Olivetti_200.pc3
  4
A3
  6

 40
4.984749794006347
 41
5.111746788024902
 42
5.154083251953125
 43
4.9847412109375
 44
297.0106506347656
 45
419.9889831542968
 46
0.0
 47
156.6621412366913
 48
0.0
 49
0.0
140
0.0
141
0.0
142
1.0
143
0.4718508730467012
 70
 11956
 72
     1
 73
     1
 74
     1
  7
DIERRE BN.ctb
 75
     0
147
2.119313658451206
148
-222.4649060220283
149
-239.0808115236937
1001
ACAD_PSEXT
1000
Olivetti_200.pc3
1000
Olivetti d-Copia 200MF KX
1000
IP_192.168.1.151
1000

1070
     0
  0
PLOTSETTINGS
  5
B48
102
{ACAD_XDICTIONARY
360
BFC
102
}
102
{ACAD_REACTORS
330
46
102
}
330
46
100
AcDbPlotSettings
  1
Olivetti_200 A4
  2
Olivetti_200.pc3
  4
A4
  6

 40
4.984749794006347
 41
5.154074668884277
 42
5.111740112304687
 43
4.9847412109375
 44
210.0156707763672
 45
297.0106506347656
 46
51.67548120477697
 47
0.0
 48
0.0
 49
0.0
140
0.0
141
0.0
142
1.0
143
0.4718508448115938
 70
 11956
 72
     1
 73
     0
 74
     1
  7
DIERRE BN.ctb
 75
     0
147
2.119313785268927
148
-222.4649060220283
149
-239.0808115236937
1001
ACAD_PSEXT
1000
Olivetti_200.pc3
1000
Olivetti d-Copia 200MF KX
1000
IP_192.168.1.151
1000

1070
     0
  0
PLOTSETTINGS
  5
B49
102
{ACAD_XDICTIONARY
360
BFE
102
}
102
{ACAD_REACTORS
330
46
102
}
330
46
100
AcDbPlotSettings
  1
PLOTTER
  2
PLOTTER.pc3
  4
User622
  6

 40
0.0
 41
0.0
 42
0.0
 43
0.0
 44
841.0
 45
1189.0
 46
0.0
 47
0.0
 48
0.0
 49
0.0
140
0.0
141
0.0
142
1.0
143
1.0
 70
 11936
 72
     1
 73
     0
 74
     1
  7
DIERRE BN.ctb
 75
     0
147
2.194137304425714
148
-222.4649060220283
149
-239.0808115236937
1001
ACAD_PSEXT
1000
PLOTTER.pc3
1000
HP DesignJet 430 (E/A0) by HP
1000
\\SERVER2003
1000

1070
     0
  0
ACDBPLACEHOLDER
  5
44
102
{ACAD_REACTORS
330
43
102
}
330
43
  0
SCALE
  5
333
102
{ACAD_REACTORS
330
332
102
}
330
332
100
AcDbScale
 70
     0
300
1:1
140
1.0
141
1.0
290
     1
  0
SCALE
  5
334
102
{ACAD_REACTORS
330
332
102
}
330
332
100
AcDbScale
 70
     0
300
1:2
140
1.0
141
2.0
290
     0
  0
SCALE
  5
335
102
{ACAD_REACTORS
330
332
102
}
330
332
100
AcDbScale
 70
     0
300
1:4
140
1.0
141
4.0
290
     0
  0
SCALE
  5
336
102
{ACAD_REACTORS
330
332
102
}
330
332
100
AcDbScale
 70
     0
300
1:5
140
1.0
141
5.0
290
     0
  0
SCALE
  5
337
102
{ACAD_REACTORS
330
332
102
}
330
332
100
AcDbScale
 70
     0
300
1:8
140
1.0
141
8.0
290
     0
  0
SCALE
  5
338
102
{ACAD_REACTORS
330
332
102
}
330
332
100
AcDbScale
 70
     0
300
1:10
140
1.0
141
10.0
290
     0
  0
SCALE
  5
339
102
{ACAD_REACTORS
330
332
102
}
330
332
100
AcDbScale
 70
     0
300
1:16
140
1.0
141
16.0
290
     0
  0
SCALE
  5
33A
102
{ACAD_REACTORS
330
332
102
}
330
332
100
AcDbScale
 70
     0
300
1:20
140
1.0
141
20.0
290
     0
  0
SCALE
  5
33B
102
{ACAD_REACTORS
330
332
102
}
330
332
100
AcDbScale
 70
     0
300
1:30
140
1.0
141
30.0
290
     0
  0
SCALE
  5
33C
102
{ACAD_REACTORS
330
332
102
}
330
332
100
AcDbScale
 70
     0
300
1:40
140
1.0
141
40.0
290
     0
  0
SCALE
  5
33D
102
{ACAD_REACTORS
330
332
102
}
330
332
100
AcDbScale
 70
     0
300
1:50
140
1.0
141
50.0
290
     0
  0
SCALE
  5
33E
102
{ACAD_REACTORS
330
332
102
}
330
332
100
AcDbScale
 70
     0
300
1:100
140
1.0
141
100.0
290
     0
  0
SCALE
  5
33F
102
{ACAD_REACTORS
330
332
102
}
330
332
100
AcDbScale
 70
     0
300
2:1
140
2.0
141
1.0
290
     0
  0
SCALE
  5
340
102
{ACAD_REACTORS
330
332
102
}
330
332
100
AcDbScale
 70
     0
300
4:1
140
4.0
141
1.0
290
     0
  0
SCALE
  5
341
102
{ACAD_REACTORS
330
332
102
}
330
332
100
AcDbScale
 70
     0
300
8:1
140
8.0
141
1.0
290
     0
  0
SCALE
  5
342
102
{ACAD_REACTORS
330
332
102
}
330
332
100
AcDbScale
 70
     0
300
10:1
140
10.0
141
1.0
290
     0
  0
SCALE
  5
343
102
{ACAD_REACTORS
330
332
102
}
330
332
100
AcDbScale
 70
     0
300
100:1
140
100.0
141
1.0
290
     0
  0
SCALE
  5
344
102
{ACAD_REACTORS
330
332
102
}
330
332
100
AcDbScale
 70
     0
300
1/128" = 1'-0"
140
0.0078125
141
12.0
290
     0
  0
SCALE
  5
345
102
{ACAD_REACTORS
330
332
102
}
330
332
100
AcDbScale
 70
     0
300
1/64" = 1'-0"
140
0.015625
141
12.0
290
     0
  0
SCALE
  5
346
102
{ACAD_REACTORS
330
332
102
}
330
332
100
AcDbScale
 70
     0
300
1/32" = 1'-0"
140
0.03125
141
12.0
290
     0
  0
SCALE
  5
347
102
{ACAD_REACTORS
330
332
102
}
330
332
100
AcDbScale
 70
     0
300
1/16" = 1'-0"
140
0.0625
141
12.0
290
     0
  0
SCALE
  5
348
102
{ACAD_REACTORS
330
332
102
}
330
332
100
AcDbScale
 70
     0
300
3/32" = 1'-0"
140
0.09375
141
12.0
290
     0
  0
SCALE
  5
349
102
{ACAD_REACTORS
330
332
102
}
330
332
100
AcDbScale
 70
     0
300
1/8" = 1'-0"
140
0.125
141
12.0
290
     0
  0
SCALE
  5
34A
102
{ACAD_REACTORS
330
332
102
}
330
332
100
AcDbScale
 70
     0
300
3/16" = 1'-0"
140
0.1875
141
12.0
290
     0
  0
SCALE
  5
34B
102
{ACAD_REACTORS
330
332
102
}
330
332
100
AcDbScale
 70
     0
300
1/4" = 1'-0"
140
0.25
141
12.0
290
     0
  0
SCALE
  5
34C
102
{ACAD_REACTORS
330
332
102
}
330
332
100
AcDbScale
 70
     0
300
3/8" = 1'-0"
140
0.375
141
12.0
290
     0
  0
SCALE
  5
34D
102
{ACAD_REACTORS
330
332
102
}
330
332
100
AcDbScale
 70
     0
300
1/2" = 1'-0"
140
0.5
141
12.0
290
     0
  0
SCALE
  5
34E
102
{ACAD_REACTORS
330
332
102
}
330
332
100
AcDbScale
 70
     0
300
3/4" = 1'-0"
140
0.75
141
12.0
290
     0
  0
SCALE
  5
34F
102
{ACAD_REACTORS
330
332
102
}
330
332
100
AcDbScale
 70
     0
300
1" = 1'-0"
140
1.0
141
12.0
290
     0
  0
SCALE
  5
350
102
{ACAD_REACTORS
330
332
102
}
330
332
100
AcDbScale
 70
     0
300
1-1/2" = 1'-0"
140
1.5
141
12.0
290
     0
  0
SCALE
  5
351
102
{ACAD_REACTORS
330
332
102
}
330
332
100
AcDbScale
 70
     0
300
3" = 1'-0"
140
3.0
141
12.0
290
     0
  0
SCALE
  5
352
102
{ACAD_REACTORS
330
332
102
}
330
332
100
AcDbScale
 70
     0
300
6" = 1'-0"
140
6.0
141
12.0
290
     0
  0
SCALE
  5
353
102
{ACAD_REACTORS
330
332
102
}
330
332
100
AcDbScale
 70
     0
300
1'-0" = 1'-0"
140
12.0
141
12.0
290
     0
  0
TABLESTYLE
  5
31A
102
{ACAD_XDICTIONARY
360
366
102
}
102
{ACAD_REACTORS
330
2C6
102
}
330
2C6
100
AcDbTableStyle
  3
Standard
 70
     1
 71
     0
 40
1.5
 41
1.5
280
     1
281
     0
  7
ROMANS
140
3.0
170
     5
 62
     7
 63
     7
283
     0
274
    -2
284
     1
 64
     0
275
    -2
285
     1
 65
     0
276
    -2
286
     1
 66
     0
277
    -2
287
     1
 67
     0
278
    -2
288
     1
 68
     0
279
    -2
289
     1
 69
     0
  7
ROMANS
140
6.0
170
     5
 62
     1
 63
     7
283
     0
274
    -2
284
     1
 64
     0
275
    -2
285
     1
 65
     0
276
    -2
286
     1
 66
     0
277
    -2
287
     1
 67
     0
278
    -2
288
     1
 68
     0
279
    -2
289
     1
 69
     0
  7
ROMANS
140
3.5
170
     5
 62
     3
 63
     7
283
     0
274
    -2
284
     1
 64
     0
275
    -2
285
     1
 65
     0
276
    -2
286
     1
 66
     0
277
    -2
287
     1
 67
     0
278
    -2
288
     1
 68
     0
279
    -2
289
     1
 69
     0
  0
TABLESTYLE
  5
2CC
102
{ACAD_XDICTIONARY
360
364
102
}
102
{ACAD_REACTORS
330
2C6
102
}
330
2C6
100
AcDbTableStyle
  3
Standard
 70
     0
 71
     0
 40
1.5
 41
1.5
280
     0
281
     0
  7
ROMANS
140
4.5
170
     5
 62
     7
 63
     7
283
     0
274
    -2
284
     1
 64
     0
275
    -2
285
     1
 65
     0
276
    -2
286
     1
 66
     0
277
    -2
287
     1
 67
     0
278
    -2
288
     1
 68
     0
279
    -2
289
     1
 69
     0
  7
ROMANS
140
6.0
170
     5
 62
     1
 63
     7
283
     0
274
    -2
284
     1
 64
     0
275
    -2
285
     1
 65
     0
276
    -2
286
     1
 66
     0
277
    -2
287
     1
 67
     0
278
    -2
288
     1
 68
     0
279
    -2
289
     1
 69
     0
  7
ROMANS
140
5.0
170
     5
 62
     3
 63
     7
283
     0
274
    -2
284
     1
 64
     0
275
    -2
285
     1
 65
     0
276
    -2
286
     1
 66
     0
277
    -2
287
     1
 67
     0
278
    -2
288
     1
 68
     0
279
    -2
289
     1
 69
     0
  0
TABLESTYLE
  5
2C7
102
{ACAD_XDICTIONARY
360
362
102
}
102
{ACAD_REACTORS
330
2C6
102
}
330
2C6
100
AcDbTableStyle
  3
Standard
 70
     0
 71
     0
 40
1.5
 41
1.5
280
     0
281
     0
  7
STANDARD
140
4.5
170
     2
 62
     0
 63
     7
283
     0
274
    -2
284
     1
 64
     0
275
    -2
285
     1
 65
     0
276
    -2
286
     1
 66
     0
277
    -2
287
     1
 67
     0
278
    -2
288
     1
 68
     0
279
    -2
289
     1
 69
     0
  7
STANDARD
140
6.0
170
     5
 62
     0
 63
     7
283
     0
274
    -2
284
     1
 64
     0
275
    -2
285
     1
 65
     0
276
    -2
286
     1
 66
     0
277
    -2
287
     1
 67
     0
278
    -2
288
     1
 68
     0
279
    -2
289
     1
 69
     0
  7
STANDARD
140
4.5
170
     5
 62
     0
 63
     7
283
     0
274
    -2
284
     1
 64
     0
275
    -2
285
     1
 65
     0
276
    -2
286
     1
 66
     0
277
    -2
287
     1
 67
     0
278
    -2
288
     1
 68
     0
279
    -2
289
     1
 69
     0
  0
VISUALSTYLE
  5
2BA
102
{ACAD_XDICTIONARY
360
BD5
102
}
102
{ACAD_REACTORS
330
2B4
102
}
330
2B4
100
AcDbVisualStyle
  2
2dWireframe
 70
     4
 71
     0
 72
     2
 73
     0
 90
        0
 40
-0.6
 41
-30.0
 62
     5
 63
     7
 74
     1
 91
        4
 64
     7
 65
   257
 75
     1
175
     1
 42
1.0
 92
        0
 66
   257
 43
1.0
 76
     1
 77
     6
 78
     2
 67
     7
 79
     5
170
     0
171
     0
290
     0
174
     0
 93
        1
 44
0.0
173
     0
291
     0
 45
0.0
1001
ACAD
1000
AcDbSavedByObjectVersion
1070
     0
  0
VISUALSTYLE
  5
2BC
102
{ACAD_XDICTIONARY
360
BD9
102
}
102
{ACAD_REACTORS
330
2B4
102
}
330
2B4
100
AcDbVisualStyle
  2
3D Hidden
 70
     6
 71
     1
 72
     2
 73
     2
 90
        0
 40
-0.6
 41
-30.0
 62
     5
 63
     7
 74
     2
 91
        2
 64
     7
 65
   257
 75
     2
175
     1
 42
40.0
 92
        0
 66
   257
 43
1.0
 76
     1
 77
     6
 78
     2
 67
     7
 79
     3
170
     0
171
     0
290
     0
174
     0
 93
        1
 44
0.0
173
     0
291
     0
 45
0.0
1001
ACAD
1000
AcDbSavedByObjectVersion
1070
     0
  0
VISUALSTYLE
  5
2BB
102
{ACAD_XDICTIONARY
360
BD7
102
}
102
{ACAD_REACTORS
330
2B4
102
}
330
2B4
100
AcDbVisualStyle
  2
3dWireframe
 70
     5
 71
     0
 72
     2
 73
     0
 90
        0
 40
-0.6
 41
-30.0
 62
     5
 63
     7
 74
     1
 91
        4
 64
     7
 65
   257
 75
     1
175
     1
 42
1.0
 92
        0
 66
   257
 43
1.0
 76
     1
 77
     6
 78
     2
 67
     7
 79
     5
170
     0
171
     0
290
     0
174
     0
 93
        1
 44
0.0
173
     0
291
     0
 45
0.0
1001
ACAD
1000
AcDbSavedByObjectVersion
1070
     0
  0
VISUALSTYLE
  5
2B9
102
{ACAD_XDICTIONARY
360
BD3
102
}
102
{ACAD_REACTORS
330
2B4
102
}
330
2B4
100
AcDbVisualStyle
  2
Basic
 70
     7
 71
     1
 72
     0
 73
     1
 90
        0
 40
-0.6
 41
-30.0
 62
     5
 63
     7
 74
     0
 91
        4
 64
     7
 65
   257
 75
     1
175
     1
 42
1.0
 92
        8
 66
     7
 43
1.0
 76
     1
 77
     6
 78
     2
 67
     7
 79
     5
170
     0
171
     0
290
     0
174
     0
 93
        1
 44
0.0
173
     0
291
     1
 45
0.0
1001
ACAD
1000
AcDbSavedByObjectVersion
1070
     0
  0
VISUALSTYLE
  5
2C0
102
{ACAD_XDICTIONARY
360
BE1
102
}
102
{ACAD_REACTORS
330
2B4
102
}
330
2B4
100
AcDbVisualStyle
  2
Brighten
 70
    12
 71
     2
 72
     2
 73
     0
 90
        0
 40
-0.6
 41
-30.0
 62
     5
 63
     7
 74
     1
 91
        4
 64
     7
 65
   257
 75
     1
175
     1
 42
1.0
 92
        8
 66
     7
 43
1.0
 76
     1
 77
     6
 78
     2
 67
     7
 79
     5
170
     0
171
     0
290
     0
174
     0
 93
        1
 44
50.0
173
     0
291
     1
 45
0.0
1001
ACAD
1000
AcDbSavedByObjectVersion
1070
     0
  0
VISUALSTYLE
  5
2C4
102
{ACAD_XDICTIONARY
360
BE9
102
}
102
{ACAD_REACTORS
330
2B4
102
}
330
2B4
100
AcDbVisualStyle
  2
ColorChange
 70
    16
 71
     2
 72
     2
 73
     3
 90
        0
 40
-0.6
 41
-30.0
 62
     5
 63
     8
 74
     1
 91
        4
 64
     7
 65
   257
 75
     1
175
     1
 42
1.0
 92
        8
 66
     8
 43
1.0
 76
     1
 77
     6
 78
     2
 67
     7
 79
     5
170
     0
171
     0
290
     0
174
     0
 93
        1
 44
0.0
173
     0
291
     1
 45
0.0
1001
ACAD
1000
AcDbSavedByObjectVersion
1070
     0
  0
VISUALSTYLE
  5
2BD
102
{ACAD_XDICTIONARY
360
BDB
102
}
102
{ACAD_REACTORS
330
2B4
102
}
330
2B4
100
AcDbVisualStyle
  2
Conceptual
 70
     9
 71
     3
 72
     2
 73
     0
 90
        0
 40
-0.6
 41
-30.0
 62
     5
 63
     7
 74
     2
 91
        2
 64
     7
 65
   257
 75
     1
175
     1
 42
40.0
 92
        8
 66
     7
 43
1.0
 76
     1
 77
     6
 78
     2
 67
     7
 79
     3
170
     0
171
     0
290
     0
174
     0
 93
        1
 44
0.0
173
     0
291
     0
 45
0.0
1001
ACAD
1000
AcDbSavedByObjectVersion
1070
     0
  0
VISUALSTYLE
  5
2BF
102
{ACAD_XDICTIONARY
360
BDF
102
}
102
{ACAD_REACTORS
330
2B4
102
}
330
2B4
100
AcDbVisualStyle
  2
Dim
 70
    11
 71
     2
 72
     2
 73
     0
 90
        0
 40
-0.6
 41
-30.0
 62
     5
 63
     7
 74
     1
 91
        4
 64
     7
 65
   257
 75
     1
175
     1
 42
1.0
 92
        8
 66
     7
 43
1.0
 76
     1
 77
     6
 78
     2
 67
     7
 79
     5
170
     0
171
     0
290
     0
174
     0
 93
        1
 44
-50.0
173
     0
291
     1
 45
0.0
1001
ACAD
1000
AcDbSavedByObjectVersion
1070
     0
  0
VISUALSTYLE
  5
AED
102
{ACAD_XDICTIONARY
360
BF2
102
}
102
{ACAD_REACTORS
330
2B4
102
}
330
2B4
100
AcDbVisualStyle
  2
EdgeColorOff
 70
    22
 71
     2
 72
     2
 73
     0
 90
        0
 40
-0.6
 41
-30.0
 62
     5
 63
     7
 74
     1
 91
        4
 64
     7
 65
   257
 75
     1
175
     1
 42
1.0
 92
        8
 66
     7
 43
1.0
 76
     1
 77
     6
 78
     2
 67
     7
 79
     5
170
     0
171
     0
290
     0
174
     0
 93
        1
 44
0.0
173
     0
291
     1
 45
0.0
1001
ACAD
1000
AcDbSavedByObjectVersion
1070
     0
  0
VISUALSTYLE
  5
2C3
102
{ACAD_XDICTIONARY
360
BE7
102
}
102
{ACAD_REACTORS
330
2B4
102
}
330
2B4
100
AcDbVisualStyle
  2
Facepattern
 70
    15
 71
     2
 72
     2
 73
     0
 90
        0
 40
-0.6
 41
-30.0
 62
     5
 63
     7
 74
     1
 91
        4
 64
     7
 65
   257
 75
     1
175
     1
 42
1.0
 92
        8
 66
     7
 43
1.0
 76
     1
 77
     6
 78
     2
 67
     7
 79
     5
170
     0
171
     0
290
     0
174
     0
 93
        1
 44
0.0
173
     0
291
     1
 45
0.0
1001
ACAD
1000
AcDbSavedByObjectVersion
1070
     0
  0
VISUALSTYLE
  5
2B5
102
{ACAD_XDICTIONARY
360
BCB
102
}
102
{ACAD_REACTORS
330
2B4
102
}
330
2B4
100
AcDbVisualStyle
  2
Flat
 70
     0
 71
     2
 72
     1
 73
     1
 90
        2
 40
-0.6
 41
30.0
 62
     5
 63
     7
 74
     0
 91
        4
 64
     7
 65
   257
 75
     1
175
     1
 42
1.0
 92
        8
 66
     7
 43
1.0
 76
     1
 77
     6
 78
     2
 67
     7
 79
     5
170
     0
171
     0
290
     0
174
     0
 93
       13
 44
0.0
173
     0
291
     1
 45
0.0
1001
ACAD
1000
AcDbSavedByObjectVersion
1070
     0
  0
VISUALSTYLE
  5
2B6
102
{ACAD_XDICTIONARY
360
BCD
102
}
102
{ACAD_REACTORS
330
2B4
102
}
330
2B4
100
AcDbVisualStyle
  2
FlatWithEdges
 70
     1
 71
     2
 72
     1
 73
     1
 90
        2
 40
-0.6
 41
30.0
 62
     5
 63
     7
 74
     1
 91
        4
 64
     7
 65
   257
 75
     1
175
     1
 42
1.0
 92
        0
 66
   257
 43
1.0
 76
     1
 77
     6
 78
     2
 67
     7
 79
     5
170
     0
171
     0
290
     0
174
     0
 93
       13
 44
0.0
173
     0
291
     1
 45
0.0
1001
ACAD
1000
AcDbSavedByObjectVersion
1070
     0
  0
VISUALSTYLE
  5
2B7
102
{ACAD_XDICTIONARY
360
BCF
102
}
102
{ACAD_REACTORS
330
2B4
102
}
330
2B4
100
AcDbVisualStyle
  2
Gouraud
 70
     2
 71
     2
 72
     2
 73
     1
 90
        2
 40
-0.6
 41
30.0
 62
     5
 63
     7
 74
     0
 91
        4
 64
     7
 65
   257
 75
     1
175
     1
 42
1.0
 92
        0
 66
     7
 43
1.0
 76
     1
 77
     6
 78
     2
 67
     7
 79
     5
170
     0
171
     0
290
     0
174
     0
 93
       13
 44
0.0
173
     0
291
     1
 45
0.0
1001
ACAD
1000
AcDbSavedByObjectVersion
1070
     0
  0
VISUALSTYLE
  5
2B8
102
{ACAD_XDICTIONARY
360
BD1
102
}
102
{ACAD_REACTORS
330
2B4
102
}
330
2B4
100
AcDbVisualStyle
  2
GouraudWithEdges
 70
     3
 71
     2
 72
     2
 73
     1
 90
        2
 40
-0.6
 41
30.0
 62
     5
 63
     7
 74
     1
 91
        4
 64
     7
 65
   257
 75
     1
175
     1
 42
1.0
 92
        0
 66
   257
 43
1.0
 76
     1
 77
     6
 78
     2
 67
     7
 79
     5
170
     0
171
     0
290
     0
174
     0
 93
       13
 44
0.0
173
     0
291
     1
 45
0.0
1001
ACAD
1000
AcDbSavedByObjectVersion
1070
     0
  0
VISUALSTYLE
  5
BA8
102
{ACAD_XDICTIONARY
360
C04
102
}
102
{ACAD_REACTORS
330
2B4
102
}
330
2B4
100
AcDbVisualStyle
  2
Hidden
 70
     6
 71
     1
 72
     2
 73
     2
 90
        0
 40
-0.6
 41
-30.0
 62
     5
 63
     7
 74
     2
 91
        2
 64
     7
 65
   257
 75
     2
175
     1
 42
40.0
 92
        0
 66
   257
 43
1.0
 76
     1
 77
     6
 78
     2
 67
     7
 79
     3
170
     0
171
     0
290
     0
174
     0
 93
        1
 44
0.0
173
     0
291
     0
 45
0.0
1001
ACAD
1000
AcDbSavedByObjectVersion
1070
     0
  0
VISUALSTYLE
  5
AEB
102
{ACAD_XDICTIONARY
360
BEE
102
}
102
{ACAD_REACTORS
330
2B4
102
}
330
2B4
100
AcDbVisualStyle
  2
JitterOff
 70
    20
 71
     2
 72
     2
 73
     0
 90
        0
 40
-0.6
 41
-30.0
 62
     5
 63
     7
 74
     1
 91
        4
 64
     7
 65
   257
 75
     1
175
     1
 42
1.0
 92
       10
 66
     7
 43
1.0
 76
     1
 77
     6
 78
     2
 67
     7
 79
     5
170
     0
171
     0
290
     0
174
     0
 93
        1
 44
0.0
173
     0
291
     1
 45
0.0
1001
ACAD
1000
AcDbSavedByObjectVersion
1070
     0
  0
VISUALSTYLE
  5
2C2
102
{ACAD_XDICTIONARY
360
BE5
102
}
102
{ACAD_REACTORS
330
2B4
102
}
330
2B4
100
AcDbVisualStyle
  2
Linepattern
 70
    14
 71
     2
 72
     2
 73
     0
 90
        0
 40
-0.6
 41
-30.0
 62
     5
 63
     7
 74
     1
 91
        4
 64
     7
 65
   257
 75
     7
175
     7
 42
1.0
 92
        8
 66
     7
 43
1.0
 76
     1
 77
     6
 78
     2
 67
     7
 79
     5
170
     0
171
     0
290
     0
174
     0
 93
        1
 44
0.0
173
     0
291
     1
 45
0.0
1001
ACAD
1000
AcDbSavedByObjectVersion
1070
     0
  0
VISUALSTYLE
  5
AEC
102
{ACAD_XDICTIONARY
360
BF0
102
}
102
{ACAD_REACTORS
330
2B4
102
}
330
2B4
100
AcDbVisualStyle
  2
OverhangOff
 70
    21
 71
     2
 72
     2
 73
     0
 90
        0
 40
-0.6
 41
-30.0
 62
     5
 63
     7
 74
     1
 91
        4
 64
     7
 65
   257
 75
     1
175
     1
 42
1.0
 92
        9
 66
     7
 43
1.0
 76
     1
 77
     6
 78
     2
 67
     7
 79
     5
170
     0
171
     0
290
     0
174
     0
 93
        1
 44
0.0
173
     0
291
     1
 45
0.0
1001
ACAD
1000
AcDbSavedByObjectVersion
1070
     0
  0
VISUALSTYLE
  5
2BE
102
{ACAD_XDICTIONARY
360
BDD
102
}
102
{ACAD_REACTORS
330
2B4
102
}
330
2B4
100
AcDbVisualStyle
  2
Realistic
 70
     8
 71
     2
 72
     2
 73
     0
 90
        0
 40
-0.6
 41
-30.0
 62
     5
 63
     7
 74
     1
 91
        0
 64
     7
 65
   257
 75
     1
175
     1
 42
1.0
 92
        8
 66
     8
 43
1.0
 76
     1
 77
     6
 78
     2
 67
     7
 79
     5
170
     0
171
     0
290
     0
174
     0
 93
       13
 44
0.0
173
     0
291
     0
 45
0.0
1001
ACAD
1000
AcDbSavedByObjectVersion
1070
     0
  0
VISUALSTYLE
  5
BAD
102
{ACAD_XDICTIONARY
360
C0E
102
}
102
{ACAD_REACTORS
330
2B4
102
}
330
2B4
100
AcDbVisualStyle
  2
Shaded
 70
    27
 71
     2
 72
     2
 73
     1
 90
        2
 40
-0.6
 41
30.0
 62
     5
 63
     7
 74
     0
 91
        4
 64
     7
 65
   257
 75
     1
175
     1
 42
1.0
 92
        8
 66
   257
 43
1.0
 76
     1
 77
     6
 78
     2
 67
     8
 79
     3
170
     0
171
     0
290
     0
174
     0
 93
        5
 44
0.0
173
     0
291
     0
 45
0.0
1001
ACAD
1000
AcDbSavedByObjectVersion
1070
     0
  0
VISUALSTYLE
  5
BAC
102
{ACAD_XDICTIONARY
360
C0C
102
}
102
{ACAD_REACTORS
330
2B4
102
}
330
2B4
100
AcDbVisualStyle
  2
Shaded with edges
 70
    26
 71
     2
 72
     2
 73
     1
 90
        2
 40
-0.6
 41
30.0
 62
     5
 63
     7
 74
     1
 91
       10
 64
     7
 65
   257
 75
     2
175
     1
 42
1.0
 92
        8
 66
   257
 43
1.0
 76
     1
 77
     6
 78
     2
 67
     7
 79
     3
170
     0
171
     0
290
     0
174
     0
 93
        5
 44
0.0
173
     0
291
     0
 45
0.0
1001
ACAD
1000
AcDbSavedByObjectVersion
1070
     0
  0
VISUALSTYLE
  5
BA9
102
{ACAD_XDICTIONARY
360
C06
102
}
102
{ACAD_REACTORS
330
2B4
102
}
330
2B4
100
AcDbVisualStyle
  2
Shades of Gray
 70
    23
 71
     2
 72
     2
 73
     3
 90
        0
 40
-0.6
 41
-30.0
 62
     5
 63
     7
 74
     2
 91
        2
 64
     7
 65
     7
 75
     1
175
     1
 42
40.0
 92
        8
 66
     7
 43
1.0
 76
     1
 77
     6
 78
     2
 67
     7
 79
     3
170
     0
171
     0
290
     0
174
     0
 93
        1
 44
0.0
173
     0
291
     0
 45
0.0
1001
ACAD
1000
AcDbSavedByObjectVersion
1070
     0
  0
VISUALSTYLE
  5
BAA
102
{ACAD_XDICTIONARY
360
C08
102
}
102
{ACAD_REACTORS
330
2B4
102
}
330
2B4
100
AcDbVisualStyle
  2
Sketchy
 70
    24
 71
     1
 72
     2
 73
     2
 90
        0
 40
-0.6
 41
-30.0
 62
     5
 63
     7
 74
     2
 91
        2
 64
     7
 65
     7
 75
     1
175
     1
 42
40.0
 92
       11
 66
     7
 43
1.0
 76
     1
 77
     6
 78
     2
 67
     7
 79
     6
170
     0
171
     0
290
     0
174
     0
 93
        1
 44
0.0
173
     0
291
     0
 45
0.0
1001
ACAD
1000
AcDbSavedByObjectVersion
1070
     0
  0
VISUALSTYLE
  5
2C1
102
{ACAD_XDICTIONARY
360
BE3
102
}
102
{ACAD_REACTORS
330
2B4
102
}
330
2B4
100
AcDbVisualStyle
  2
Thicken
 70
    13
 71
     2
 72
     2
 73
     0
 90
        0
 40
-0.6
 41
-30.0
 62
     5
 63
     7
 74
     1
 91
        4
 64
     7
 65
   257
 75
     1
175
     1
 42
1.0
 92
       12
 66
     7
 43
1.0
 76
     1
 77
     6
 78
     2
 67
     7
 79
     5
170
     0
171
     0
290
     0
174
     0
 93
        1
 44
0.0
173
     0
291
     1
 45
0.0
1001
ACAD
1000
AcDbSavedByObjectVersion
1070
     0
  0
VISUALSTYLE
  5
BA7
102
{ACAD_XDICTIONARY
360
C02
102
}
102
{ACAD_REACTORS
330
2B4
102
}
330
2B4
100
AcDbVisualStyle
  2
Wireframe
 70
     5
 71
     0
 72
     2
 73
     0
 90
        0
 40
-0.6
 41
-30.0
 62
     5
 63
     7
 74
     1
 91
        4
 64
     7
 65
   257
 75
     1
175
     1
 42
1.0
 92
        0
 66
   257
 43
1.0
 76
     1
 77
     6
 78
     2
 67
     7
 79
     3
170
     0
171
     0
290
     0
174
     0
 93
        1
 44
0.0
173
     0
291
     0
 45
0.0
1001
ACAD
1000
AcDbSavedByObjectVersion
1070
     0
  0
VISUALSTYLE
  5
BAB
102
{ACAD_XDICTIONARY
360
C0A
102
}
102
{ACAD_REACTORS
330
2B4
102
}
330
2B4
100
AcDbVisualStyle
  2
X-Ray
 70
    25
 71
     2
 72
     2
 73
     1
 90
        1
 40
0.5
 41
-30.0
 62
     5
 63
     7
 74
     1
 91
        0
 64
     7
 65
   257
 75
     1
175
     1
 42
1.0
 92
        8
 66
     7
 43
1.0
 76
     1
 77
     6
 78
     2
 67
     7
 79
     3
170
     0
171
     0
290
     0
174
     0
 93
       13
 44
0.0
173
     0
291
     0
 45
0.0
1001
ACAD
1000
AcDbSavedByObjectVersion
1070
     0
  0
DICTIONARYVAR
  5
36B
102
{ACAD_REACTORS
330
2AA
102
}
330
2AA
100
DictionaryVariables
280
     0
  1
1:1
  0
DICTIONARYVAR
  5
369
102
{ACAD_REACTORS
330
2AA
102
}
330
2AA
100
DictionaryVariables
280
     0
  1
STANDARD
  0
DICTIONARYVAR
  5
312
102
{ACAD_REACTORS
330
2AA
102
}
330
2AA
100
DictionaryVariables
280
     0
  1
STANDARD
  0
DICTIONARYVAR
  5
2AB
102
{ACAD_REACTORS
330
2AA
102
}
330
2AA
100
DictionaryVariables
280
     0
  1
2
  0
DICTIONARYVAR
  5
AC6
102
{ACAD_REACTORS
330
2AA
102
}
330
2AA
100
DictionaryVariables
280
     0
  1
0
  0
DICTIONARYVAR
  5
314
102
{ACAD_REACTORS
330
2AA
102
}
330
2AA
100
DictionaryVariables
280
     0
  1
0
  0
DICTIONARYVAR
  5
36C
102
{ACAD_REACTORS
330
2AA
102
}
330
2AA
100
DictionaryVariables
280
     0
  1
0
  0
DICTIONARYVAR
  5
36A
102
{ACAD_REACTORS
330
2AA
102
}
330
2AA
100
DictionaryVariables
280
     0
  1
0
  0
DICTIONARYVAR
  5
313
102
{ACAD_REACTORS
330
2AA
102
}
330
2AA
100
DictionaryVariables
280
     0
  1
97
  0
DICTIONARYVAR
  5
BBB
102
{ACAD_REACTORS
330
2AA
102
}
330
2AA
100
DictionaryVariables
280
     0
  1
2
  0
XRECORD
  5
B5D
102
{ACAD_REACTORS
330
B5B
102
}
330
B5B
100
AcDbXrecord
280
     1
330
8D9
  0
XRECORD
  5
51
102
{ACAD_REACTORS
330
50
102
}
330
50
100
AcDbXrecord
280
     1
 91
        0
  0
ACAD_PROXY_OBJECT
  5
6DA
102
{ACAD_REACTORS
330
6D9
102
}
330
6D9
100
AcDbProxyObject
 90
      499
 91
      512
 95
   983063
 70
     0
 93
       88
310
4050844454641554C5400E00
 94
        0
1001
ACAD
1000
AcRTDxfName
1000
ACDBQSCATEGORY
  0
ACAD_PROXY_OBJECT
  5
759
102
{ACAD_XDICTIONARY
360
75A
102
}
102
{ACAD_REACTORS
330
758
102
}
330
758
100
AcDbProxyObject
 90
      499
 91
      514
 95
   983063
 70
     0
 93
     1995
310
4090844454641554C5400A0AA09EA65C00842222A320AAA62A005480A0355520280A0480D480A0280A030000000000000288000000000000011202048600812180483A1A7A224A1A28022A88929A8A9CA6929E9C92BE88929A625A88929A640099A89D2E28A9AFA922AA22AE20A6A124A2A72A24AE20AAAA27A1A0A22E2A27
310
A82FA224A2A92922AF98992E2A20A11817222BA38026EA274B8A2A6BEA48AA88AB8829A84928A9CA892B882AAA89E868288B8A89EA0BE88928AA4A48ABE6264B8A89EA0BEA08298985C88AE8E0080A02000000000000192020E869E8892868A00862222A9A1A924AD24A7A7228040000000000001A20520280A03F
 94
        0
1001
ACAD
1000
AcRTDxfName
1000
ACDBQSPALLSTYLE
  0
XRECORD
  5
B59
102
{ACAD_REACTORS
330
B56
102
}
330
B56
100
AcDbXrecord
280
     1
  9
X0f48
  0
XRECORD
  5
B57
102
{ACAD_REACTORS
330
B56
102
}
330
B56
100
AcDbXrecord
280
     1
  2
CURSORE ZINCATO 13x6x81 CON 
  3
P-0000
280
     2
310
6465736372697A696F6E6500435552534F5245205A494E4341544F203133783678383120434F4E2000444154410032322F31302F303900554D004E520052455600300044495345474E41544F5245004D2E43617075616E6F005343414C4100313A31002E666D740034005343414C414400312E303030303030004445534352495A494F4E4532004EB0322046494C4554544920494E204D38005452415454414D454E5449005A494E434154555241204249414E43410046494C450050524F41433230302D30002E544F505F545245455F4C424C505250003030303030303235353030310044495345474E4F0032362E3230302E303000636F64696365003236
311
2E3230302E3030004D4154455249414C45004143434941494F0051544100310000
 10
0.0
 20
0.0
 30
0.0
  0
XRECORD
  5
B58
102
{ACAD_REACTORS
330
B56
102
}
330
B56
100
AcDbXrecord
280
     1
  2
.cart
  3
P-76EC
  6
X0f48
280
     1
310
6465736372697A696F6E65002E6361727400444154410032322F31302F30390064697365676E61746F7265004D2E43617075616E6F00717461003100554D004E52005245560030005343414C4100313A310000
 10
0.0
 20
0.0
 30
0.0
  0
XRECORD
  5
6E1
102
{ACAD_REACTORS
330
6E0
102
}
330
6E0
100
AcDbXrecord
280
     1
 90
      202
 91
      144
  0
BLOCKLINEARPARAMETER
  5
761
330
760
100
AcDbEvalExpr
 90
        1
 98
       29
 99
       37
100
AcDbBlockElement
300
Lineare
 98
       25
 99
      104
1071
       32
100
AcDbBlockParameter
280
     1
281
     0
100
AcDbBlock2PtParameter
1010
-105.0
1020
-148.5
1030
0.0
1011
105.0
1021
-148.5
1031
0.0
170
     4
 91
        5
 91
        2
 91
        0
 91
        0
171
     1
 92
        5
301
DisplacementX
172
     1
 93
        5
302
DisplacementY
173
     1
 94
        2
303
DisplacementX
174
     1
 95
        2
304
DisplacementY
177
     0
100
AcDbBlockLinearParameter
305
LARGHEZZA
306

140
-23.0318749137964
307

 96
        5
141
210.0
142
0.0
143
210.0
175
    10
144
210.0
144
420.0
144
630.0
144
840.0
144
1050.0
144
1260.0
144
1470.0
144
1680.0
144
1890.0
144
2100.0
  0
BLOCKLINEARGRIP
  5
762
330
760
100
AcDbEvalExpr
 90
        2
 98
       29
 99
       37
100
AcDbBlockElement
300
Grip finale
 98
       25
 99
      104
1071
        0
100
AcDbBlockGrip
 91
        3
 92
        4
1010
105.0
1020
-148.5
1030
0.0
280
     1
 93
       -1
100
AcDbBlockLinearGrip
140
210.0
141
0.0
142
0.0
  0
BLOCKGRIPLOCATIONCOMPONENT
  5
763
330
760
100
AcDbEvalExpr
 90
        3
 98
       29
 99
       37
  1

 70
    40
140
1.797693134862314E+99
100
AcDbBlockGripExpr
 91
        1
300
UpdatedEndX
  0
BLOCKGRIPLOCATIONCOMPONENT
  5
764
330
760
100
AcDbEvalExpr
 90
        4
 98
       29
 99
       37
  1

 70
    40
140
1.797693134862314E+99
100
AcDbBlockGripExpr
 91
        1
300
UpdatedEndY
  0
BLOCKLINEARGRIP
  5
765
330
760
100
AcDbEvalExpr
 90
        5
 98
       29
 99
       37
100
AcDbBlockElement
300
Grip base
 98
       25
 99
      104
1071
        0
100
AcDbBlockGrip
 91
        6
 92
        7
1010
-105.0
1020
-148.5
1030
0.0
280
     1
 93
       -1
100
AcDbBlockLinearGrip
140
-210.0
141
0.0
142
0.0
  0
BLOCKGRIPLOCATIONCOMPONENT
  5
766
330
760
100
AcDbEvalExpr
 90
        6
 98
       29
 99
       37
  1

 70
    40
140
0.0
100
AcDbBlockGripExpr
 91
        1
300
UpdatedBaseX
  0
BLOCKGRIPLOCATIONCOMPONENT
  5
767
330
760
100
AcDbEvalExpr
 90
        7
 98
       29
 99
       37
  1

 70
    40
140
0.0
100
AcDbBlockGripExpr
 91
        1
300
UpdatedBaseY
  0
BLOCKSTRETCHACTION
  5
768
330
760
100
AcDbEvalExpr
 90
       15
 98
       29
 99
       37
100
AcDbBlockElement
300
Stira
 98
       25
 99
      104
1071
        0
100
AcDbBlockAction
 70
     0
 71
     7
330
765
330
771
330
770
330
76F
330
76D
330
76C
330
76B
1010
-61.75654902716178
1020
-193.6663454734983
1030
0.0
100
AcDbBlockStretchAction
 92
        1
301
BaseXDelta
 93
        1
302
BaseYDelta
 72
     2
1011
-73.07864493751594
1021
-186.7050762843088
1011
-120.1088892796135
1021
164.8390277363105
 73
     6
331
76B
 74
     1
 94
        1
331
76C
 74
     2
 94
        0
 94
        1
331
76D
 74
     1
 94
        0
331
76F
 74
     1
 94
        1
331
770
 74
     2
 94
        0
 94
        1
331
771
 74
     1
 94
        0
 75
     0
140
1.0
141
0.0
280
     0
  0
ACDB_BLOCKREPRESENTATION_DATA
  5
8DC
102
{ACAD_REACTORS
330
8DB
102
}
330
8DB
100
AcDbBlockRepresentationData
 70
     1
340
75E
  0
DICTIONARY
  5
8DD
102
{ACAD_REACTORS
330
8DB
102
}
330
8DB
100
AcDbDictionary
280
     1
281
     1
  3
ACAD_ENHANCEDBLOCKDATA
360
8DE
  0
DICTIONARY
  5
BC3
330
48
100
AcDbDictionary
280
     1
281
     1
  3
ACAD_XREC_ROUNDTRIP
360
BC4
  0
DICTIONARY
  5
BC1
330
47
100
AcDbDictionary
280
     1
281
     1
  3
ACAD_XREC_ROUNDTRIP
360
BC2
  0
DICTIONARY
  5
BC7
330
2B2
100
AcDbDictionary
280
     1
281
     1
  3
ACAD_XREC_ROUNDTRIP
360
BC8
  0
DICTIONARY
  5
BC5
330
2B1
100
AcDbDictionary
280
     1
281
     1
  3
ACAD_XREC_ROUNDTRIP
360
BC6
  0
DICTIONARY
  5
BC9
330
2B3
100
AcDbDictionary
280
     1
281
     1
  3
ACAD_XREC_ROUNDTRIP
360
BCA
  0
DICTIONARY
  5
BF6
330
B45
100
AcDbDictionary
280
     1
281
     1
  3
ACAD_XREC_ROUNDTRIP
360
BF7
  0
DICTIONARY
  5
BF8
330
B46
100
AcDbDictionary
280
     1
281
     1
  3
ACAD_XREC_ROUNDTRIP
360
BF9
  0
DICTIONARY
  5
BFA
330
B47
100
AcDbDictionary
280
     1
281
     1
  3
ACAD_XREC_ROUNDTRIP
360
BFB
  0
DICTIONARY
  5
BFC
330
B48
100
AcDbDictionary
280
     1
281
     1
  3
ACAD_XREC_ROUNDTRIP
360
BFD
  0
DICTIONARY
  5
BFE
330
B49
100
AcDbDictionary
280
     1
281
     1
  3
ACAD_XREC_ROUNDTRIP
360
BFF
  0
DICTIONARY
  5
366
330
31A
100
AcDbDictionary
280
     1
281
     1
  3
ACAD_ROUNDTRIP_2008_TABLESTYLE_CELLSTYLEMAP
360
BBE
  3
ACAD_XREC_ROUNDTRIP
360
BED
  0
DICTIONARY
  5
364
330
2CC
100
AcDbDictionary
280
     1
281
     1
  3
ACAD_ROUNDTRIP_2008_TABLESTYLE_CELLSTYLEMAP
360
BBD
  3
ACAD_XREC_ROUNDTRIP
360
BEC
  0
DICTIONARY
  5
362
330
2C7
100
AcDbDictionary
280
     1
281
     1
  3
ACAD_ROUNDTRIP_2008_TABLESTYLE_CELLSTYLEMAP
360
BBC
  3
ACAD_XREC_ROUNDTRIP
360
BEB
  0
DICTIONARY
  5
BD5
330
2BA
100
AcDbDictionary
280
     1
281
     1
  3
ACAD_XREC_ROUNDTRIP
360
BD6
  0
DICTIONARY
  5
BD9
330
2BC
100
AcDbDictionary
280
     1
281
     1
  3
ACAD_XREC_ROUNDTRIP
360
BDA
  0
DICTIONARY
  5
BD7
330
2BB
100
AcDbDictionary
280
     1
281
     1
  3
ACAD_XREC_ROUNDTRIP
360
BD8
  0
DICTIONARY
  5
BD3
330
2B9
100
AcDbDictionary
280
     1
281
     1
  3
ACAD_XREC_ROUNDTRIP
360
BD4
  0
DICTIONARY
  5
BE1
330
2C0
100
AcDbDictionary
280
     1
281
     1
  3
ACAD_XREC_ROUNDTRIP
360
BE2
  0
DICTIONARY
  5
BE9
330
2C4
100
AcDbDictionary
280
     1
281
     1
  3
ACAD_XREC_ROUNDTRIP
360
BEA
  0
DICTIONARY
  5
BDB
330
2BD
100
AcDbDictionary
280
     1
281
     1
  3
ACAD_XREC_ROUNDTRIP
360
BDC
  0
DICTIONARY
  5
BDF
330
2BF
100
AcDbDictionary
280
     1
281
     1
  3
ACAD_XREC_ROUNDTRIP
360
BE0
  0
DICTIONARY
  5
BF2
330
AED
100
AcDbDictionary
280
     1
281
     1
  3
ACAD_XREC_ROUNDTRIP
360
BF3
  0
DICTIONARY
  5
BE7
330
2C3
100
AcDbDictionary
280
     1
281
     1
  3
ACAD_XREC_ROUNDTRIP
360
BE8
  0
DICTIONARY
  5
BCB
330
2B5
100
AcDbDictionary
280
     1
281
     1
  3
ACAD_XREC_ROUNDTRIP
360
BCC
  0
DICTIONARY
  5
BCD
330
2B6
100
AcDbDictionary
280
     1
281
     1
  3
ACAD_XREC_ROUNDTRIP
360
BCE
  0
DICTIONARY
  5
BCF
330
2B7
100
AcDbDictionary
280
     1
281
     1
  3
ACAD_XREC_ROUNDTRIP
360
BD0
  0
DICTIONARY
  5
BD1
330
2B8
100
AcDbDictionary
280
     1
281
     1
  3
ACAD_XREC_ROUNDTRIP
360
BD2
  0
DICTIONARY
  5
C04
330
BA8
100
AcDbDictionary
280
     1
281
     1
  3
ACAD_XREC_ROUNDTRIP
360
C05
  0
DICTIONARY
  5
BEE
330
AEB
100
AcDbDictionary
280
     1
281
     1
  3
ACAD_XREC_ROUNDTRIP
360
BEF
  0
DICTIONARY
  5
BE5
330
2C2
100
AcDbDictionary
280
     1
281
     1
  3
ACAD_XREC_ROUNDTRIP
360
BE6
  0
DICTIONARY
  5
BF0
330
AEC
100
AcDbDictionary
280
     1
281
     1
  3
ACAD_XREC_ROUNDTRIP
360
BF1
  0
DICTIONARY
  5
BDD
330
2BE
100
AcDbDictionary
280
     1
281
     1
  3
ACAD_XREC_ROUNDTRIP
360
BDE
  0
DICTIONARY
  5
C0E
330
BAD
100
AcDbDictionary
280
     1
281
     1
  3
ACAD_XREC_ROUNDTRIP
360
C0F
  0
DICTIONARY
  5
C0C
330
BAC
100
AcDbDictionary
280
     1
281
     1
  3
ACAD_XREC_ROUNDTRIP
360
C0D
  0
DICTIONARY
  5
C06
330
BA9
100
AcDbDictionary
280
     1
281
     1
  3
ACAD_XREC_ROUNDTRIP
360
C07
  0
DICTIONARY
  5
C08
330
BAA
100
AcDbDictionary
280
     1
281
     1
  3
ACAD_XREC_ROUNDTRIP
360
C09
  0
DICTIONARY
  5
BE3
330
2C1
100
AcDbDictionary
280
     1
281
     1
  3
ACAD_XREC_ROUNDTRIP
360
BE4
  0
DICTIONARY
  5
C02
330
BA7
100
AcDbDictionary
280
     1
281
     1
  3
ACAD_XREC_ROUNDTRIP
360
C03
  0
DICTIONARY
  5
C0A
330
BAB
100
AcDbDictionary
280
     1
281
     1
  3
ACAD_XREC_ROUNDTRIP
360
C0B
  0
DICTIONARY
  5
75A
330
759
100
AcDbDictionary
280
     1
281
     1
  3
XTRA_PROP
360
75B
  0
DICTIONARY
  5
8DE
102
{ACAD_REACTORS
330
8DD
102
}
330
8DD
100
AcDbDictionary
280
     1
281
     1
  3
1
360
8DF
  3
15
360
8E0
  0
XRECORD
  5
BC4
102
{ACAD_REACTORS
330
BC3
102
}
330
BC3
100
AcDbXrecord
280
     1
102
SHADEPLOT
 70
     0
102
SHADEPLOTRESLEVEL
 70
     2
102
SHADEPLOTCUSTOMDPI
 70
   300
  0
XRECORD
  5
BC2
102
{ACAD_REACTORS
330
BC1
102
}
330
BC1
100
AcDbXrecord
280
     1
102
SHADEPLOT
 70
     0
102
SHADEPLOTRESLEVEL
 70
     2
102
SHADEPLOTCUSTOMDPI
 70
   300
  0
XRECORD
  5
BC8
102
{ACAD_REACTORS
330
BC7
102
}
330
BC7
100
AcDbXrecord
280
     1
102
MATERIAL
148
0.0
149
0.0
149
0.0
 93
        0
 94
       63
282
     0
 72
     1
 77
     1
171
     1
175
     1
179
     1
273
     0
  0
XRECORD
  5
BC6
102
{ACAD_REACTORS
330
BC5
102
}
330
BC5
100
AcDbXrecord
280
     1
102
MATERIAL
148
0.0
149
0.0
149
0.0
 93
        0
 94
       63
282
     0
 72
     1
 77
     1
171
     1
175
     1
179
     1
273
     0
  0
XRECORD
  5
BCA
102
{ACAD_REACTORS
330
BC9
102
}
330
BC9
100
AcDbXrecord
280
     1
102
MATERIAL
148
0.0
149
0.0
149
0.0
 93
        0
 94
       63
282
     0
 72
     1
 77
     1
171
     1
175
     1
179
     1
273
     0
  0
XRECORD
  5
BF7
102
{ACAD_REACTORS
330
BF6
102
}
330
BF6
100
AcDbXrecord
280
     1
102
SHADEPLOT
 70
     0
102
SHADEPLOTRESLEVEL
 70
     2
102
SHADEPLOTCUSTOMDPI
 70
   300
  0
XRECORD
  5
BF9
102
{ACAD_REACTORS
330
BF8
102
}
330
BF8
100
AcDbXrecord
280
     1
102
SHADEPLOT
 70
     0
102
SHADEPLOTRESLEVEL
 70
     2
102
SHADEPLOTCUSTOMDPI
 70
   300
  0
XRECORD
  5
BFB
102
{ACAD_REACTORS
330
BFA
102
}
330
BFA
100
AcDbXrecord
280
     1
102
SHADEPLOT
 70
     0
102
SHADEPLOTRESLEVEL
 70
     2
102
SHADEPLOTCUSTOMDPI
 70
   300
  0
XRECORD
  5
BFD
102
{ACAD_REACTORS
330
BFC
102
}
330
BFC
100
AcDbXrecord
280
     1
102
SHADEPLOT
 70
     0
102
SHADEPLOTRESLEVEL
 70
     2
102
SHADEPLOTCUSTOMDPI
 70
   300
  0
XRECORD
  5
BFF
102
{ACAD_REACTORS
330
BFE
102
}
330
BFE
100
AcDbXrecord
280
     1
102
SHADEPLOT
 70
     0
102
SHADEPLOTRESLEVEL
 70
     2
102
SHADEPLOTCUSTOMDPI
 70
   300
  0
CELLSTYLEMAP
  5
BBE
102
{ACAD_REACTORS
330
366
102
}
330
366
100
AcDbCellStyleMap
 90
        3
300
CELLSTYLE
  1
TABLEFORMAT_BEGIN
 90
        5
170
     1
 91
        0
 92
    32768
 62
   257
 93
        1
300
CONTENTFORMAT
  1
CONTENTFORMAT_BEGIN
 90
        0
 91
        0
 92
      512
 93
        0
300

 40
0.0
140
1.0
 94
        5
 62
     1
340
1B
144
6.0
309
CONTENTFORMAT_END
171
     1
301
MARGIN
  1
CELLMARGIN_BEGIN
 40
1.5
 40
1.5
 40
1.5
 40
1.5
 40
0.18
 40
0.18
309
CELLMARGIN_END
 94
        6
 95
        1
302
GRIDFORMAT
  1
GRIDFORMAT_BEGIN
 90
        0
 91
        1
 62
     0
 92
       -2
340
0
 93
        0
 40
0.045
309
GRIDFORMAT_END
 95
        2
302
GRIDFORMAT
  1
GRIDFORMAT_BEGIN
 90
        0
 91
        1
 62
     0
 92
       -2
340
0
 93
        0
 40
0.045
309
GRIDFORMAT_END
 95
        4
302
GRIDFORMAT
  1
GRIDFORMAT_BEGIN
 90
        0
 91
        1
 62
     0
 92
       -2
340
0
 93
        0
 40
0.045
309
GRIDFORMAT_END
 95
        8
302
GRIDFORMAT
  1
GRIDFORMAT_BEGIN
 90
        0
 91
        1
 62
     0
 92
       -2
340
0
 93
        0
 40
0.045
309
GRIDFORMAT_END
 95
       16
302
GRIDFORMAT
  1
GRIDFORMAT_BEGIN
 90
        0
 91
        1
 62
     0
 92
       -2
340
0
 93
        0
 40
0.045
309
GRIDFORMAT_END
 95
       32
302
GRIDFORMAT
  1
GRIDFORMAT_BEGIN
 90
        0
 91
        1
 62
     0
 92
       -2
340
0
 93
        0
 40
0.045
309
GRIDFORMAT_END
309
TABLEFORMAT_END
  1
CELLSTYLE_BEGIN
 90
        1
 91
        1
300
_TITLE
309
CELLSTYLE_END
300
CELLSTYLE
  1
TABLEFORMAT_BEGIN
 90
        5
170
     1
 91
        0
 92
        0
 62
   257
 93
        1
300
CONTENTFORMAT
  1
CONTENTFORMAT_BEGIN
 90
        0
 91
        0
 92
      512
 93
        0
300

 40
0.0
140
1.0
 94
        5
 62
     3
340
1B
144
3.5
309
CONTENTFORMAT_END
171
     1
301
MARGIN
  1
CELLMARGIN_BEGIN
 40
1.5
 40
1.5
 40
1.5
 40
1.5
 40
0.18
 40
0.18
309
CELLMARGIN_END
 94
        6
 95
        1
302
GRIDFORMAT
  1
GRIDFORMAT_BEGIN
 90
        0
 91
        1
 62
     0
 92
       -2
340
0
 93
        0
 40
0.045
309
GRIDFORMAT_END
 95
        2
302
GRIDFORMAT
  1
GRIDFORMAT_BEGIN
 90
        0
 91
        1
 62
     0
 92
       -2
340
0
 93
        0
 40
0.045
309
GRIDFORMAT_END
 95
        4
302
GRIDFORMAT
  1
GRIDFORMAT_BEGIN
 90
        0
 91
        1
 62
     0
 92
       -2
340
0
 93
        0
 40
0.045
309
GRIDFORMAT_END
 95
        8
302
GRIDFORMAT
  1
GRIDFORMAT_BEGIN
 90
        0
 91
        1
 62
     0
 92
       -2
340
0
 93
        0
 40
0.045
309
GRIDFORMAT_END
 95
       16
302
GRIDFORMAT
  1
GRIDFORMAT_BEGIN
 90
        0
 91
        1
 62
     0
 92
       -2
340
0
 93
        0
 40
0.045
309
GRIDFORMAT_END
 95
       32
302
GRIDFORMAT
  1
GRIDFORMAT_BEGIN
 90
        0
 91
        1
 62
     0
 92
       -2
340
0
 93
        0
 40
0.045
309
GRIDFORMAT_END
309
TABLEFORMAT_END
  1
CELLSTYLE_BEGIN
 90
        2
 91
        1
300
_HEADER
309
CELLSTYLE_END
300
CELLSTYLE
  1
TABLEFORMAT_BEGIN
 90
        5
170
     1
 91
        0
 92
        0
 62
   257
 93
        1
300
CONTENTFORMAT
  1
CONTENTFORMAT_BEGIN
 90
        0
 91
        0
 92
      512
 93
        0
300

 40
0.0
140
1.0
 94
        5
 62
     7
340
1B
144
3.0
309
CONTENTFORMAT_END
171
     1
301
MARGIN
  1
CELLMARGIN_BEGIN
 40
1.5
 40
1.5
 40
1.5
 40
1.5
 40
0.18
 40
0.18
309
CELLMARGIN_END
 94
        6
 95
        1
302
GRIDFORMAT
  1
GRIDFORMAT_BEGIN
 90
        0
 91
        1
 62
     0
 92
       -2
340
0
 93
        0
 40
0.045
309
GRIDFORMAT_END
 95
        2
302
GRIDFORMAT
  1
GRIDFORMAT_BEGIN
 90
        0
 91
        1
 62
     0
 92
       -2
340
0
 93
        0
 40
0.045
309
GRIDFORMAT_END
 95
        4
302
GRIDFORMAT
  1
GRIDFORMAT_BEGIN
 90
        0
 91
        1
 62
     0
 92
       -2
340
0
 93
        0
 40
0.045
309
GRIDFORMAT_END
 95
        8
302
GRIDFORMAT
  1
GRIDFORMAT_BEGIN
 90
        0
 91
        1
 62
     0
 92
       -2
340
0
 93
        0
 40
0.045
309
GRIDFORMAT_END
 95
       16
302
GRIDFORMAT
  1
GRIDFORMAT_BEGIN
 90
        0
 91
        1
 62
     0
 92
       -2
340
0
 93
        0
 40
0.045
309
GRIDFORMAT_END
 95
       32
302
GRIDFORMAT
  1
GRIDFORMAT_BEGIN
 90
        0
 91
        1
 62
     0
 92
       -2
340
0
 93
        0
 40
0.045
309
GRIDFORMAT_END
309
TABLEFORMAT_END
  1
CELLSTYLE_BEGIN
 90
        3
 91
        2
300
_DATA
309
CELLSTYLE_END
  0
XRECORD
  5
BED
102
{ACAD_REACTORS
330
366
102
}
330
366
100
AcDbXrecord
280
     1
102
ACAD_ROUNDTRIP_PRE2007_TABLESTYLE
 90
      512
 91
        0
  1

 92
      512
 93
        0
  2

 94
      512
 95
        0
  3

  0
CELLSTYLEMAP
  5
BBD
102
{ACAD_REACTORS
330
364
102
}
330
364
100
AcDbCellStyleMap
 90
        3
300
CELLSTYLE
  1
TABLEFORMAT_BEGIN
 90
        5
170
     1
 91
        0
 92
    32768
 62
   257
 93
        1
300
CONTENTFORMAT
  1
CONTENTFORMAT_BEGIN
 90
        0
 91
        0
 92
      512
 93
        0
300

 40
0.0
140
1.0
 94
        5
 62
     1
340
1B
144
6.0
309
CONTENTFORMAT_END
171
     1
301
MARGIN
  1
CELLMARGIN_BEGIN
 40
1.5
 40
1.5
 40
1.5
 40
1.5
 40
0.18
 40
0.18
309
CELLMARGIN_END
 94
        6
 95
        1
302
GRIDFORMAT
  1
GRIDFORMAT_BEGIN
 90
        0
 91
        1
 62
     0
 92
       -2
340
0
 93
        0
 40
0.045
309
GRIDFORMAT_END
 95
        2
302
GRIDFORMAT
  1
GRIDFORMAT_BEGIN
 90
        0
 91
        1
 62
     0
 92
       -2
340
0
 93
        0
 40
0.045
309
GRIDFORMAT_END
 95
        4
302
GRIDFORMAT
  1
GRIDFORMAT_BEGIN
 90
        0
 91
        1
 62
     0
 92
       -2
340
0
 93
        0
 40
0.045
309
GRIDFORMAT_END
 95
        8
302
GRIDFORMAT
  1
GRIDFORMAT_BEGIN
 90
        0
 91
        1
 62
     0
 92
       -2
340
0
 93
        0
 40
0.045
309
GRIDFORMAT_END
 95
       16
302
GRIDFORMAT
  1
GRIDFORMAT_BEGIN
 90
        0
 91
        1
 62
     0
 92
       -2
340
0
 93
        0
 40
0.045
309
GRIDFORMAT_END
 95
       32
302
GRIDFORMAT
  1
GRIDFORMAT_BEGIN
 90
        0
 91
        1
 62
     0
 92
       -2
340
0
 93
        0
 40
0.045
309
GRIDFORMAT_END
309
TABLEFORMAT_END
  1
CELLSTYLE_BEGIN
 90
        1
 91
        1
300
_TITLE
309
CELLSTYLE_END
300
CELLSTYLE
  1
TABLEFORMAT_BEGIN
 90
        5
170
     1
 91
        0
 92
        0
 62
   257
 93
        1
300
CONTENTFORMAT
  1
CONTENTFORMAT_BEGIN
 90
        0
 91
        0
 92
      512
 93
        0
300

 40
0.0
140
1.0
 94
        5
 62
     3
340
1B
144
5.0
309
CONTENTFORMAT_END
171
     1
301
MARGIN
  1
CELLMARGIN_BEGIN
 40
1.5
 40
1.5
 40
1.5
 40
1.5
 40
0.18
 40
0.18
309
CELLMARGIN_END
 94
        6
 95
        1
302
GRIDFORMAT
  1
GRIDFORMAT_BEGIN
 90
        0
 91
        1
 62
     0
 92
       -2
340
0
 93
        0
 40
0.045
309
GRIDFORMAT_END
 95
        2
302
GRIDFORMAT
  1
GRIDFORMAT_BEGIN
 90
        0
 91
        1
 62
     0
 92
       -2
340
0
 93
        0
 40
0.045
309
GRIDFORMAT_END
 95
        4
302
GRIDFORMAT
  1
GRIDFORMAT_BEGIN
 90
        0
 91
        1
 62
     0
 92
       -2
340
0
 93
        0
 40
0.045
309
GRIDFORMAT_END
 95
        8
302
GRIDFORMAT
  1
GRIDFORMAT_BEGIN
 90
        0
 91
        1
 62
     0
 92
       -2
340
0
 93
        0
 40
0.045
309
GRIDFORMAT_END
 95
       16
302
GRIDFORMAT
  1
GRIDFORMAT_BEGIN
 90
        0
 91
        1
 62
     0
 92
       -2
340
0
 93
        0
 40
0.045
309
GRIDFORMAT_END
 95
       32
302
GRIDFORMAT
  1
GRIDFORMAT_BEGIN
 90
        0
 91
        1
 62
     0
 92
       -2
340
0
 93
        0
 40
0.045
309
GRIDFORMAT_END
309
TABLEFORMAT_END
  1
CELLSTYLE_BEGIN
 90
        2
 91
        1
300
_HEADER
309
CELLSTYLE_END
300
CELLSTYLE
  1
TABLEFORMAT_BEGIN
 90
        5
170
     1
 91
        0
 92
        0
 62
   257
 93
        1
300
CONTENTFORMAT
  1
CONTENTFORMAT_BEGIN
 90
        0
 91
        0
 92
      512
 93
        0
300

 40
0.0
140
1.0
 94
        5
 62
     7
340
1B
144
4.5
309
CONTENTFORMAT_END
171
     1
301
MARGIN
  1
CELLMARGIN_BEGIN
 40
1.5
 40
1.5
 40
1.5
 40
1.5
 40
0.18
 40
0.18
309
CELLMARGIN_END
 94
        6
 95
        1
302
GRIDFORMAT
  1
GRIDFORMAT_BEGIN
 90
        0
 91
        1
 62
     0
 92
       -2
340
0
 93
        0
 40
0.045
309
GRIDFORMAT_END
 95
        2
302
GRIDFORMAT
  1
GRIDFORMAT_BEGIN
 90
        0
 91
        1
 62
     0
 92
       -2
340
0
 93
        0
 40
0.045
309
GRIDFORMAT_END
 95
        4
302
GRIDFORMAT
  1
GRIDFORMAT_BEGIN
 90
        0
 91
        1
 62
     0
 92
       -2
340
0
 93
        0
 40
0.045
309
GRIDFORMAT_END
 95
        8
302
GRIDFORMAT
  1
GRIDFORMAT_BEGIN
 90
        0
 91
        1
 62
     0
 92
       -2
340
0
 93
        0
 40
0.045
309
GRIDFORMAT_END
 95
       16
302
GRIDFORMAT
  1
GRIDFORMAT_BEGIN
 90
        0
 91
        1
 62
     0
 92
       -2
340
0
 93
        0
 40
0.045
309
GRIDFORMAT_END
 95
       32
302
GRIDFORMAT
  1
GRIDFORMAT_BEGIN
 90
        0
 91
        1
 62
     0
 92
       -2
340
0
 93
        0
 40
0.045
309
GRIDFORMAT_END
309
TABLEFORMAT_END
  1
CELLSTYLE_BEGIN
 90
        3
 91
        2
300
_DATA
309
CELLSTYLE_END
  0
XRECORD
  5
BEC
102
{ACAD_REACTORS
330
364
102
}
330
364
100
AcDbXrecord
280
     1
102
ACAD_ROUNDTRIP_PRE2007_TABLESTYLE
 90
      512
 91
        0
  1

 92
      512
 93
        0
  2

 94
      512
 95
        0
  3

  0
CELLSTYLEMAP
  5
BBC
102
{ACAD_REACTORS
330
362
102
}
330
362
100
AcDbCellStyleMap
 90
        3
300
CELLSTYLE
  1
TABLEFORMAT_BEGIN
 90
        5
170
     1
 91
        0
 92
    32768
 62
   257
 93
        1
300
CONTENTFORMAT
  1
CONTENTFORMAT_BEGIN
 90
        0
 91
        0
 92
      512
 93
        0
300

 40
0.0
140
1.0
 94
        5
 62
     0
340
C
144
6.0
309
CONTENTFORMAT_END
171
     1
301
MARGIN
  1
CELLMARGIN_BEGIN
 40
1.5
 40
1.5
 40
1.5
 40
1.5
 40
0.18
 40
0.18
309
CELLMARGIN_END
 94
        6
 95
        1
302
GRIDFORMAT
  1
GRIDFORMAT_BEGIN
 90
        0
 91
        1
 62
     0
 92
       -2
340
0
 93
        0
 40
0.045
309
GRIDFORMAT_END
 95
        2
302
GRIDFORMAT
  1
GRIDFORMAT_BEGIN
 90
        0
 91
        1
 62
     0
 92
       -2
340
0
 93
        0
 40
0.045
309
GRIDFORMAT_END
 95
        4
302
GRIDFORMAT
  1
GRIDFORMAT_BEGIN
 90
        0
 91
        1
 62
     0
 92
       -2
340
0
 93
        0
 40
0.045
309
GRIDFORMAT_END
 95
        8
302
GRIDFORMAT
  1
GRIDFORMAT_BEGIN
 90
        0
 91
        1
 62
     0
 92
       -2
340
0
 93
        0
 40
0.045
309
GRIDFORMAT_END
 95
       16
302
GRIDFORMAT
  1
GRIDFORMAT_BEGIN
 90
        0
 91
        1
 62
     0
 92
       -2
340
0
 93
        0
 40
0.045
309
GRIDFORMAT_END
 95
       32
302
GRIDFORMAT
  1
GRIDFORMAT_BEGIN
 90
        0
 91
        1
 62
     0
 92
       -2
340
0
 93
        0
 40
0.045
309
GRIDFORMAT_END
309
TABLEFORMAT_END
  1
CELLSTYLE_BEGIN
 90
        1
 91
        1
300
_TITLE
309
CELLSTYLE_END
300
CELLSTYLE
  1
TABLEFORMAT_BEGIN
 90
        5
170
     1
 91
        0
 92
        0
 62
   257
 93
        1
300
CONTENTFORMAT
  1
CONTENTFORMAT_BEGIN
 90
        0
 91
        0
 92
      512
 93
        0
300

 40
0.0
140
1.0
 94
        5
 62
     0
340
C
144
4.5
309
CONTENTFORMAT_END
171
     1
301
MARGIN
  1
CELLMARGIN_BEGIN
 40
1.5
 40
1.5
 40
1.5
 40
1.5
 40
0.18
 40
0.18
309
CELLMARGIN_END
 94
        6
 95
        1
302
GRIDFORMAT
  1
GRIDFORMAT_BEGIN
 90
        0
 91
        1
 62
     0
 92
       -2
340
0
 93
        0
 40
0.045
309
GRIDFORMAT_END
 95
        2
302
GRIDFORMAT
  1
GRIDFORMAT_BEGIN
 90
        0
 91
        1
 62
     0
 92
       -2
340
0
 93
        0
 40
0.045
309
GRIDFORMAT_END
 95
        4
302
GRIDFORMAT
  1
GRIDFORMAT_BEGIN
 90
        0
 91
        1
 62
     0
 92
       -2
340
0
 93
        0
 40
0.045
309
GRIDFORMAT_END
 95
        8
302
GRIDFORMAT
  1
GRIDFORMAT_BEGIN
 90
        0
 91
        1
 62
     0
 92
       -2
340
0
 93
        0
 40
0.045
309
GRIDFORMAT_END
 95
       16
302
GRIDFORMAT
  1
GRIDFORMAT_BEGIN
 90
        0
 91
        1
 62
     0
 92
       -2
340
0
 93
        0
 40
0.045
309
GRIDFORMAT_END
 95
       32
302
GRIDFORMAT
  1
GRIDFORMAT_BEGIN
 90
        0
 91
        1
 62
     0
 92
       -2
340
0
 93
        0
 40
0.045
309
GRIDFORMAT_END
309
TABLEFORMAT_END
  1
CELLSTYLE_BEGIN
 90
        2
 91
        1
300
_HEADER
309
CELLSTYLE_END
300
CELLSTYLE
  1
TABLEFORMAT_BEGIN
 90
        5
170
     1
 91
        0
 92
        0
 62
   257
 93
        1
300
CONTENTFORMAT
  1
CONTENTFORMAT_BEGIN
 90
        0
 91
        0
 92
      512
 93
        0
300

 40
0.0
140
1.0
 94
        2
 62
     0
340
C
144
4.5
309
CONTENTFORMAT_END
171
     1
301
MARGIN
  1
CELLMARGIN_BEGIN
 40
1.5
 40
1.5
 40
1.5
 40
1.5
 40
0.18
 40
0.18
309
CELLMARGIN_END
 94
        6
 95
        1
302
GRIDFORMAT
  1
GRIDFORMAT_BEGIN
 90
        0
 91
        1
 62
     0
 92
       -2
340
0
 93
        0
 40
0.045
309
GRIDFORMAT_END
 95
        2
302
GRIDFORMAT
  1
GRIDFORMAT_BEGIN
 90
        0
 91
        1
 62
     0
 92
       -2
340
0
 93
        0
 40
0.045
309
GRIDFORMAT_END
 95
        4
302
GRIDFORMAT
  1
GRIDFORMAT_BEGIN
 90
        0
 91
        1
 62
     0
 92
       -2
340
0
 93
        0
 40
0.045
309
GRIDFORMAT_END
 95
        8
302
GRIDFORMAT
  1
GRIDFORMAT_BEGIN
 90
        0
 91
        1
 62
     0
 92
       -2
340
0
 93
        0
 40
0.045
309
GRIDFORMAT_END
 95
       16
302
GRIDFORMAT
  1
GRIDFORMAT_BEGIN
 90
        0
 91
        1
 62
     0
 92
       -2
340
0
 93
        0
 40
0.045
309
GRIDFORMAT_END
 95
       32
302
GRIDFORMAT
  1
GRIDFORMAT_BEGIN
 90
        0
 91
        1
 62
     0
 92
       -2
340
0
 93
        0
 40
0.045
309
GRIDFORMAT_END
309
TABLEFORMAT_END
  1
CELLSTYLE_BEGIN
 90
        3
 91
        2
300
_DATA
309
CELLSTYLE_END
  0
XRECORD
  5
BEB
102
{ACAD_REACTORS
330
362
102
}
330
362
100
AcDbXrecord
280
     1
102
ACAD_ROUNDTRIP_PRE2007_TABLESTYLE
 90
      512
 91
        0
  1

 92
      512
 93
        0
  2

 94
      512
 95
        0
  3

  0
XRECORD
  5
BD6
102
{ACAD_REACTORS
330
BD5
102
}
330
BD5
100
AcDbXrecord
280
     1
102
RTVSPropertyOp0
 70
     1
102
RTVSPropertyOp1
 70
     1
102
RTVSPropertyOp2
 70
     1
102
RTVSPropertyOp3
 70
     1
102
RTVSPropertyOp4
 70
     1
102
RTVSPropertyOp5
 70
     1
102
RTVSPropertyOp6
 70
     1
102
RTVSPropertyOp7
 70
     1
102
RTVSPropertyOp8
 70
     1
102
RTVSPropertyOp9
 70
     1
102
RTVSPropertyOp10
 70
     1
102
RTVSPropertyOp11
 70
     1
102
RTVSPropertyOp12
 70
     1
102
RTVSPropertyOp13
 70
     1
102
RTVSPropertyOp14
 70
     1
102
RTVSPropertyOp15
 70
     1
102
RTVSPropertyOp16
 70
     1
102
RTVSPropertyOp17
 70
     1
102
RTVSPropertyOp18
 70
     1
102
RTVSPropertyOp19
 70
     1
102
RTVSPropertyOp20
 70
     1
102
RTVSPropertyOp21
 70
     1
102
RTVSPropertyOp22
 70
     1
102
RTVSPropertyOp23
 70
     1
102
RTVSPropertyOp24
 70
     1
102
RTVSPropertyOp25
 70
     1
102
RTVSPropertyOp26
 70
     1
102
RTVSPropertyOp27
 70
     1
102
RTVSPropertyOp28
 70
     1
102
RTVSPropertyOp29
 70
     1
102
RTVSPropertyOp30
 70
     1
102
RTVSPropertyOp31
 70
     1
102
RTVSPropertyOp32
 70
     1
  0
XRECORD
  5
BDA
102
{ACAD_REACTORS
330
BD9
102
}
330
BD9
100
AcDbXrecord
280
     1
102
RTVSPropertyOp0
 70
     1
102
RTVSPropertyOp1
 70
     1
102
RTVSPropertyOp2
 70
     1
102
RTVSPropertyOp3
 70
     1
102
RTVSPropertyOp4
 70
     1
102
RTVSPropertyOp5
 70
     1
102
RTVSPropertyOp6
 70
     1
102
RTVSPropertyOp7
 70
     1
102
RTVSPropertyOp8
 70
     1
102
RTVSPropertyOp9
 70
     1
102
RTVSPropertyOp10
 70
     1
102
RTVSPropertyOp11
 70
     1
102
RTVSPropertyOp12
 70
     1
102
RTVSPropertyOp13
 70
     1
102
RTVSPropertyOp14
 70
     1
102
RTVSPropertyOp15
 70
     1
102
RTVSPropertyOp16
 70
     1
102
RTVSPropertyOp17
 70
     1
102
RTVSPropertyOp18
 70
     1
102
RTVSPropertyOp19
 70
     1
102
RTVSPropertyOp20
 70
     1
102
RTVSPropertyOp21
 70
     1
102
RTVSPropertyOp22
 70
     1
102
RTVSPropertyOp23
 70
     1
102
RTVSPropertyOp24
 70
     1
102
RTVSPropertyOp25
 70
     1
102
RTVSPropertyOp26
 70
     1
102
RTVSPropertyOp27
 70
     1
102
RTVSPropertyOp28
 70
     1
102
RTVSPropertyOp29
 70
     1
102
RTVSPropertyOp30
 70
     1
102
RTVSPropertyOp31
 70
     1
102
RTVSPropertyOp32
 70
     1
  0
XRECORD
  5
BD8
102
{ACAD_REACTORS
330
BD7
102
}
330
BD7
100
AcDbXrecord
280
     1
102
RTVSPropertyOp0
 70
     1
102
RTVSPropertyOp1
 70
     1
102
RTVSPropertyOp2
 70
     1
102
RTVSPropertyOp3
 70
     1
102
RTVSPropertyOp4
 70
     1
102
RTVSPropertyOp5
 70
     1
102
RTVSPropertyOp6
 70
     1
102
RTVSPropertyOp7
 70
     1
102
RTVSPropertyOp8
 70
     1
102
RTVSPropertyOp9
 70
     1
102
RTVSPropertyOp10
 70
     1
102
RTVSPropertyOp11
 70
     1
102
RTVSPropertyOp12
 70
     1
102
RTVSPropertyOp13
 70
     1
102
RTVSPropertyOp14
 70
     1
102
RTVSPropertyOp15
 70
     1
102
RTVSPropertyOp16
 70
     1
102
RTVSPropertyOp17
 70
     1
102
RTVSPropertyOp18
 70
     1
102
RTVSPropertyOp19
 70
     1
102
RTVSPropertyOp20
 70
     1
102
RTVSPropertyOp21
 70
     1
102
RTVSPropertyOp22
 70
     1
102
RTVSPropertyOp23
 70
     1
102
RTVSPropertyOp24
 70
     1
102
RTVSPropertyOp25
 70
     1
102
RTVSPropertyOp26
 70
     1
102
RTVSPropertyOp27
 70
     1
102
RTVSPropertyOp28
 70
     1
102
RTVSPropertyOp29
 70
     1
102
RTVSPropertyOp30
 70
     1
102
RTVSPropertyOp31
 70
     1
102
RTVSPropertyOp32
 70
     1
  0
XRECORD
  5
BD4
102
{ACAD_REACTORS
330
BD3
102
}
330
BD3
100
AcDbXrecord
280
     1
102
RTVSPropertyOp0
 70
     1
102
RTVSPropertyOp1
 70
     1
102
RTVSPropertyOp2
 70
     1
102
RTVSPropertyOp3
 70
     1
102
RTVSPropertyOp4
 70
     1
102
RTVSPropertyOp5
 70
     1
102
RTVSPropertyOp6
 70
     1
102
RTVSPropertyOp7
 70
     1
102
RTVSPropertyOp8
 70
     1
102
RTVSPropertyOp9
 70
     1
102
RTVSPropertyOp10
 70
     1
102
RTVSPropertyOp11
 70
     1
102
RTVSPropertyOp12
 70
     1
102
RTVSPropertyOp13
 70
     1
102
RTVSPropertyOp14
 70
     1
102
RTVSPropertyOp15
 70
     1
102
RTVSPropertyOp16
 70
     1
102
RTVSPropertyOp17
 70
     1
102
RTVSPropertyOp18
 70
     1
102
RTVSPropertyOp19
 70
     1
102
RTVSPropertyOp20
 70
     1
102
RTVSPropertyOp21
 70
     1
102
RTVSPropertyOp22
 70
     1
102
RTVSPropertyOp23
 70
     1
102
RTVSPropertyOp24
 70
     1
102
RTVSPropertyOp25
 70
     1
102
RTVSPropertyOp26
 70
     1
102
RTVSPropertyOp27
 70
     1
102
RTVSPropertyOp28
 70
     1
102
RTVSPropertyOp29
 70
     1
102
RTVSPropertyOp30
 70
     1
102
RTVSPropertyOp31
 70
     1
102
RTVSPropertyOp32
 70
     1
  0
XRECORD
  5
BE2
102
{ACAD_REACTORS
330
BE1
102
}
330
BE1
100
AcDbXrecord
280
     1
102
RTVSPropertyOp0
 70
     1
102
RTVSPropertyOp1
 70
     1
102
RTVSPropertyOp2
 70
     1
102
RTVSPropertyOp3
 70
     1
102
RTVSPropertyOp4
 70
     1
102
RTVSPropertyOp5
 70
     1
102
RTVSPropertyOp6
 70
     1
102
RTVSPropertyOp7
 70
     1
102
RTVSPropertyOp8
 70
     1
102
RTVSPropertyOp9
 70
     1
102
RTVSPropertyOp10
 70
     1
102
RTVSPropertyOp11
 70
     1
102
RTVSPropertyOp12
 70
     1
102
RTVSPropertyOp13
 70
     1
102
RTVSPropertyOp14
 70
     1
102
RTVSPropertyOp15
 70
     1
102
RTVSPropertyOp16
 70
     1
102
RTVSPropertyOp17
 70
     1
102
RTVSPropertyOp18
 70
     1
102
RTVSPropertyOp19
 70
     1
102
RTVSPropertyOp20
 70
     1
102
RTVSPropertyOp21
 70
     1
102
RTVSPropertyOp22
 70
     1
102
RTVSPropertyOp23
 70
     1
102
RTVSPropertyOp24
 70
     1
102
RTVSPropertyOp25
 70
     1
102
RTVSPropertyOp26
 70
     1
102
RTVSPropertyOp27
 70
     1
102
RTVSPropertyOp28
 70
     1
102
RTVSPropertyOp29
 70
     1
102
RTVSPropertyOp30
 70
     1
102
RTVSPropertyOp31
 70
     1
102
RTVSPropertyOp32
 70
     1
  0
XRECORD
  5
BEA
102
{ACAD_REACTORS
330
BE9
102
}
330
BE9
100
AcDbXrecord
280
     1
102
RTVSPropertyOp0
 70
     1
102
RTVSPropertyOp1
 70
     1
102
RTVSPropertyOp2
 70
     1
102
RTVSPropertyOp3
 70
     1
102
RTVSPropertyOp4
 70
     1
102
RTVSPropertyOp5
 70
     1
102
RTVSPropertyOp6
 70
     1
102
RTVSPropertyOp7
 70
     1
102
RTVSPropertyOp8
 70
     1
102
RTVSPropertyOp9
 70
     1
102
RTVSPropertyOp10
 70
     1
102
RTVSPropertyOp11
 70
     1
102
RTVSPropertyOp12
 70
     1
102
RTVSPropertyOp13
 70
     1
102
RTVSPropertyOp14
 70
     1
102
RTVSPropertyOp15
 70
     1
102
RTVSPropertyOp16
 70
     1
102
RTVSPropertyOp17
 70
     1
102
RTVSPropertyOp18
 70
     1
102
RTVSPropertyOp19
 70
     1
102
RTVSPropertyOp20
 70
     1
102
RTVSPropertyOp21
 70
     1
102
RTVSPropertyOp22
 70
     1
102
RTVSPropertyOp23
 70
     1
102
RTVSPropertyOp24
 70
     1
102
RTVSPropertyOp25
 70
     1
102
RTVSPropertyOp26
 70
     1
102
RTVSPropertyOp27
 70
     1
102
RTVSPropertyOp28
 70
     1
102
RTVSPropertyOp29
 70
     1
102
RTVSPropertyOp30
 70
     1
102
RTVSPropertyOp31
 70
     1
102
RTVSPropertyOp32
 70
     1
  0
XRECORD
  5
BDC
102
{ACAD_REACTORS
330
BDB
102
}
330
BDB
100
AcDbXrecord
280
     1
102
RTVSPropertyOp0
 70
     1
102
RTVSPropertyOp1
 70
     1
102
RTVSPropertyOp2
 70
     1
102
RTVSPropertyOp3
 70
     1
102
RTVSPropertyOp4
 70
     1
102
RTVSPropertyOp5
 70
     1
102
RTVSPropertyOp6
 70
     1
102
RTVSPropertyOp7
 70
     1
102
RTVSPropertyOp8
 70
     1
102
RTVSPropertyOp9
 70
     1
102
RTVSPropertyOp10
 70
     1
102
RTVSPropertyOp11
 70
     1
102
RTVSPropertyOp12
 70
     1
102
RTVSPropertyOp13
 70
     1
102
RTVSPropertyOp14
 70
     1
102
RTVSPropertyOp15
 70
     1
102
RTVSPropertyOp16
 70
     1
102
RTVSPropertyOp17
 70
     1
102
RTVSPropertyOp18
 70
     1
102
RTVSPropertyOp19
 70
     1
102
RTVSPropertyOp20
 70
     1
102
RTVSPropertyOp21
 70
     1
102
RTVSPropertyOp22
 70
     1
102
RTVSPropertyOp23
 70
     1
102
RTVSPropertyOp24
 70
     1
102
RTVSPropertyOp25
 70
     1
102
RTVSPropertyOp26
 70
     1
102
RTVSPropertyOp27
 70
     1
102
RTVSPropertyOp28
 70
     1
102
RTVSPropertyOp29
 70
     1
102
RTVSPropertyOp30
 70
     1
102
RTVSPropertyOp31
 70
     1
102
RTVSPropertyOp32
 70
     1
  0
XRECORD
  5
BE0
102
{ACAD_REACTORS
330
BDF
102
}
330
BDF
100
AcDbXrecord
280
     1
102
RTVSPropertyOp0
 70
     1
102
RTVSPropertyOp1
 70
     1
102
RTVSPropertyOp2
 70
     1
102
RTVSPropertyOp3
 70
     1
102
RTVSPropertyOp4
 70
     1
102
RTVSPropertyOp5
 70
     1
102
RTVSPropertyOp6
 70
     1
102
RTVSPropertyOp7
 70
     1
102
RTVSPropertyOp8
 70
     1
102
RTVSPropertyOp9
 70
     1
102
RTVSPropertyOp10
 70
     1
102
RTVSPropertyOp11
 70
     1
102
RTVSPropertyOp12
 70
     1
102
RTVSPropertyOp13
 70
     1
102
RTVSPropertyOp14
 70
     1
102
RTVSPropertyOp15
 70
     1
102
RTVSPropertyOp16
 70
     1
102
RTVSPropertyOp17
 70
     1
102
RTVSPropertyOp18
 70
     1
102
RTVSPropertyOp19
 70
     1
102
RTVSPropertyOp20
 70
     1
102
RTVSPropertyOp21
 70
     1
102
RTVSPropertyOp22
 70
     1
102
RTVSPropertyOp23
 70
     1
102
RTVSPropertyOp24
 70
     1
102
RTVSPropertyOp25
 70
     1
102
RTVSPropertyOp26
 70
     1
102
RTVSPropertyOp27
 70
     1
102
RTVSPropertyOp28
 70
     1
102
RTVSPropertyOp29
 70
     1
102
RTVSPropertyOp30
 70
     1
102
RTVSPropertyOp31
 70
     1
102
RTVSPropertyOp32
 70
     1
  0
XRECORD
  5
BF3
102
{ACAD_REACTORS
330
BF2
102
}
330
BF2
100
AcDbXrecord
280
     1
102
RTVSPropertyOp0
 70
     0
102
RTVSPropertyOp1
 70
     0
102
RTVSPropertyOp2
 70
     0
102
RTVSPropertyOp3
 70
     0
102
RTVSPropertyOp4
 70
     0
102
RTVSPropertyOp5
 70
     0
102
RTVSPropertyOp6
 70
     0
102
RTVSPropertyOp7
 70
     0
102
RTVSPropertyOp8
 70
     0
102
RTVSPropertyOp9
 70
     0
102
RTVSPropertyOp10
 70
     0
102
RTVSPropertyOp11
 70
     0
102
RTVSPropertyOp12
 70
     0
102
RTVSPropertyOp13
 70
     0
102
RTVSPropertyOp14
 70
     2
102
RTVSPropertyOp15
 70
     0
102
RTVSPropertyOp16
 70
     0
102
RTVSPropertyOp17
 70
     0
102
RTVSPropertyOp18
 70
     0
102
RTVSPropertyOp19
 70
     0
102
RTVSPropertyOp20
 70
     0
102
RTVSPropertyOp21
 70
     0
102
RTVSPropertyOp22
 70
     0
102
RTVSPropertyOp23
 70
     0
102
RTVSPropertyOp24
 70
     0
102
RTVSPropertyOp25
 70
     0
102
RTVSPropertyOp26
 70
     0
102
RTVSPropertyOp27
 70
     0
102
RTVSPropertyOp28
 70
     1
102
RTVSPropertyOp29
 70
     1
102
RTVSPropertyOp30
 70
     1
102
RTVSPropertyOp31
 70
     1
102
RTVSPropertyOp32
 70
     1
  0
XRECORD
  5
BE8
102
{ACAD_REACTORS
330
BE7
102
}
330
BE7
100
AcDbXrecord
280
     1
102
RTVSPropertyOp0
 70
     1
102
RTVSPropertyOp1
 70
     1
102
RTVSPropertyOp2
 70
     1
102
RTVSPropertyOp3
 70
     1
102
RTVSPropertyOp4
 70
     1
102
RTVSPropertyOp5
 70
     1
102
RTVSPropertyOp6
 70
     1
102
RTVSPropertyOp7
 70
     1
102
RTVSPropertyOp8
 70
     1
102
RTVSPropertyOp9
 70
     1
102
RTVSPropertyOp10
 70
     1
102
RTVSPropertyOp11
 70
     1
102
RTVSPropertyOp12
 70
     1
102
RTVSPropertyOp13
 70
     1
102
RTVSPropertyOp14
 70
     1
102
RTVSPropertyOp15
 70
     1
102
RTVSPropertyOp16
 70
     1
102
RTVSPropertyOp17
 70
     1
102
RTVSPropertyOp18
 70
     1
102
RTVSPropertyOp19
 70
     1
102
RTVSPropertyOp20
 70
     1
102
RTVSPropertyOp21
 70
     1
102
RTVSPropertyOp22
 70
     1
102
RTVSPropertyOp23
 70
     1
102
RTVSPropertyOp24
 70
     1
102
RTVSPropertyOp25
 70
     1
102
RTVSPropertyOp26
 70
     1
102
RTVSPropertyOp27
 70
     1
102
RTVSPropertyOp28
 70
     1
102
RTVSPropertyOp29
 70
     1
102
RTVSPropertyOp30
 70
     1
102
RTVSPropertyOp31
 70
     1
102
RTVSPropertyOp32
 70
     1
  0
XRECORD
  5
BCC
102
{ACAD_REACTORS
330
BCB
102
}
330
BCB
100
AcDbXrecord
280
     1
102
RTVSPropertyOp0
 70
     1
102
RTVSPropertyOp1
 70
     1
102
RTVSPropertyOp2
 70
     1
102
RTVSPropertyOp3
 70
     1
102
RTVSPropertyOp4
 70
     1
102
RTVSPropertyOp5
 70
     1
102
RTVSPropertyOp6
 70
     1
102
RTVSPropertyOp7
 70
     1
102
RTVSPropertyOp8
 70
     1
102
RTVSPropertyOp9
 70
     1
102
RTVSPropertyOp10
 70
     1
102
RTVSPropertyOp11
 70
     1
102
RTVSPropertyOp12
 70
     1
102
RTVSPropertyOp13
 70
     1
102
RTVSPropertyOp14
 70
     1
102
RTVSPropertyOp15
 70
     1
102
RTVSPropertyOp16
 70
     1
102
RTVSPropertyOp17
 70
     1
102
RTVSPropertyOp18
 70
     1
102
RTVSPropertyOp19
 70
     1
102
RTVSPropertyOp20
 70
     1
102
RTVSPropertyOp21
 70
     1
102
RTVSPropertyOp22
 70
     1
102
RTVSPropertyOp23
 70
     1
102
RTVSPropertyOp24
 70
     1
102
RTVSPropertyOp25
 70
     1
102
RTVSPropertyOp26
 70
     1
102
RTVSPropertyOp27
 70
     1
102
RTVSPropertyOp28
 70
     1
102
RTVSPropertyOp29
 70
     1
102
RTVSPropertyOp30
 70
     1
102
RTVSPropertyOp31
 70
     1
102
RTVSPropertyOp32
 70
     1
  0
XRECORD
  5
BCE
102
{ACAD_REACTORS
330
BCD
102
}
330
BCD
100
AcDbXrecord
280
     1
102
RTVSPropertyOp0
 70
     1
102
RTVSPropertyOp1
 70
     1
102
RTVSPropertyOp2
 70
     1
102
RTVSPropertyOp3
 70
     1
102
RTVSPropertyOp4
 70
     1
102
RTVSPropertyOp5
 70
     1
102
RTVSPropertyOp6
 70
     1
102
RTVSPropertyOp7
 70
     1
102
RTVSPropertyOp8
 70
     1
102
RTVSPropertyOp9
 70
     1
102
RTVSPropertyOp10
 70
     1
102
RTVSPropertyOp11
 70
     1
102
RTVSPropertyOp12
 70
     1
102
RTVSPropertyOp13
 70
     1
102
RTVSPropertyOp14
 70
     1
102
RTVSPropertyOp15
 70
     1
102
RTVSPropertyOp16
 70
     1
102
RTVSPropertyOp17
 70
     1
102
RTVSPropertyOp18
 70
     1
102
RTVSPropertyOp19
 70
     1
102
RTVSPropertyOp20
 70
     1
102
RTVSPropertyOp21
 70
     1
102
RTVSPropertyOp22
 70
     1
102
RTVSPropertyOp23
 70
     1
102
RTVSPropertyOp24
 70
     1
102
RTVSPropertyOp25
 70
     1
102
RTVSPropertyOp26
 70
     1
102
RTVSPropertyOp27
 70
     1
102
RTVSPropertyOp28
 70
     1
102
RTVSPropertyOp29
 70
     1
102
RTVSPropertyOp30
 70
     1
102
RTVSPropertyOp31
 70
     1
102
RTVSPropertyOp32
 70
     1
  0
XRECORD
  5
BD0
102
{ACAD_REACTORS
330
BCF
102
}
330
BCF
100
AcDbXrecord
280
     1
102
RTVSPropertyOp0
 70
     1
102
RTVSPropertyOp1
 70
     1
102
RTVSPropertyOp2
 70
     1
102
RTVSPropertyOp3
 70
     1
102
RTVSPropertyOp4
 70
     1
102
RTVSPropertyOp5
 70
     1
102
RTVSPropertyOp6
 70
     1
102
RTVSPropertyOp7
 70
     1
102
RTVSPropertyOp8
 70
     1
102
RTVSPropertyOp9
 70
     1
102
RTVSPropertyOp10
 70
     1
102
RTVSPropertyOp11
 70
     1
102
RTVSPropertyOp12
 70
     1
102
RTVSPropertyOp13
 70
     1
102
RTVSPropertyOp14
 70
     1
102
RTVSPropertyOp15
 70
     1
102
RTVSPropertyOp16
 70
     1
102
RTVSPropertyOp17
 70
     1
102
RTVSPropertyOp18
 70
     1
102
RTVSPropertyOp19
 70
     1
102
RTVSPropertyOp20
 70
     1
102
RTVSPropertyOp21
 70
     1
102
RTVSPropertyOp22
 70
     1
102
RTVSPropertyOp23
 70
     1
102
RTVSPropertyOp24
 70
     1
102
RTVSPropertyOp25
 70
     1
102
RTVSPropertyOp26
 70
     1
102
RTVSPropertyOp27
 70
     1
102
RTVSPropertyOp28
 70
     1
102
RTVSPropertyOp29
 70
     1
102
RTVSPropertyOp30
 70
     1
102
RTVSPropertyOp31
 70
     1
102
RTVSPropertyOp32
 70
     1
  0
XRECORD
  5
BD2
102
{ACAD_REACTORS
330
BD1
102
}
330
BD1
100
AcDbXrecord
280
     1
102
RTVSPropertyOp0
 70
     1
102
RTVSPropertyOp1
 70
     1
102
RTVSPropertyOp2
 70
     1
102
RTVSPropertyOp3
 70
     1
102
RTVSPropertyOp4
 70
     1
102
RTVSPropertyOp5
 70
     1
102
RTVSPropertyOp6
 70
     1
102
RTVSPropertyOp7
 70
     1
102
RTVSPropertyOp8
 70
     1
102
RTVSPropertyOp9
 70
     1
102
RTVSPropertyOp10
 70
     1
102
RTVSPropertyOp11
 70
     1
102
RTVSPropertyOp12
 70
     1
102
RTVSPropertyOp13
 70
     1
102
RTVSPropertyOp14
 70
     1
102
RTVSPropertyOp15
 70
     1
102
RTVSPropertyOp16
 70
     1
102
RTVSPropertyOp17
 70
     1
102
RTVSPropertyOp18
 70
     1
102
RTVSPropertyOp19
 70
     1
102
RTVSPropertyOp20
 70
     1
102
RTVSPropertyOp21
 70
     1
102
RTVSPropertyOp22
 70
     1
102
RTVSPropertyOp23
 70
     1
102
RTVSPropertyOp24
 70
     1
102
RTVSPropertyOp25
 70
     1
102
RTVSPropertyOp26
 70
     1
102
RTVSPropertyOp27
 70
     1
102
RTVSPropertyOp28
 70
     1
102
RTVSPropertyOp29
 70
     1
102
RTVSPropertyOp30
 70
     1
102
RTVSPropertyOp31
 70
     1
102
RTVSPropertyOp32
 70
     1
  0
XRECORD
  5
C05
102
{ACAD_REACTORS
330
C04
102
}
330
C04
100
AcDbXrecord
280
     1
102
RTVSPropertyOp0
 70
     1
102
RTVSPropertyOp1
 70
     1
102
RTVSPropertyOp2
 70
     1
102
RTVSPropertyOp3
 70
     1
102
RTVSPropertyOp4
 70
     1
102
RTVSPropertyOp5
 70
     1
102
RTVSPropertyOp6
 70
     1
102
RTVSPropertyOp7
 70
     1
102
RTVSPropertyOp8
 70
     1
102
RTVSPropertyOp9
 70
     1
102
RTVSPropertyOp10
 70
     1
102
RTVSPropertyOp11
 70
     1
102
RTVSPropertyOp12
 70
     1
102
RTVSPropertyOp13
 70
     1
102
RTVSPropertyOp14
 70
     1
102
RTVSPropertyOp15
 70
     1
102
RTVSPropertyOp16
 70
     1
102
RTVSPropertyOp17
 70
     1
102
RTVSPropertyOp18
 70
     1
102
RTVSPropertyOp19
 70
     1
102
RTVSPropertyOp20
 70
     1
102
RTVSPropertyOp21
 70
     1
102
RTVSPropertyOp22
 70
     1
102
RTVSPropertyOp23
 70
     1
102
RTVSPropertyOp24
 70
     1
102
RTVSPropertyOp25
 70
     1
102
RTVSPropertyOp26
 70
     1
102
RTVSPropertyOp27
 70
     1
102
RTVSPropertyOp28
 70
     1
102
RTVSPropertyOp29
 70
     1
102
RTVSPropertyOp30
 70
     1
102
RTVSPropertyOp31
 70
     1
102
RTVSPropertyOp32
 70
     1
  0
XRECORD
  5
BEF
102
{ACAD_REACTORS
330
BEE
102
}
330
BEE
100
AcDbXrecord
280
     1
102
RTVSPropertyOp0
 70
     0
102
RTVSPropertyOp1
 70
     0
102
RTVSPropertyOp2
 70
     0
102
RTVSPropertyOp3
 70
     0
102
RTVSPropertyOp4
 70
     0
102
RTVSPropertyOp5
 70
     0
102
RTVSPropertyOp6
 70
     0
102
RTVSPropertyOp7
 70
     0
102
RTVSPropertyOp8
 70
     0
102
RTVSPropertyOp9
 70
     0
102
RTVSPropertyOp10
 70
     0
102
RTVSPropertyOp11
 70
     0
102
RTVSPropertyOp12
 70
     0
102
RTVSPropertyOp13
 70
     0
102
RTVSPropertyOp14
 70
     2
102
RTVSPropertyOp15
 70
     0
102
RTVSPropertyOp16
 70
     0
102
RTVSPropertyOp17
 70
     0
102
RTVSPropertyOp18
 70
     0
102
RTVSPropertyOp19
 70
     0
102
RTVSPropertyOp20
 70
     0
102
RTVSPropertyOp21
 70
     0
102
RTVSPropertyOp22
 70
     0
102
RTVSPropertyOp23
 70
     0
102
RTVSPropertyOp24
 70
     0
102
RTVSPropertyOp25
 70
     0
102
RTVSPropertyOp26
 70
     0
102
RTVSPropertyOp27
 70
     0
102
RTVSPropertyOp28
 70
     1
102
RTVSPropertyOp29
 70
     1
102
RTVSPropertyOp30
 70
     1
102
RTVSPropertyOp31
 70
     1
102
RTVSPropertyOp32
 70
     1
  0
XRECORD
  5
BE6
102
{ACAD_REACTORS
330
BE5
102
}
330
BE5
100
AcDbXrecord
280
     1
102
RTVSPropertyOp0
 70
     1
102
RTVSPropertyOp1
 70
     1
102
RTVSPropertyOp2
 70
     1
102
RTVSPropertyOp3
 70
     1
102
RTVSPropertyOp4
 70
     1
102
RTVSPropertyOp5
 70
     1
102
RTVSPropertyOp6
 70
     1
102
RTVSPropertyOp7
 70
     1
102
RTVSPropertyOp8
 70
     1
102
RTVSPropertyOp9
 70
     1
102
RTVSPropertyOp10
 70
     1
102
RTVSPropertyOp11
 70
     1
102
RTVSPropertyOp12
 70
     1
102
RTVSPropertyOp13
 70
     1
102
RTVSPropertyOp14
 70
     1
102
RTVSPropertyOp15
 70
     1
102
RTVSPropertyOp16
 70
     1
102
RTVSPropertyOp17
 70
     1
102
RTVSPropertyOp18
 70
     1
102
RTVSPropertyOp19
 70
     1
102
RTVSPropertyOp20
 70
     1
102
RTVSPropertyOp21
 70
     1
102
RTVSPropertyOp22
 70
     1
102
RTVSPropertyOp23
 70
     1
102
RTVSPropertyOp24
 70
     1
102
RTVSPropertyOp25
 70
     1
102
RTVSPropertyOp26
 70
     1
102
RTVSPropertyOp27
 70
     1
102
RTVSPropertyOp28
 70
     1
102
RTVSPropertyOp29
 70
     1
102
RTVSPropertyOp30
 70
     1
102
RTVSPropertyOp31
 70
     1
102
RTVSPropertyOp32
 70
     1
  0
XRECORD
  5
BF1
102
{ACAD_REACTORS
330
BF0
102
}
330
BF0
100
AcDbXrecord
280
     1
102
RTVSPropertyOp0
 70
     0
102
RTVSPropertyOp1
 70
     0
102
RTVSPropertyOp2
 70
     0
102
RTVSPropertyOp3
 70
     0
102
RTVSPropertyOp4
 70
     0
102
RTVSPropertyOp5
 70
     0
102
RTVSPropertyOp6
 70
     0
102
RTVSPropertyOp7
 70
     0
102
RTVSPropertyOp8
 70
     0
102
RTVSPropertyOp9
 70
     0
102
RTVSPropertyOp10
 70
     0
102
RTVSPropertyOp11
 70
     0
102
RTVSPropertyOp12
 70
     0
102
RTVSPropertyOp13
 70
     0
102
RTVSPropertyOp14
 70
     2
102
RTVSPropertyOp15
 70
     0
102
RTVSPropertyOp16
 70
     0
102
RTVSPropertyOp17
 70
     0
102
RTVSPropertyOp18
 70
     0
102
RTVSPropertyOp19
 70
     0
102
RTVSPropertyOp20
 70
     0
102
RTVSPropertyOp21
 70
     0
102
RTVSPropertyOp22
 70
     0
102
RTVSPropertyOp23
 70
     0
102
RTVSPropertyOp24
 70
     0
102
RTVSPropertyOp25
 70
     0
102
RTVSPropertyOp26
 70
     0
102
RTVSPropertyOp27
 70
     0
102
RTVSPropertyOp28
 70
     1
102
RTVSPropertyOp29
 70
     1
102
RTVSPropertyOp30
 70
     1
102
RTVSPropertyOp31
 70
     1
102
RTVSPropertyOp32
 70
     1
  0
XRECORD
  5
BDE
102
{ACAD_REACTORS
330
BDD
102
}
330
BDD
100
AcDbXrecord
280
     1
102
RTVSPropertyOp0
 70
     1
102
RTVSPropertyOp1
 70
     1
102
RTVSPropertyOp2
 70
     1
102
RTVSPropertyOp3
 70
     1
102
RTVSPropertyOp4
 70
     1
102
RTVSPropertyOp5
 70
     1
102
RTVSPropertyOp6
 70
     1
102
RTVSPropertyOp7
 70
     1
102
RTVSPropertyOp8
 70
     1
102
RTVSPropertyOp9
 70
     1
102
RTVSPropertyOp10
 70
     1
102
RTVSPropertyOp11
 70
     1
102
RTVSPropertyOp12
 70
     1
102
RTVSPropertyOp13
 70
     1
102
RTVSPropertyOp14
 70
     1
102
RTVSPropertyOp15
 70
     1
102
RTVSPropertyOp16
 70
     1
102
RTVSPropertyOp17
 70
     1
102
RTVSPropertyOp18
 70
     1
102
RTVSPropertyOp19
 70
     1
102
RTVSPropertyOp20
 70
     1
102
RTVSPropertyOp21
 70
     1
102
RTVSPropertyOp22
 70
     1
102
RTVSPropertyOp23
 70
     1
102
RTVSPropertyOp24
 70
     1
102
RTVSPropertyOp25
 70
     1
102
RTVSPropertyOp26
 70
     1
102
RTVSPropertyOp27
 70
     1
102
RTVSPropertyOp28
 70
     1
102
RTVSPropertyOp29
 70
     1
102
RTVSPropertyOp30
 70
     1
102
RTVSPropertyOp31
 70
     1
102
RTVSPropertyOp32
 70
     1
  0
XRECORD
  5
C0F
102
{ACAD_REACTORS
330
C0E
102
}
330
C0E
100
AcDbXrecord
280
     1
102
RTVSPropertyOp0
 70
     1
102
RTVSPropertyOp1
 70
     1
102
RTVSPropertyOp2
 70
     1
102
RTVSPropertyOp3
 70
     1
102
RTVSPropertyOp4
 70
     1
102
RTVSPropertyOp5
 70
     1
102
RTVSPropertyOp6
 70
     1
102
RTVSPropertyOp7
 70
     1
102
RTVSPropertyOp8
 70
     1
102
RTVSPropertyOp9
 70
     1
102
RTVSPropertyOp10
 70
     1
102
RTVSPropertyOp11
 70
     1
102
RTVSPropertyOp12
 70
     1
102
RTVSPropertyOp13
 70
     1
102
RTVSPropertyOp14
 70
     1
102
RTVSPropertyOp15
 70
     1
102
RTVSPropertyOp16
 70
     1
102
RTVSPropertyOp17
 70
     1
102
RTVSPropertyOp18
 70
     1
102
RTVSPropertyOp19
 70
     1
102
RTVSPropertyOp20
 70
     1
102
RTVSPropertyOp21
 70
     1
102
RTVSPropertyOp22
 70
     1
102
RTVSPropertyOp23
 70
     1
102
RTVSPropertyOp24
 70
     1
102
RTVSPropertyOp25
 70
     1
102
RTVSPropertyOp26
 70
     1
102
RTVSPropertyOp27
 70
     1
102
RTVSPropertyOp28
 70
     1
102
RTVSPropertyOp29
 70
     1
102
RTVSPropertyOp30
 70
     1
102
RTVSPropertyOp31
 70
     1
102
RTVSPropertyOp32
 70
     1
  0
XRECORD
  5
C0D
102
{ACAD_REACTORS
330
C0C
102
}
330
C0C
100
AcDbXrecord
280
     1
102
RTVSPropertyOp0
 70
     1
102
RTVSPropertyOp1
 70
     1
102
RTVSPropertyOp2
 70
     1
102
RTVSPropertyOp3
 70
     1
102
RTVSPropertyOp4
 70
     1
102
RTVSPropertyOp5
 70
     1
102
RTVSPropertyOp6
 70
     1
102
RTVSPropertyOp7
 70
     1
102
RTVSPropertyOp8
 70
     1
102
RTVSPropertyOp9
 70
     1
102
RTVSPropertyOp10
 70
     1
102
RTVSPropertyOp11
 70
     1
102
RTVSPropertyOp12
 70
     1
102
RTVSPropertyOp13
 70
     1
102
RTVSPropertyOp14
 70
     1
102
RTVSPropertyOp15
 70
     1
102
RTVSPropertyOp16
 70
     1
102
RTVSPropertyOp17
 70
     1
102
RTVSPropertyOp18
 70
     1
102
RTVSPropertyOp19
 70
     1
102
RTVSPropertyOp20
 70
     1
102
RTVSPropertyOp21
 70
     1
102
RTVSPropertyOp22
 70
     1
102
RTVSPropertyOp23
 70
     1
102
RTVSPropertyOp24
 70
     1
102
RTVSPropertyOp25
 70
     1
102
RTVSPropertyOp26
 70
     1
102
RTVSPropertyOp27
 70
     1
102
RTVSPropertyOp28
 70
     1
102
RTVSPropertyOp29
 70
     1
102
RTVSPropertyOp30
 70
     1
102
RTVSPropertyOp31
 70
     1
102
RTVSPropertyOp32
 70
     1
  0
XRECORD
  5
C07
102
{ACAD_REACTORS
330
C06
102
}
330
C06
100
AcDbXrecord
280
     1
102
RTVSPropertyOp0
 70
     1
102
RTVSPropertyOp1
 70
     1
102
RTVSPropertyOp2
 70
     1
102
RTVSPropertyOp3
 70
     1
102
RTVSPropertyOp4
 70
     1
102
RTVSPropertyOp5
 70
     1
102
RTVSPropertyOp6
 70
     1
102
RTVSPropertyOp7
 70
     1
102
RTVSPropertyOp8
 70
     1
102
RTVSPropertyOp9
 70
     1
102
RTVSPropertyOp10
 70
     1
102
RTVSPropertyOp11
 70
     1
102
RTVSPropertyOp12
 70
     1
102
RTVSPropertyOp13
 70
     1
102
RTVSPropertyOp14
 70
     1
102
RTVSPropertyOp15
 70
     1
102
RTVSPropertyOp16
 70
     1
102
RTVSPropertyOp17
 70
     1
102
RTVSPropertyOp18
 70
     1
102
RTVSPropertyOp19
 70
     1
102
RTVSPropertyOp20
 70
     1
102
RTVSPropertyOp21
 70
     1
102
RTVSPropertyOp22
 70
     1
102
RTVSPropertyOp23
 70
     1
102
RTVSPropertyOp24
 70
     1
102
RTVSPropertyOp25
 70
     1
102
RTVSPropertyOp26
 70
     1
102
RTVSPropertyOp27
 70
     1
102
RTVSPropertyOp28
 70
     1
102
RTVSPropertyOp29
 70
     1
102
RTVSPropertyOp30
 70
     1
102
RTVSPropertyOp31
 70
     1
102
RTVSPropertyOp32
 70
     1
  0
XRECORD
  5
C09
102
{ACAD_REACTORS
330
C08
102
}
330
C08
100
AcDbXrecord
280
     1
102
RTVSPropertyOp0
 70
     1
102
RTVSPropertyOp1
 70
     1
102
RTVSPropertyOp2
 70
     1
102
RTVSPropertyOp3
 70
     1
102
RTVSPropertyOp4
 70
     1
102
RTVSPropertyOp5
 70
     1
102
RTVSPropertyOp6
 70
     1
102
RTVSPropertyOp7
 70
     1
102
RTVSPropertyOp8
 70
     1
102
RTVSPropertyOp9
 70
     1
102
RTVSPropertyOp10
 70
     1
102
RTVSPropertyOp11
 70
     1
102
RTVSPropertyOp12
 70
     1
102
RTVSPropertyOp13
 70
     1
102
RTVSPropertyOp14
 70
     1
102
RTVSPropertyOp15
 70
     1
102
RTVSPropertyOp16
 70
     1
102
RTVSPropertyOp17
 70
     1
102
RTVSPropertyOp18
 70
     1
102
RTVSPropertyOp19
 70
     1
102
RTVSPropertyOp20
 70
     1
102
RTVSPropertyOp21
 70
     1
102
RTVSPropertyOp22
 70
     1
102
RTVSPropertyOp23
 70
     1
102
RTVSPropertyOp24
 70
     1
102
RTVSPropertyOp25
 70
     1
102
RTVSPropertyOp26
 70
     1
102
RTVSPropertyOp27
 70
     1
102
RTVSPropertyOp28
 70
     1
102
RTVSPropertyOp29
 70
     1
102
RTVSPropertyOp30
 70
     1
102
RTVSPropertyOp31
 70
     1
102
RTVSPropertyOp32
 70
     1
  0
XRECORD
  5
BE4
102
{ACAD_REACTORS
330
BE3
102
}
330
BE3
100
AcDbXrecord
280
     1
102
RTVSPropertyOp0
 70
     1
102
RTVSPropertyOp1
 70
     1
102
RTVSPropertyOp2
 70
     1
102
RTVSPropertyOp3
 70
     1
102
RTVSPropertyOp4
 70
     1
102
RTVSPropertyOp5
 70
     1
102
RTVSPropertyOp6
 70
     1
102
RTVSPropertyOp7
 70
     1
102
RTVSPropertyOp8
 70
     1
102
RTVSPropertyOp9
 70
     1
102
RTVSPropertyOp10
 70
     1
102
RTVSPropertyOp11
 70
     1
102
RTVSPropertyOp12
 70
     1
102
RTVSPropertyOp13
 70
     1
102
RTVSPropertyOp14
 70
     1
102
RTVSPropertyOp15
 70
     1
102
RTVSPropertyOp16
 70
     1
102
RTVSPropertyOp17
 70
     1
102
RTVSPropertyOp18
 70
     1
102
RTVSPropertyOp19
 70
     1
102
RTVSPropertyOp20
 70
     1
102
RTVSPropertyOp21
 70
     1
102
RTVSPropertyOp22
 70
     1
102
RTVSPropertyOp23
 70
     1
102
RTVSPropertyOp24
 70
     1
102
RTVSPropertyOp25
 70
     1
102
RTVSPropertyOp26
 70
     1
102
RTVSPropertyOp27
 70
     1
102
RTVSPropertyOp28
 70
     1
102
RTVSPropertyOp29
 70
     1
102
RTVSPropertyOp30
 70
     1
102
RTVSPropertyOp31
 70
     1
102
RTVSPropertyOp32
 70
     1
  0
XRECORD
  5
C03
102
{ACAD_REACTORS
330
C02
102
}
330
C02
100
AcDbXrecord
280
     1
102
RTVSPropertyOp0
 70
     1
102
RTVSPropertyOp1
 70
     1
102
RTVSPropertyOp2
 70
     1
102
RTVSPropertyOp3
 70
     1
102
RTVSPropertyOp4
 70
     1
102
RTVSPropertyOp5
 70
     1
102
RTVSPropertyOp6
 70
     1
102
RTVSPropertyOp7
 70
     1
102
RTVSPropertyOp8
 70
     1
102
RTVSPropertyOp9
 70
     1
102
RTVSPropertyOp10
 70
     1
102
RTVSPropertyOp11
 70
     1
102
RTVSPropertyOp12
 70
     1
102
RTVSPropertyOp13
 70
     1
102
RTVSPropertyOp14
 70
     1
102
RTVSPropertyOp15
 70
     1
102
RTVSPropertyOp16
 70
     1
102
RTVSPropertyOp17
 70
     1
102
RTVSPropertyOp18
 70
     1
102
RTVSPropertyOp19
 70
     1
102
RTVSPropertyOp20
 70
     1
102
RTVSPropertyOp21
 70
     1
102
RTVSPropertyOp22
 70
     1
102
RTVSPropertyOp23
 70
     1
102
RTVSPropertyOp24
 70
     1
102
RTVSPropertyOp25
 70
     1
102
RTVSPropertyOp26
 70
     1
102
RTVSPropertyOp27
 70
     1
102
RTVSPropertyOp28
 70
     1
102
RTVSPropertyOp29
 70
     1
102
RTVSPropertyOp30
 70
     1
102
RTVSPropertyOp31
 70
     1
102
RTVSPropertyOp32
 70
     1
  0
XRECORD
  5
C0B
102
{ACAD_REACTORS
330
C0A
102
}
330
C0A
100
AcDbXrecord
280
     1
102
RTVSPropertyOp0
 70
     1
102
RTVSPropertyOp1
 70
     1
102
RTVSPropertyOp2
 70
     1
102
RTVSPropertyOp3
 70
     1
102
RTVSPropertyOp4
 70
     1
102
RTVSPropertyOp5
 70
     1
102
RTVSPropertyOp6
 70
     1
102
RTVSPropertyOp7
 70
     1
102
RTVSPropertyOp8
 70
     1
102
RTVSPropertyOp9
 70
     1
102
RTVSPropertyOp10
 70
     1
102
RTVSPropertyOp11
 70
     1
102
RTVSPropertyOp12
 70
     1
102
RTVSPropertyOp13
 70
     1
102
RTVSPropertyOp14
 70
     1
102
RTVSPropertyOp15
 70
     1
102
RTVSPropertyOp16
 70
     1
102
RTVSPropertyOp17
 70
     1
102
RTVSPropertyOp18
 70
     1
102
RTVSPropertyOp19
 70
     1
102
RTVSPropertyOp20
 70
     1
102
RTVSPropertyOp21
 70
     1
102
RTVSPropertyOp22
 70
     1
102
RTVSPropertyOp23
 70
     1
102
RTVSPropertyOp24
 70
     1
102
RTVSPropertyOp25
 70
     1
102
RTVSPropertyOp26
 70
     1
102
RTVSPropertyOp27
 70
     1
102
RTVSPropertyOp28
 70
     1
102
RTVSPropertyOp29
 70
     1
102
RTVSPropertyOp30
 70
     1
102
RTVSPropertyOp31
 70
     1
102
RTVSPropertyOp32
 70
     1
  0
XRECORD
  5
75B
102
{ACAD_REACTORS
330
75A
102
}
330
75A
100
AcDbXrecord
280
     1
102
qsTableStyle
  1
QS
102
usesAcadTableStyle
 90
        0
102
sommaQtaSoloPrtConStessoPos
 90
        0
102
ricalcolaPosAttrDaAttrRaggruppamento
 90
        0
  0
XRECORD
  5
8DF
102
{ACAD_REACTORS
330
8DE
102
}
330
8DE
100
AcDbXrecord
280
     1
1071
 18597260
1071
 25303744
 70
    25
 70
   104
 10
-105.0
 20
-148.5
 30
0.0
 10
105.0
 20
-148.5
 30
0.0
 10
0.0
 20
0.0
 30
-1.0
  0
XRECORD
  5
8E0
102
{ACAD_REACTORS
330
8DE
102
}
330
8DE
100
AcDbXrecord
280
     1
1071
  6895636
1071
  9291323
 70
    25
 70
   104
 40
0.0
  0
ENDSEC
  0
EOF
