ISO-10303-21;
HEADER;
/****************************************************************
 * Generated by software with PDE/Lib inside                    *
 * PDElib Version v4.4, created Mon 02/23/2004                  *
 * International Technegroup Inc. (www.iti-oh.com)              *
 ****************************************************************/
FILE_DESCRIPTION(('STEP AP203'),'2;1');
FILE_NAME('26.013.00.stp','2011-03-21T16:08:06',(''),(''),'2009.3.110','THINKDESIGN','');
FILE_SCHEMA(('CONFIG_CONTROL_DESIGN'));
ENDSEC;
DATA;
#2=CARTESIAN_POINT('',(-4.0,-4.0,0.0));
#3=DIRECTION('',(0.0,0.0,1.0));
#4=DIRECTION('',(1.0,0.0,0.0));
#5=AXIS2_PLACEMENT_3D('',#2,#3,#4);
#6=CYLINDRICAL_SURFACE('',#5,1.0);
#7=CARTESIAN_POINT('',(-5.0,-4.0,0.0));
#8=VERTEX_POINT('',#7);
#9=CARTESIAN_POINT('',(-5.0,-4.0,-2.400000000000000));
#10=VERTEX_POINT('',#9);
#11=CARTESIAN_POINT('',(-5.0,-4.0,0.0));
#12=DIRECTION('',(0.0,0.0,-1.0));
#13=VECTOR('',#12,2.400000000000000);
#14=LINE('',#11,#13);
#15=EDGE_CURVE('',#8,#10,#14,.T.);
#16=ORIENTED_EDGE('',*,*,#15,.T.);
#17=CARTESIAN_POINT('',(-4.0,-5.0,-2.400000000000000));
#18=VERTEX_POINT('',#17);
#19=CARTESIAN_POINT('',(-4.0,-4.0,-2.400000000000000));
#20=DIRECTION('',(0.0,0.0,1.0));
#21=DIRECTION('',(1.0,0.0,0.0));
#22=AXIS2_PLACEMENT_3D('',#19,#20,#21);
#23=CIRCLE('',#22,1.0);
#24=EDGE_CURVE('',#10,#18,#23,.T.);
#25=ORIENTED_EDGE('',*,*,#24,.T.);
#26=CARTESIAN_POINT('',(-4.0,-5.0,0.0));
#27=VERTEX_POINT('',#26);
#28=CARTESIAN_POINT('',(-4.0,-5.0,0.0));
#29=DIRECTION('',(0.0,0.0,-1.0));
#30=VECTOR('',#29,2.400000000000000);
#31=LINE('',#28,#30);
#32=EDGE_CURVE('',#27,#18,#31,.T.);
#33=ORIENTED_EDGE('',*,*,#32,.F.);
#34=CARTESIAN_POINT('',(-4.0,-4.0,0.0));
#35=DIRECTION('',(0.0,0.0,1.0));
#36=DIRECTION('',(1.0,0.0,0.0));
#37=AXIS2_PLACEMENT_3D('',#34,#35,#36);
#38=CIRCLE('',#37,1.0);
#39=EDGE_CURVE('',#8,#27,#38,.T.);
#40=ORIENTED_EDGE('',*,*,#39,.F.);
#41=EDGE_LOOP('',(#16,#25,#33,#40));
#42=FACE_OUTER_BOUND('',#41,.T.);
#43=ADVANCED_FACE('',(#42),#6,.T.);
#44=CARTESIAN_POINT('',(-4.0,-5.0,0.0));
#45=DIRECTION('',(0.0,1.0,0.0));
#46=DIRECTION('',(1.0,0.0,0.0));
#47=AXIS2_PLACEMENT_3D('',#44,#45,#46);
#48=PLANE('',#47);
#49=ORIENTED_EDGE('',*,*,#32,.T.);
#50=CARTESIAN_POINT('',(3.999999999999996,-4.999999999999886,-2.400000000000000));
#51=VERTEX_POINT('',#50);
#52=CARTESIAN_POINT('',(-4.0,-5.0,-2.400000000000000));
#53=DIRECTION('',(1.0,0.0,0.0));
#54=VECTOR('',#53,7.999999999999996);
#55=LINE('',#52,#54);
#56=EDGE_CURVE('',#18,#51,#55,.T.);
#57=ORIENTED_EDGE('',*,*,#56,.T.);
#58=CARTESIAN_POINT('',(3.999999999999996,-4.999999999999886,0.0));
#59=VERTEX_POINT('',#58);
#60=CARTESIAN_POINT('',(3.999999999999996,-4.999999999999886,0.0));
#61=DIRECTION('',(0.0,0.0,-1.0));
#62=VECTOR('',#61,2.400000000000000);
#63=LINE('',#60,#62);
#64=EDGE_CURVE('',#59,#51,#63,.T.);
#65=ORIENTED_EDGE('',*,*,#64,.F.);
#66=CARTESIAN_POINT('',(-4.0,-5.0,0.0));
#67=DIRECTION('',(1.0,0.0,0.0));
#68=VECTOR('',#67,7.999999999999996);
#69=LINE('',#66,#68);
#70=EDGE_CURVE('',#27,#59,#69,.T.);
#71=ORIENTED_EDGE('',*,*,#70,.F.);
#72=EDGE_LOOP('',(#49,#57,#65,#71));
#73=FACE_OUTER_BOUND('',#72,.T.);
#74=ADVANCED_FACE('',(#73),#48,.F.);
#75=CARTESIAN_POINT('',(3.999999999999996,-3.999999999999886,0.0));
#76=DIRECTION('',(0.0,0.0,1.0));
#77=DIRECTION('',(5.053215E-016,-1.0,0.0));
#78=AXIS2_PLACEMENT_3D('',#75,#76,#77);
#79=CYLINDRICAL_SURFACE('',#78,1.0);
#80=ORIENTED_EDGE('',*,*,#64,.T.);
#81=CARTESIAN_POINT('',(4.999999999999996,-3.999999999999886,-2.400000000000000));
#82=VERTEX_POINT('',#81);
#83=CARTESIAN_POINT('',(3.999999999999996,-3.999999999999886,-2.400000000000000));
#84=DIRECTION('',(0.0,0.0,1.0));
#85=DIRECTION('',(1.0,0.0,0.0));
#86=AXIS2_PLACEMENT_3D('',#83,#84,#85);
#87=CIRCLE('',#86,1.0);
#88=EDGE_CURVE('',#51,#82,#87,.T.);
#89=ORIENTED_EDGE('',*,*,#88,.T.);
#90=CARTESIAN_POINT('',(4.999999999999996,-3.999999999999886,0.0));
#91=VERTEX_POINT('',#90);
#92=CARTESIAN_POINT('',(4.999999999999996,-3.999999999999886,0.0));
#93=DIRECTION('',(0.0,0.0,-1.0));
#94=VECTOR('',#93,2.400000000000000);
#95=LINE('',#92,#94);
#96=EDGE_CURVE('',#91,#82,#95,.T.);
#97=ORIENTED_EDGE('',*,*,#96,.F.);
#98=CARTESIAN_POINT('',(3.999999999999996,-3.999999999999886,0.0));
#99=DIRECTION('',(0.0,0.0,1.0));
#100=DIRECTION('',(1.0,0.0,0.0));
#101=AXIS2_PLACEMENT_3D('',#98,#99,#100);
#102=CIRCLE('',#101,1.0);
#103=EDGE_CURVE('',#59,#91,#102,.T.);
#104=ORIENTED_EDGE('',*,*,#103,.F.);
#105=EDGE_LOOP('',(#80,#89,#97,#104));
#106=FACE_OUTER_BOUND('',#105,.T.);
#107=ADVANCED_FACE('',(#106),#79,.T.);
#108=CARTESIAN_POINT('',(4.999999999999996,-3.999999999999886,0.0));
#109=DIRECTION('',(-1.0,0.0,0.0));
#110=DIRECTION('',(0.0,1.0,0.0));
#111=AXIS2_PLACEMENT_3D('',#108,#109,#110);
#112=PLANE('',#111);
#113=ORIENTED_EDGE('',*,*,#96,.T.);
#114=CARTESIAN_POINT('',(5.0,4.0,-2.400000000000000));
#115=VERTEX_POINT('',#114);
#116=CARTESIAN_POINT('',(4.999999999999996,-3.999999999999886,-2.400000000000000));
#117=DIRECTION('',(0.0,1.0,0.0));
#118=VECTOR('',#117,7.999999999999886);
#119=LINE('',#116,#118);
#120=EDGE_CURVE('',#82,#115,#119,.T.);
#121=ORIENTED_EDGE('',*,*,#120,.T.);
#122=CARTESIAN_POINT('',(5.0,4.0,0.0));
#123=VERTEX_POINT('',#122);
#124=CARTESIAN_POINT('',(5.0,4.0,0.0));
#125=DIRECTION('',(0.0,0.0,-1.0));
#126=VECTOR('',#125,2.400000000000000);
#127=LINE('',#124,#126);
#128=EDGE_CURVE('',#123,#115,#127,.T.);
#129=ORIENTED_EDGE('',*,*,#128,.F.);
#130=CARTESIAN_POINT('',(4.999999999999996,-3.999999999999886,0.0));
#131=DIRECTION('',(0.0,1.0,0.0));
#132=VECTOR('',#131,7.999999999999886);
#133=LINE('',#130,#132);
#134=EDGE_CURVE('',#91,#123,#133,.T.);
#135=ORIENTED_EDGE('',*,*,#134,.F.);
#136=EDGE_LOOP('',(#113,#121,#129,#135));
#137=FACE_OUTER_BOUND('',#136,.T.);
#138=ADVANCED_FACE('',(#137),#112,.F.);
#139=CARTESIAN_POINT('',(4.0,4.0,0.0));
#140=DIRECTION('',(0.0,0.0,1.0));
#141=DIRECTION('',(1.0,0.0,0.0));
#142=AXIS2_PLACEMENT_3D('',#139,#140,#141);
#143=CYLINDRICAL_SURFACE('',#142,1.0);
#144=ORIENTED_EDGE('',*,*,#128,.T.);
#145=CARTESIAN_POINT('',(4.0,5.0,-2.400000000000000));
#146=VERTEX_POINT('',#145);
#147=CARTESIAN_POINT('',(4.0,4.0,-2.400000000000000));
#148=DIRECTION('',(0.0,0.0,1.0));
#149=DIRECTION('',(1.0,0.0,0.0));
#150=AXIS2_PLACEMENT_3D('',#147,#148,#149);
#151=CIRCLE('',#150,1.0);
#152=EDGE_CURVE('',#115,#146,#151,.T.);
#153=ORIENTED_EDGE('',*,*,#152,.T.);
#154=CARTESIAN_POINT('',(4.0,5.0,0.0));
#155=VERTEX_POINT('',#154);
#156=CARTESIAN_POINT('',(4.0,5.0,0.0));
#157=DIRECTION('',(0.0,0.0,-1.0));
#158=VECTOR('',#157,2.400000000000000);
#159=LINE('',#156,#158);
#160=EDGE_CURVE('',#155,#146,#159,.T.);
#161=ORIENTED_EDGE('',*,*,#160,.F.);
#162=CARTESIAN_POINT('',(4.0,4.0,0.0));
#163=DIRECTION('',(0.0,0.0,1.0));
#164=DIRECTION('',(1.0,0.0,0.0));
#165=AXIS2_PLACEMENT_3D('',#162,#163,#164);
#166=CIRCLE('',#165,1.0);
#167=EDGE_CURVE('',#123,#155,#166,.T.);
#168=ORIENTED_EDGE('',*,*,#167,.F.);
#169=EDGE_LOOP('',(#144,#153,#161,#168));
#170=FACE_OUTER_BOUND('',#169,.T.);
#171=ADVANCED_FACE('',(#170),#143,.T.);
#172=CARTESIAN_POINT('',(4.0,5.0,0.0));
#173=DIRECTION('',(0.0,-1.0,0.0));
#174=DIRECTION('',(-1.0,0.0,0.0));
#175=AXIS2_PLACEMENT_3D('',#172,#173,#174);
#176=PLANE('',#175);
#177=ORIENTED_EDGE('',*,*,#160,.T.);
#178=CARTESIAN_POINT('',(-4.0,4.999999999999886,-2.400000000000000));
#179=VERTEX_POINT('',#178);
#180=CARTESIAN_POINT('',(4.0,5.0,-2.400000000000000));
#181=DIRECTION('',(-1.0,0.0,0.0));
#182=VECTOR('',#181,8.0);
#183=LINE('',#180,#182);
#184=EDGE_CURVE('',#146,#179,#183,.T.);
#185=ORIENTED_EDGE('',*,*,#184,.T.);
#186=CARTESIAN_POINT('',(-4.0,4.999999999999886,0.0));
#187=VERTEX_POINT('',#186);
#188=CARTESIAN_POINT('',(-4.0,4.999999999999886,0.0));
#189=DIRECTION('',(0.0,0.0,-1.0));
#190=VECTOR('',#189,2.400000000000000);
#191=LINE('',#188,#190);
#192=EDGE_CURVE('',#187,#179,#191,.T.);
#193=ORIENTED_EDGE('',*,*,#192,.F.);
#194=CARTESIAN_POINT('',(4.0,5.0,0.0));
#195=DIRECTION('',(-1.0,0.0,0.0));
#196=VECTOR('',#195,8.0);
#197=LINE('',#194,#196);
#198=EDGE_CURVE('',#155,#187,#197,.T.);
#199=ORIENTED_EDGE('',*,*,#198,.F.);
#200=EDGE_LOOP('',(#177,#185,#193,#199));
#201=FACE_OUTER_BOUND('',#200,.T.);
#202=ADVANCED_FACE('',(#201),#176,.F.);
#203=CARTESIAN_POINT('',(-4.0,3.999999999999886,0.0));
#204=DIRECTION('',(0.0,0.0,1.0));
#205=DIRECTION('',(1.0,0.0,0.0));
#206=AXIS2_PLACEMENT_3D('',#203,#204,#205);
#207=CYLINDRICAL_SURFACE('',#206,1.0);
#208=ORIENTED_EDGE('',*,*,#192,.T.);
#209=CARTESIAN_POINT('',(-5.0,3.999999999999886,-2.400000000000000));
#210=VERTEX_POINT('',#209);
#211=CARTESIAN_POINT('',(-4.0,3.999999999999886,-2.400000000000000));
#212=DIRECTION('',(0.0,0.0,1.0));
#213=DIRECTION('',(1.0,0.0,0.0));
#214=AXIS2_PLACEMENT_3D('',#211,#212,#213);
#215=CIRCLE('',#214,1.0);
#216=EDGE_CURVE('',#179,#210,#215,.T.);
#217=ORIENTED_EDGE('',*,*,#216,.T.);
#218=CARTESIAN_POINT('',(-5.0,3.999999999999886,0.0));
#219=VERTEX_POINT('',#218);
#220=CARTESIAN_POINT('',(-5.0,3.999999999999886,0.0));
#221=DIRECTION('',(0.0,0.0,-1.0));
#222=VECTOR('',#221,2.400000000000000);
#223=LINE('',#220,#222);
#224=EDGE_CURVE('',#219,#210,#223,.T.);
#225=ORIENTED_EDGE('',*,*,#224,.F.);
#226=CARTESIAN_POINT('',(-4.0,3.999999999999886,0.0));
#227=DIRECTION('',(0.0,0.0,1.0));
#228=DIRECTION('',(1.0,0.0,0.0));
#229=AXIS2_PLACEMENT_3D('',#226,#227,#228);
#230=CIRCLE('',#229,1.0);
#231=EDGE_CURVE('',#187,#219,#230,.T.);
#232=ORIENTED_EDGE('',*,*,#231,.F.);
#233=EDGE_LOOP('',(#208,#217,#225,#232));
#234=FACE_OUTER_BOUND('',#233,.T.);
#235=ADVANCED_FACE('',(#234),#207,.T.);
#236=CARTESIAN_POINT('',(-5.0,3.999999999999886,0.0));
#237=DIRECTION('',(1.0,0.0,0.0));
#238=DIRECTION('',(0.0,-1.0,0.0));
#239=AXIS2_PLACEMENT_3D('',#236,#237,#238);
#240=PLANE('',#239);
#241=ORIENTED_EDGE('',*,*,#224,.T.);
#242=CARTESIAN_POINT('',(-5.0,3.999999999999886,-2.400000000000000));
#243=DIRECTION('',(0.0,-1.0,0.0));
#244=VECTOR('',#243,7.999999999999886);
#245=LINE('',#242,#244);
#246=EDGE_CURVE('',#210,#10,#245,.T.);
#247=ORIENTED_EDGE('',*,*,#246,.T.);
#248=ORIENTED_EDGE('',*,*,#15,.F.);
#249=CARTESIAN_POINT('',(-5.0,3.999999999999886,0.0));
#250=DIRECTION('',(0.0,-1.0,0.0));
#251=VECTOR('',#250,7.999999999999886);
#252=LINE('',#249,#251);
#253=EDGE_CURVE('',#219,#8,#252,.T.);
#254=ORIENTED_EDGE('',*,*,#253,.F.);
#255=EDGE_LOOP('',(#241,#247,#248,#254));
#256=FACE_OUTER_BOUND('',#255,.T.);
#257=ADVANCED_FACE('',(#256),#240,.F.);
#258=CARTESIAN_POINT('',(-6.000120002640045,-6.000120002615631,0.0));
#259=DIRECTION('',(0.0,0.0,1.0));
#260=DIRECTION('',(1.0,0.0,0.0));
#261=AXIS2_PLACEMENT_3D('',#258,#259,#260);
#262=PLANE('',#261);
#263=ORIENTED_EDGE('',*,*,#39,.T.);
#264=ORIENTED_EDGE('',*,*,#70,.T.);
#265=ORIENTED_EDGE('',*,*,#103,.T.);
#266=ORIENTED_EDGE('',*,*,#134,.T.);
#267=ORIENTED_EDGE('',*,*,#167,.T.);
#268=ORIENTED_EDGE('',*,*,#198,.T.);
#269=ORIENTED_EDGE('',*,*,#231,.T.);
#270=ORIENTED_EDGE('',*,*,#253,.T.);
#271=EDGE_LOOP('',(#263,#264,#265,#266,#267,#268,#269,#270));
#272=FACE_OUTER_BOUND('',#271,.T.);
#273=CARTESIAN_POINT('',(-2.750000000000000,0.0,0.0));
#274=VERTEX_POINT('',#273);
#275=CARTESIAN_POINT('',(2.750000000000000,0.0,0.0));
#276=VERTEX_POINT('',#275);
#277=CARTESIAN_POINT('',(0.0,0.0,0.0));
#278=DIRECTION('',(0.0,0.0,1.0));
#279=DIRECTION('',(1.0,0.0,0.0));
#280=AXIS2_PLACEMENT_3D('',#277,#278,#279);
#281=CIRCLE('',#280,2.750000000000000);
#282=EDGE_CURVE('',#274,#276,#281,.T.);
#283=ORIENTED_EDGE('',*,*,#282,.F.);
#284=CARTESIAN_POINT('',(0.0,0.0,0.0));
#285=DIRECTION('',(0.0,0.0,1.0));
#286=DIRECTION('',(1.0,0.0,0.0));
#287=AXIS2_PLACEMENT_3D('',#284,#285,#286);
#288=CIRCLE('',#287,2.750000000000000);
#289=EDGE_CURVE('',#276,#274,#288,.T.);
#290=ORIENTED_EDGE('',*,*,#289,.F.);
#291=EDGE_LOOP('',(#283,#290));
#292=FACE_BOUND('',#291,.T.);
#293=ADVANCED_FACE('',(#272,#292),#262,.T.);
#294=CARTESIAN_POINT('',(-6.000120002640045,-6.000120002615631,-2.400000000000000));
#295=DIRECTION('',(0.0,0.0,1.0));
#296=DIRECTION('',(1.0,0.0,0.0));
#297=AXIS2_PLACEMENT_3D('',#294,#295,#296);
#298=PLANE('',#297);
#299=ORIENTED_EDGE('',*,*,#246,.F.);
#300=ORIENTED_EDGE('',*,*,#216,.F.);
#301=ORIENTED_EDGE('',*,*,#184,.F.);
#302=ORIENTED_EDGE('',*,*,#152,.F.);
#303=ORIENTED_EDGE('',*,*,#120,.F.);
#304=ORIENTED_EDGE('',*,*,#88,.F.);
#305=ORIENTED_EDGE('',*,*,#56,.F.);
#306=ORIENTED_EDGE('',*,*,#24,.F.);
#307=EDGE_LOOP('',(#299,#300,#301,#302,#303,#304,#305,#306));
#308=FACE_OUTER_BOUND('',#307,.T.);
#309=CARTESIAN_POINT('',(-2.750000000000000,0.0,-2.400000000000000));
#310=VERTEX_POINT('',#309);
#311=CARTESIAN_POINT('',(2.750000000000000,0.0,-2.400000000000000));
#312=VERTEX_POINT('',#311);
#313=CARTESIAN_POINT('',(0.0,0.0,-2.400000000000000));
#314=DIRECTION('',(0.0,0.0,-1.0));
#315=DIRECTION('',(1.0,0.0,0.0));
#316=AXIS2_PLACEMENT_3D('',#313,#314,#315);
#317=CIRCLE('',#316,2.750000000000000);
#318=EDGE_CURVE('',#310,#312,#317,.T.);
#319=ORIENTED_EDGE('',*,*,#318,.F.);
#320=CARTESIAN_POINT('',(0.0,0.0,-2.400000000000000));
#321=DIRECTION('',(0.0,0.0,-1.0));
#322=DIRECTION('',(1.0,0.0,0.0));
#323=AXIS2_PLACEMENT_3D('',#320,#321,#322);
#324=CIRCLE('',#323,2.750000000000000);
#325=EDGE_CURVE('',#312,#310,#324,.T.);
#326=ORIENTED_EDGE('',*,*,#325,.F.);
#327=EDGE_LOOP('',(#319,#326));
#328=FACE_BOUND('',#327,.T.);
#329=ADVANCED_FACE('',(#308,#328),#298,.F.);
#330=CARTESIAN_POINT('',(0.0,0.0,0.0));
#331=DIRECTION('',(0.0,0.0,1.0));
#332=DIRECTION('',(1.0,0.0,0.0));
#333=AXIS2_PLACEMENT_3D('',#330,#331,#332);
#334=CYLINDRICAL_SURFACE('',#333,2.750000000000000);
#335=CARTESIAN_POINT('',(2.750000000000000,0.0,0.0));
#336=DIRECTION('',(0.0,0.0,-1.0));
#337=VECTOR('',#336,2.400000000000000);
#338=LINE('',#335,#337);
#339=EDGE_CURVE('',#276,#312,#338,.T.);
#340=ORIENTED_EDGE('',*,*,#339,.T.);
#341=ORIENTED_EDGE('',*,*,#325,.T.);
#342=ORIENTED_EDGE('',*,*,#318,.T.);
#343=ORIENTED_EDGE('',*,*,#339,.F.);
#344=ORIENTED_EDGE('',*,*,#289,.T.);
#345=ORIENTED_EDGE('',*,*,#282,.T.);
#346=EDGE_LOOP('',(#340,#341,#342,#343,#344,#345));
#347=FACE_OUTER_BOUND('',#346,.T.);
#348=ADVANCED_FACE('',(#347),#334,.F.);
#349=CLOSED_SHELL('',(#43,#74,#107,#138,#171,#202,#235,#257,#293,#329,#348));
#350=MANIFOLD_SOLID_BREP('',#349);
#356=(NAMED_UNIT(*)PLANE_ANGLE_UNIT()SI_UNIT($,.RADIAN.));
#357=DIMENSIONAL_EXPONENTS(0.0,0.0,0.0,0.0,0.0,0.0,0.0);
#358=PLANE_ANGLE_MEASURE_WITH_UNIT(PLANE_ANGLE_MEASURE(0.017453292500000),#356);
#362=(CONVERSION_BASED_UNIT('DEGREE',#358)NAMED_UNIT(#357)PLANE_ANGLE_UNIT());
#366=(NAMED_UNIT(*)SI_UNIT($,.STERADIAN.)SOLID_ANGLE_UNIT());
#370=(LENGTH_UNIT()NAMED_UNIT(*)SI_UNIT(.MILLI.,.METRE.));
#372=UNCERTAINTY_MEASURE_WITH_UNIT(LENGTH_MEASURE(0.001000000000000),#370,'DISTANCE_ACCURACY_VALUE','');
#374=(GEOMETRIC_REPRESENTATION_CONTEXT(3)GLOBAL_UNCERTAINTY_ASSIGNED_CONTEXT((#372))GLOBAL_UNIT_ASSIGNED_CONTEXT((#362,#366,#370))REPRESENTATION_CONTEXT('thinkdesign','2009.3.110'));
#375=ADVANCED_BREP_SHAPE_REPRESENTATION('',(#350),#374);
#376=APPLICATION_CONTEXT('configuration controlled 3D designs of mechanical parts and assemblies');
#377=APPLICATION_PROTOCOL_DEFINITION('International Standard','config_control_design',1995,#376);
#378=MECHANICAL_CONTEXT('None',#376,'mechanical');
#379=PRODUCT('None','None','None',(#378));
#380=PRODUCT_RELATED_PRODUCT_CATEGORY('detail',$,(#379));
#381=PRODUCT_CATEGORY('part',$);
#382=PRODUCT_CATEGORY_RELATIONSHIP('None','None',#381,#380);
#383=PERSON('PERSON1','None','None',$,$,$);
#384=ORGANIZATION('','None','None');
#385=PERSON_AND_ORGANIZATION(#383,#384);
#386=PERSON_AND_ORGANIZATION_ROLE('design_owner');
#387=CC_DESIGN_PERSON_AND_ORGANIZATION_ASSIGNMENT(#385,#386,(#379));
#388=PRODUCT_DEFINITION_FORMATION_WITH_SPECIFIED_SOURCE('None','None',#379,.NOT_KNOWN.);
#389=PERSON('PERSON2','None','None',$,$,$);
#390=ORGANIZATION('','None','None');
#391=PERSON_AND_ORGANIZATION(#389,#390);
#392=PERSON_AND_ORGANIZATION_ROLE('creator');
#393=CC_DESIGN_PERSON_AND_ORGANIZATION_ASSIGNMENT(#391,#392,(#388));
#394=PERSON('PERSON3','None','None',$,$,$);
#395=ORGANIZATION('','None','None');
#396=PERSON_AND_ORGANIZATION(#394,#395);
#397=PERSON_AND_ORGANIZATION_ROLE('part_supplier');
#398=CC_DESIGN_PERSON_AND_ORGANIZATION_ASSIGNMENT(#396,#397,(#388));
#399=APPROVAL_STATUS('approved');
#400=APPROVAL(#399,'None');
#401=PERSON('PERSON4','None','None',$,$,$);
#402=ORGANIZATION('','None','None');
#403=PERSON_AND_ORGANIZATION(#401,#402);
#404=APPROVAL_ROLE('None');
#405=APPROVAL_PERSON_ORGANIZATION(#403,#400,#404);
#406=CALENDAR_DATE(2011,21,3);
#407=COORDINATED_UNIVERSAL_TIME_OFFSET(0,0,.AHEAD.);
#408=LOCAL_TIME(16,8,6.0,#407);
#409=DATE_AND_TIME(#406,#408);
#410=APPROVAL_DATE_TIME(#409,#400);
#411=CC_DESIGN_APPROVAL(#400,(#388));
#412=SECURITY_CLASSIFICATION_LEVEL('unclassified');
#413=SECURITY_CLASSIFICATION('None','None',#412);
#414=CC_DESIGN_SECURITY_CLASSIFICATION(#413,(#388));
#415=APPROVAL_STATUS('approved');
#416=APPROVAL(#415,'None');
#417=PERSON('PERSON5','None','None',$,$,$);
#418=ORGANIZATION('','None','None');
#419=PERSON_AND_ORGANIZATION(#417,#418);
#420=APPROVAL_ROLE('None');
#421=APPROVAL_PERSON_ORGANIZATION(#419,#416,#420);
#422=CALENDAR_DATE(2011,21,3);
#423=COORDINATED_UNIVERSAL_TIME_OFFSET(0,0,.AHEAD.);
#424=LOCAL_TIME(16,8,6.0,#423);
#425=DATE_AND_TIME(#422,#424);
#426=APPROVAL_DATE_TIME(#425,#416);
#427=CC_DESIGN_APPROVAL(#416,(#413));
#428=PERSON('PERSON6','None','None',$,$,$);
#429=ORGANIZATION('','None','None');
#430=PERSON_AND_ORGANIZATION(#428,#429);
#431=PERSON_AND_ORGANIZATION_ROLE('classification_officer');
#432=CC_DESIGN_PERSON_AND_ORGANIZATION_ASSIGNMENT(#430,#431,(#413));
#433=DATE_TIME_ROLE('classification_date');
#434=CALENDAR_DATE(2011,21,3);
#435=COORDINATED_UNIVERSAL_TIME_OFFSET(0,0,.AHEAD.);
#436=LOCAL_TIME(16,8,6.0,#435);
#437=DATE_AND_TIME(#434,#436);
#438=CC_DESIGN_DATE_AND_TIME_ASSIGNMENT(#437,#433,(#413));
#439=DESIGN_CONTEXT('part definition',#376,'design');
#440=DOCUMENT_TYPE('cad_filename');
#441=DOCUMENT('None','None','None',#440);
#442=PRODUCT_DEFINITION_WITH_ASSOCIATED_DOCUMENTS('None','None',#388,#439,(#441));
#443=PERSON('PERSON7','None','None',$,$,$);
#444=ORGANIZATION('','None','None');
#445=PERSON_AND_ORGANIZATION(#443,#444);
#446=PERSON_AND_ORGANIZATION_ROLE('creator');
#447=CC_DESIGN_PERSON_AND_ORGANIZATION_ASSIGNMENT(#445,#446,(#442));
#448=DATE_TIME_ROLE('creation_date');
#449=CALENDAR_DATE(2011,21,3);
#450=COORDINATED_UNIVERSAL_TIME_OFFSET(0,0,.AHEAD.);
#451=LOCAL_TIME(16,8,6.0,#450);
#452=DATE_AND_TIME(#449,#451);
#453=CC_DESIGN_DATE_AND_TIME_ASSIGNMENT(#452,#448,(#442));
#454=APPROVAL_STATUS('approved');
#455=APPROVAL(#454,'None');
#456=PERSON('PERSON8','None','None',$,$,$);
#457=ORGANIZATION('','None','None');
#458=PERSON_AND_ORGANIZATION(#456,#457);
#459=APPROVAL_ROLE('None');
#460=APPROVAL_PERSON_ORGANIZATION(#458,#455,#459);
#461=CALENDAR_DATE(2011,21,3);
#462=COORDINATED_UNIVERSAL_TIME_OFFSET(0,0,.AHEAD.);
#463=LOCAL_TIME(16,8,6.0,#462);
#464=DATE_AND_TIME(#461,#463);
#465=APPROVAL_DATE_TIME(#464,#455);
#466=CC_DESIGN_APPROVAL(#455,(#442));
#467=PRODUCT_DEFINITION_SHAPE('None','None',#442);
#468=SHAPE_DEFINITION_REPRESENTATION(#467,#375);
#469=DIMENSIONAL_EXPONENTS(0.0,0.0,0.0,0.0,0.0,0.0,0.0);
#470=DIMENSIONAL_EXPONENTS(1.0,0.0,0.0,0.0,0.0,0.0,0.0);
ENDSEC;
END-ISO-10303-21;
