ISO-10303-21;
HEADER;
/* Generated by software containing ST-Developer
 * from STEP Tools, Inc. (www.steptools.com) 
 */

FILE_DESCRIPTION(
/* description */ ('BOCCOLA CERNIERA  DI. 8 DE. 10'),
/* implementation_level */ '2;1');

FILE_NAME(
/* name */ 
'Q:\\Catalogo\\2_Accessori Dierre\\Per Download Web e catalogo cartace
o\\CATALOGO ACCESSORI PER RIPARI\\PAGINA 58\\DBOXX0000006.stp',
/* time_stamp */ '2018-11-08T18:03:47+01:00',
/* author */ ('fzagni'),
/* organization */ (''),
/* preprocessor_version */ 'ST-DEVELOPER v16.1',
/* originating_system */ 'Autodesk Inventor 2016',
/* authorisation */ '');

FILE_SCHEMA (('AUTOMOTIVE_DESIGN { 1 0 10303 214 3 1 1 }'));
ENDSEC;

DATA;
#10=MECHANICAL_DESIGN_GEOMETRIC_PRESENTATION_REPRESENTATION('',(#13),#203);
#11=SHAPE_REPRESENTATION_RELATIONSHIP('SRR','None',#212,#12);
#12=ADVANCED_BREP_SHAPE_REPRESENTATION('',(#14),#202);
#13=STYLED_ITEM('',(#221),#14);
#14=MANIFOLD_SOLID_BREP('Solido1',#114);
#15=CONICAL_SURFACE('',#123,4.75,45.0000000000001);
#16=CYLINDRICAL_SURFACE('',#119,4.);
#17=CYLINDRICAL_SURFACE('',#125,5.);
#18=CYLINDRICAL_SURFACE('',#129,5.2);
#19=CYLINDRICAL_SURFACE('',#133,7.);
#20=FACE_BOUND('',#39,.T.);
#21=FACE_BOUND('',#41,.T.);
#22=FACE_BOUND('',#43,.T.);
#23=FACE_BOUND('',#45,.T.);
#24=FACE_BOUND('',#47,.T.);
#25=FACE_BOUND('',#49,.T.);
#26=FACE_BOUND('',#51,.T.);
#27=FACE_BOUND('',#53,.T.);
#28=FACE_BOUND('',#55,.T.);
#29=FACE_OUTER_BOUND('',#38,.T.);
#30=FACE_OUTER_BOUND('',#40,.T.);
#31=FACE_OUTER_BOUND('',#42,.T.);
#32=FACE_OUTER_BOUND('',#44,.T.);
#33=FACE_OUTER_BOUND('',#46,.T.);
#34=FACE_OUTER_BOUND('',#48,.T.);
#35=FACE_OUTER_BOUND('',#50,.T.);
#36=FACE_OUTER_BOUND('',#52,.T.);
#37=FACE_OUTER_BOUND('',#54,.T.);
#38=EDGE_LOOP('',(#83));
#39=EDGE_LOOP('',(#84));
#40=EDGE_LOOP('',(#85));
#41=EDGE_LOOP('',(#86));
#42=EDGE_LOOP('',(#87));
#43=EDGE_LOOP('',(#88));
#44=EDGE_LOOP('',(#89));
#45=EDGE_LOOP('',(#90));
#46=EDGE_LOOP('',(#91));
#47=EDGE_LOOP('',(#92));
#48=EDGE_LOOP('',(#93));
#49=EDGE_LOOP('',(#94));
#50=EDGE_LOOP('',(#95));
#51=EDGE_LOOP('',(#96));
#52=EDGE_LOOP('',(#97));
#53=EDGE_LOOP('',(#98));
#54=EDGE_LOOP('',(#99));
#55=EDGE_LOOP('',(#100));
#56=CIRCLE('',#117,7.);
#57=CIRCLE('',#118,4.);
#58=CIRCLE('',#120,4.);
#59=CIRCLE('',#122,4.5);
#60=CIRCLE('',#124,5.);
#61=CIRCLE('',#126,5.);
#62=CIRCLE('',#128,5.2);
#63=CIRCLE('',#130,5.2);
#64=CIRCLE('',#132,7.);
#65=VERTEX_POINT('',#174);
#66=VERTEX_POINT('',#176);
#67=VERTEX_POINT('',#179);
#68=VERTEX_POINT('',#182);
#69=VERTEX_POINT('',#185);
#70=VERTEX_POINT('',#188);
#71=VERTEX_POINT('',#191);
#72=VERTEX_POINT('',#194);
#73=VERTEX_POINT('',#197);
#74=EDGE_CURVE('',#65,#65,#56,.T.);
#75=EDGE_CURVE('',#66,#66,#57,.T.);
#76=EDGE_CURVE('',#67,#67,#58,.T.);
#77=EDGE_CURVE('',#68,#68,#59,.T.);
#78=EDGE_CURVE('',#69,#69,#60,.T.);
#79=EDGE_CURVE('',#70,#70,#61,.T.);
#80=EDGE_CURVE('',#71,#71,#62,.T.);
#81=EDGE_CURVE('',#72,#72,#63,.T.);
#82=EDGE_CURVE('',#73,#73,#64,.T.);
#83=ORIENTED_EDGE('',*,*,#74,.T.);
#84=ORIENTED_EDGE('',*,*,#75,.F.);
#85=ORIENTED_EDGE('',*,*,#76,.F.);
#86=ORIENTED_EDGE('',*,*,#75,.T.);
#87=ORIENTED_EDGE('',*,*,#77,.F.);
#88=ORIENTED_EDGE('',*,*,#76,.T.);
#89=ORIENTED_EDGE('',*,*,#78,.F.);
#90=ORIENTED_EDGE('',*,*,#77,.T.);
#91=ORIENTED_EDGE('',*,*,#79,.F.);
#92=ORIENTED_EDGE('',*,*,#78,.T.);
#93=ORIENTED_EDGE('',*,*,#80,.F.);
#94=ORIENTED_EDGE('',*,*,#79,.T.);
#95=ORIENTED_EDGE('',*,*,#81,.F.);
#96=ORIENTED_EDGE('',*,*,#80,.T.);
#97=ORIENTED_EDGE('',*,*,#82,.F.);
#98=ORIENTED_EDGE('',*,*,#81,.T.);
#99=ORIENTED_EDGE('',*,*,#74,.F.);
#100=ORIENTED_EDGE('',*,*,#82,.T.);
#101=PLANE('',#116);
#102=PLANE('',#121);
#103=PLANE('',#127);
#104=PLANE('',#131);
#105=ADVANCED_FACE('',(#29,#20),#101,.T.);
#106=ADVANCED_FACE('',(#30,#21),#16,.F.);
#107=ADVANCED_FACE('',(#31,#22),#102,.T.);
#108=ADVANCED_FACE('',(#32,#23),#15,.T.);
#109=ADVANCED_FACE('',(#33,#24),#17,.T.);
#110=ADVANCED_FACE('',(#34,#25),#103,.T.);
#111=ADVANCED_FACE('',(#35,#26),#18,.T.);
#112=ADVANCED_FACE('',(#36,#27),#104,.T.);
#113=ADVANCED_FACE('',(#37,#28),#19,.T.);
#114=CLOSED_SHELL('',(#105,#106,#107,#108,#109,#110,#111,#112,#113));
#115=AXIS2_PLACEMENT_3D('placement',#172,#134,#135);
#116=AXIS2_PLACEMENT_3D('',#173,#136,#137);
#117=AXIS2_PLACEMENT_3D('',#175,#138,#139);
#118=AXIS2_PLACEMENT_3D('',#177,#140,#141);
#119=AXIS2_PLACEMENT_3D('',#178,#142,#143);
#120=AXIS2_PLACEMENT_3D('',#180,#144,#145);
#121=AXIS2_PLACEMENT_3D('',#181,#146,#147);
#122=AXIS2_PLACEMENT_3D('',#183,#148,#149);
#123=AXIS2_PLACEMENT_3D('',#184,#150,#151);
#124=AXIS2_PLACEMENT_3D('',#186,#152,#153);
#125=AXIS2_PLACEMENT_3D('',#187,#154,#155);
#126=AXIS2_PLACEMENT_3D('',#189,#156,#157);
#127=AXIS2_PLACEMENT_3D('',#190,#158,#159);
#128=AXIS2_PLACEMENT_3D('',#192,#160,#161);
#129=AXIS2_PLACEMENT_3D('',#193,#162,#163);
#130=AXIS2_PLACEMENT_3D('',#195,#164,#165);
#131=AXIS2_PLACEMENT_3D('',#196,#166,#167);
#132=AXIS2_PLACEMENT_3D('',#198,#168,#169);
#133=AXIS2_PLACEMENT_3D('',#199,#170,#171);
#134=DIRECTION('axis',(0.,0.,1.));
#135=DIRECTION('refdir',(1.,0.,0.));
#136=DIRECTION('center_axis',(0.,1.,0.));
#137=DIRECTION('ref_axis',(0.,0.,1.));
#138=DIRECTION('center_axis',(0.,1.,0.));
#139=DIRECTION('ref_axis',(-1.,0.,0.));
#140=DIRECTION('center_axis',(0.,1.,0.));
#141=DIRECTION('ref_axis',(-1.,0.,0.));
#142=DIRECTION('center_axis',(0.,1.,0.));
#143=DIRECTION('ref_axis',(-1.,0.,0.));
#144=DIRECTION('center_axis',(0.,1.,0.));
#145=DIRECTION('ref_axis',(-1.,0.,0.));
#146=DIRECTION('center_axis',(0.,-1.,0.));
#147=DIRECTION('ref_axis',(0.,0.,-1.));
#148=DIRECTION('center_axis',(0.,1.,0.));
#149=DIRECTION('ref_axis',(-1.,0.,0.));
#150=DIRECTION('center_axis',(0.,1.,0.));
#151=DIRECTION('ref_axis',(-1.,0.,0.));
#152=DIRECTION('center_axis',(0.,1.,0.));
#153=DIRECTION('ref_axis',(-1.,0.,0.));
#154=DIRECTION('center_axis',(0.,1.,0.));
#155=DIRECTION('ref_axis',(-1.,0.,0.));
#156=DIRECTION('center_axis',(0.,1.,0.));
#157=DIRECTION('ref_axis',(-1.,0.,0.));
#158=DIRECTION('center_axis',(0.,-1.,0.));
#159=DIRECTION('ref_axis',(0.,0.,-1.));
#160=DIRECTION('center_axis',(0.,1.,0.));
#161=DIRECTION('ref_axis',(-1.,0.,0.));
#162=DIRECTION('center_axis',(0.,1.,0.));
#163=DIRECTION('ref_axis',(-1.,0.,0.));
#164=DIRECTION('center_axis',(0.,1.,0.));
#165=DIRECTION('ref_axis',(-1.,0.,0.));
#166=DIRECTION('center_axis',(0.,-1.,0.));
#167=DIRECTION('ref_axis',(0.,0.,-1.));
#168=DIRECTION('center_axis',(0.,1.,0.));
#169=DIRECTION('ref_axis',(-1.,0.,0.));
#170=DIRECTION('center_axis',(0.,1.,0.));
#171=DIRECTION('ref_axis',(-1.,0.,0.));
#172=CARTESIAN_POINT('',(0.,0.,0.));
#173=CARTESIAN_POINT('Origin',(-5.5,14.,0.));
#174=CARTESIAN_POINT('',(-7.,14.,0.));
#175=CARTESIAN_POINT('Origin',(0.,14.,0.));
#176=CARTESIAN_POINT('',(-4.,14.,0.));
#177=CARTESIAN_POINT('Origin',(0.,14.,0.));
#178=CARTESIAN_POINT('Origin',(0.,7.36049621648681,0.));
#179=CARTESIAN_POINT('',(-4.,0.720992432973626,0.));
#180=CARTESIAN_POINT('Origin',(0.,0.720992432973626,0.));
#181=CARTESIAN_POINT('Origin',(-4.25,0.720992432973626,0.));
#182=CARTESIAN_POINT('',(-4.5,0.720992432973626,0.));
#183=CARTESIAN_POINT('Origin',(0.,0.720992432973626,0.));
#184=CARTESIAN_POINT('Origin',(0.,0.970992432973627,0.));
#185=CARTESIAN_POINT('',(-5.,1.22099243297363,0.));
#186=CARTESIAN_POINT('Origin',(0.,1.22099243297363,0.));
#187=CARTESIAN_POINT('Origin',(0.,3.86049621648681,0.));
#188=CARTESIAN_POINT('',(-5.,6.5,0.));
#189=CARTESIAN_POINT('Origin',(0.,6.5,0.));
#190=CARTESIAN_POINT('Origin',(-5.1,6.5,0.));
#191=CARTESIAN_POINT('',(-5.2,6.5,0.));
#192=CARTESIAN_POINT('Origin',(0.,6.5,0.));
#193=CARTESIAN_POINT('Origin',(0.,9.5,0.));
#194=CARTESIAN_POINT('',(-5.2,12.5,0.));
#195=CARTESIAN_POINT('Origin',(0.,12.5,0.));
#196=CARTESIAN_POINT('Origin',(-6.1,12.5,0.));
#197=CARTESIAN_POINT('',(-7.,12.5,0.));
#198=CARTESIAN_POINT('Origin',(0.,12.5,0.));
#199=CARTESIAN_POINT('Origin',(0.,13.25,0.));
#200=UNCERTAINTY_MEASURE_WITH_UNIT(LENGTH_MEASURE(0.01),#204,
'DISTANCE_ACCURACY_VALUE',
'Maximum model space distance between geometric entities at asserted c
onnectivities');
#201=UNCERTAINTY_MEASURE_WITH_UNIT(LENGTH_MEASURE(1.E-6),#204,
'DISTANCE_ACCURACY_VALUE',
'Maximum model space distance between geometric entities at asserted c
onnectivities');
#202=(
GEOMETRIC_REPRESENTATION_CONTEXT(3)
GLOBAL_UNCERTAINTY_ASSIGNED_CONTEXT((#200))
GLOBAL_UNIT_ASSIGNED_CONTEXT((#204,#207,#205))
REPRESENTATION_CONTEXT('','3D')
);
#203=(
GEOMETRIC_REPRESENTATION_CONTEXT(3)
GLOBAL_UNCERTAINTY_ASSIGNED_CONTEXT((#201))
GLOBAL_UNIT_ASSIGNED_CONTEXT((#204,#207,#205))
REPRESENTATION_CONTEXT('','3D')
);
#204=(
LENGTH_UNIT()
NAMED_UNIT(*)
SI_UNIT(.MILLI.,.METRE.)
);
#205=(
NAMED_UNIT(*)
SI_UNIT($,.STERADIAN.)
SOLID_ANGLE_UNIT()
);
#206=DIMENSIONAL_EXPONENTS(0.,0.,0.,0.,0.,0.,0.);
#207=(
CONVERSION_BASED_UNIT('degree',#209)
NAMED_UNIT(#206)
PLANE_ANGLE_UNIT()
);
#208=(
NAMED_UNIT(*)
PLANE_ANGLE_UNIT()
SI_UNIT($,.RADIAN.)
);
#209=PLANE_ANGLE_MEASURE_WITH_UNIT(PLANE_ANGLE_MEASURE(0.01745329252),#208);
#210=SHAPE_DEFINITION_REPRESENTATION(#211,#212);
#211=PRODUCT_DEFINITION_SHAPE('',$,#214);
#212=SHAPE_REPRESENTATION('',(#115),#202);
#213=PRODUCT_DEFINITION_CONTEXT('part definition',#218,'design');
#214=PRODUCT_DEFINITION('XC30230','XC30230',#215,#213);
#215=PRODUCT_DEFINITION_FORMATION('','G',#220);
#216=PRODUCT_RELATED_PRODUCT_CATEGORY('XC30230','XC30230',(#220));
#217=APPLICATION_PROTOCOL_DEFINITION('international standard',
'automotive_design',2009,#218);
#218=APPLICATION_CONTEXT(
'Core Data for Automotive Mechanical Design Process');
#219=PRODUCT_CONTEXT('part definition',#218,'mechanical');
#220=PRODUCT('XC30230','XC30230',$,(#219));
#221=PRESENTATION_STYLE_ASSIGNMENT((#222));
#222=SURFACE_STYLE_USAGE(.BOTH.,#223);
#223=SURFACE_SIDE_STYLE('',(#224));
#224=SURFACE_STYLE_FILL_AREA(#225);
#225=FILL_AREA_STYLE('',(#226));
#226=FILL_AREA_STYLE_COLOUR('',#227);
#227=COLOUR_RGB('',0.16078431372549,0.16078431372549,0.16078431372549);
ENDSEC;
END-ISO-10303-21;
