ISO-10303-21;
HEADER;
/* Generated by software containing ST-Developer
 * from STEP Tools, Inc. (www.steptools.com) 
 */

FILE_DESCRIPTION(
/* description */ ('Translator using VaultInventorServer'),
/* implementation_level */ '2;1');

FILE_NAME(
/* name */ 'C:\\DIERRE19\\Designs\\DIERRE\\BL\\DBLXX0000199_B.stp',
/* time_stamp */ '2023-04-24T13:13:11+02:00',
/* author */ ('fzagni'),
/* organization */ (''),
/* preprocessor_version */ 'ST-DEVELOPER v18.1',
/* originating_system */ 'Autodesk Inventor 2022',
/* authorisation */ '');

FILE_SCHEMA (('AUTOMOTIVE_DESIGN { 1 0 10303 214 3 1 1 }'));
ENDSEC;

DATA;
#10=MECHANICAL_DESIGN_GEOMETRIC_PRESENTATION_REPRESENTATION('',(#13),#579);
#11=SHAPE_REPRESENTATION_RELATIONSHIP('SRR','None',#586,#12);
#12=ADVANCED_BREP_SHAPE_REPRESENTATION('',(#14),#578);
#13=STYLED_ITEM('',(#595),#14);
#14=MANIFOLD_SOLID_BREP('Solido1',#346);
#15=LINE('',#491,#54);
#16=LINE('',#494,#55);
#17=LINE('',#499,#56);
#18=LINE('',#501,#57);
#19=LINE('',#503,#58);
#20=LINE('',#504,#59);
#21=LINE('',#508,#60);
#22=LINE('',#510,#61);
#23=LINE('',#512,#62);
#24=LINE('',#513,#63);
#25=LINE('',#515,#64);
#26=LINE('',#516,#65);
#27=LINE('',#518,#66);
#28=LINE('',#522,#67);
#29=LINE('',#524,#68);
#30=LINE('',#526,#69);
#31=LINE('',#527,#70);
#32=LINE('',#530,#71);
#33=LINE('',#532,#72);
#34=LINE('',#533,#73);
#35=LINE('',#536,#74);
#36=LINE('',#538,#75);
#37=LINE('',#539,#76);
#38=LINE('',#541,#77);
#39=LINE('',#544,#78);
#40=LINE('',#546,#79);
#41=LINE('',#547,#80);
#42=LINE('',#549,#81);
#43=LINE('',#551,#82);
#44=LINE('',#552,#83);
#45=LINE('',#557,#84);
#46=LINE('',#561,#85);
#47=LINE('',#563,#86);
#48=LINE('',#564,#87);
#49=LINE('',#567,#88);
#50=LINE('',#569,#89);
#51=LINE('',#570,#90);
#52=LINE('',#572,#91);
#53=LINE('',#573,#92);
#54=VECTOR('',#405,5.25);
#55=VECTOR('',#408,3.25);
#56=VECTOR('',#413,10.);
#57=VECTOR('',#414,10.);
#58=VECTOR('',#415,10.);
#59=VECTOR('',#416,10.);
#60=VECTOR('',#419,10.);
#61=VECTOR('',#420,10.);
#62=VECTOR('',#421,10.);
#63=VECTOR('',#422,10.);
#64=VECTOR('',#425,10.);
#65=VECTOR('',#426,10.);
#66=VECTOR('',#429,10.);
#67=VECTOR('',#432,10.);
#68=VECTOR('',#433,10.);
#69=VECTOR('',#434,10.);
#70=VECTOR('',#435,10.);
#71=VECTOR('',#438,10.);
#72=VECTOR('',#439,10.);
#73=VECTOR('',#440,10.);
#74=VECTOR('',#443,10.);
#75=VECTOR('',#444,10.);
#76=VECTOR('',#445,10.);
#77=VECTOR('',#448,10.);
#78=VECTOR('',#451,10.);
#79=VECTOR('',#452,10.);
#80=VECTOR('',#453,10.);
#81=VECTOR('',#454,10.);
#82=VECTOR('',#455,10.);
#83=VECTOR('',#456,10.);
#84=VECTOR('',#461,2.4585);
#85=VECTOR('',#466,10.);
#86=VECTOR('',#467,10.);
#87=VECTOR('',#468,10.);
#88=VECTOR('',#471,10.);
#89=VECTOR('',#472,10.);
#90=VECTOR('',#473,10.);
#91=VECTOR('',#476,10.);
#92=VECTOR('',#477,10.);
#93=CYLINDRICAL_SURFACE('',#372,5.25);
#94=CYLINDRICAL_SURFACE('',#374,3.25);
#95=CYLINDRICAL_SURFACE('',#385,2.4585);
#96=FACE_BOUND('',#120,.T.);
#97=FACE_BOUND('',#132,.T.);
#98=FACE_BOUND('',#136,.T.);
#99=FACE_BOUND('',#139,.T.);
#100=FACE_BOUND('',#141,.T.);
#101=FACE_OUTER_BOUND('',#119,.T.);
#102=FACE_OUTER_BOUND('',#121,.T.);
#103=FACE_OUTER_BOUND('',#122,.T.);
#104=FACE_OUTER_BOUND('',#123,.T.);
#105=FACE_OUTER_BOUND('',#124,.T.);
#106=FACE_OUTER_BOUND('',#125,.T.);
#107=FACE_OUTER_BOUND('',#126,.T.);
#108=FACE_OUTER_BOUND('',#127,.T.);
#109=FACE_OUTER_BOUND('',#128,.T.);
#110=FACE_OUTER_BOUND('',#129,.T.);
#111=FACE_OUTER_BOUND('',#130,.T.);
#112=FACE_OUTER_BOUND('',#131,.T.);
#113=FACE_OUTER_BOUND('',#133,.T.);
#114=FACE_OUTER_BOUND('',#134,.T.);
#115=FACE_OUTER_BOUND('',#135,.T.);
#116=FACE_OUTER_BOUND('',#137,.T.);
#117=FACE_OUTER_BOUND('',#138,.T.);
#118=FACE_OUTER_BOUND('',#140,.T.);
#119=EDGE_LOOP('',(#223));
#120=EDGE_LOOP('',(#224));
#121=EDGE_LOOP('',(#225,#226,#227,#228));
#122=EDGE_LOOP('',(#229,#230,#231,#232));
#123=EDGE_LOOP('',(#233,#234,#235,#236));
#124=EDGE_LOOP('',(#237,#238,#239,#240));
#125=EDGE_LOOP('',(#241,#242,#243,#244));
#126=EDGE_LOOP('',(#245,#246,#247,#248));
#127=EDGE_LOOP('',(#249,#250,#251,#252));
#128=EDGE_LOOP('',(#253,#254,#255,#256));
#129=EDGE_LOOP('',(#257,#258,#259,#260));
#130=EDGE_LOOP('',(#261,#262,#263,#264));
#131=EDGE_LOOP('',(#265,#266,#267,#268,#269,#270,#271,#272,#273,#274,#275,
#276));
#132=EDGE_LOOP('',(#277));
#133=EDGE_LOOP('',(#278,#279,#280,#281));
#134=EDGE_LOOP('',(#282,#283,#284,#285,#286,#287,#288,#289));
#135=EDGE_LOOP('',(#290,#291,#292,#293));
#136=EDGE_LOOP('',(#294));
#137=EDGE_LOOP('',(#295,#296,#297,#298,#299,#300,#301,#302));
#138=EDGE_LOOP('',(#303,#304,#305,#306));
#139=EDGE_LOOP('',(#307));
#140=EDGE_LOOP('',(#308,#309,#310,#311));
#141=EDGE_LOOP('',(#312));
#142=CIRCLE('',#370,5.25);
#143=CIRCLE('',#371,3.25);
#144=CIRCLE('',#373,5.25);
#145=CIRCLE('',#375,3.25);
#146=CIRCLE('',#386,2.4585);
#147=CIRCLE('',#387,2.4585);
#148=VERTEX_POINT('',#484);
#149=VERTEX_POINT('',#486);
#150=VERTEX_POINT('',#489);
#151=VERTEX_POINT('',#493);
#152=VERTEX_POINT('',#497);
#153=VERTEX_POINT('',#498);
#154=VERTEX_POINT('',#500);
#155=VERTEX_POINT('',#502);
#156=VERTEX_POINT('',#506);
#157=VERTEX_POINT('',#507);
#158=VERTEX_POINT('',#509);
#159=VERTEX_POINT('',#511);
#160=VERTEX_POINT('',#520);
#161=VERTEX_POINT('',#521);
#162=VERTEX_POINT('',#523);
#163=VERTEX_POINT('',#525);
#164=VERTEX_POINT('',#529);
#165=VERTEX_POINT('',#531);
#166=VERTEX_POINT('',#535);
#167=VERTEX_POINT('',#537);
#168=VERTEX_POINT('',#543);
#169=VERTEX_POINT('',#545);
#170=VERTEX_POINT('',#548);
#171=VERTEX_POINT('',#550);
#172=VERTEX_POINT('',#554);
#173=VERTEX_POINT('',#556);
#174=VERTEX_POINT('',#560);
#175=VERTEX_POINT('',#562);
#176=VERTEX_POINT('',#566);
#177=VERTEX_POINT('',#568);
#178=EDGE_CURVE('',#148,#148,#142,.T.);
#179=EDGE_CURVE('',#149,#149,#143,.T.);
#180=EDGE_CURVE('',#150,#150,#144,.T.);
#181=EDGE_CURVE('',#150,#148,#15,.T.);
#182=EDGE_CURVE('',#149,#151,#16,.T.);
#183=EDGE_CURVE('',#151,#151,#145,.T.);
#184=EDGE_CURVE('',#152,#153,#17,.T.);
#185=EDGE_CURVE('',#152,#154,#18,.T.);
#186=EDGE_CURVE('',#155,#154,#19,.T.);
#187=EDGE_CURVE('',#153,#155,#20,.T.);
#188=EDGE_CURVE('',#156,#157,#21,.T.);
#189=EDGE_CURVE('',#156,#158,#22,.T.);
#190=EDGE_CURVE('',#159,#158,#23,.T.);
#191=EDGE_CURVE('',#157,#159,#24,.T.);
#192=EDGE_CURVE('',#157,#152,#25,.T.);
#193=EDGE_CURVE('',#154,#159,#26,.T.);
#194=EDGE_CURVE('',#158,#155,#27,.T.);
#195=EDGE_CURVE('',#160,#161,#28,.T.);
#196=EDGE_CURVE('',#160,#162,#29,.T.);
#197=EDGE_CURVE('',#163,#162,#30,.T.);
#198=EDGE_CURVE('',#161,#163,#31,.T.);
#199=EDGE_CURVE('',#161,#164,#32,.T.);
#200=EDGE_CURVE('',#165,#163,#33,.T.);
#201=EDGE_CURVE('',#164,#165,#34,.T.);
#202=EDGE_CURVE('',#164,#166,#35,.T.);
#203=EDGE_CURVE('',#167,#165,#36,.T.);
#204=EDGE_CURVE('',#166,#167,#37,.T.);
#205=EDGE_CURVE('',#162,#167,#38,.T.);
#206=EDGE_CURVE('',#153,#168,#39,.T.);
#207=EDGE_CURVE('',#169,#168,#40,.T.);
#208=EDGE_CURVE('',#160,#169,#41,.T.);
#209=EDGE_CURVE('',#170,#166,#42,.T.);
#210=EDGE_CURVE('',#171,#170,#43,.T.);
#211=EDGE_CURVE('',#171,#156,#44,.T.);
#212=EDGE_CURVE('',#172,#172,#146,.T.);
#213=EDGE_CURVE('',#172,#173,#45,.T.);
#214=EDGE_CURVE('',#173,#173,#147,.T.);
#215=EDGE_CURVE('',#170,#174,#46,.T.);
#216=EDGE_CURVE('',#175,#169,#47,.T.);
#217=EDGE_CURVE('',#174,#175,#48,.T.);
#218=EDGE_CURVE('',#174,#176,#49,.T.);
#219=EDGE_CURVE('',#177,#175,#50,.T.);
#220=EDGE_CURVE('',#176,#177,#51,.T.);
#221=EDGE_CURVE('',#176,#171,#52,.T.);
#222=EDGE_CURVE('',#168,#177,#53,.T.);
#223=ORIENTED_EDGE('',*,*,#178,.T.);
#224=ORIENTED_EDGE('',*,*,#179,.F.);
#225=ORIENTED_EDGE('',*,*,#180,.F.);
#226=ORIENTED_EDGE('',*,*,#181,.T.);
#227=ORIENTED_EDGE('',*,*,#178,.F.);
#228=ORIENTED_EDGE('',*,*,#181,.F.);
#229=ORIENTED_EDGE('',*,*,#179,.T.);
#230=ORIENTED_EDGE('',*,*,#182,.T.);
#231=ORIENTED_EDGE('',*,*,#183,.F.);
#232=ORIENTED_EDGE('',*,*,#182,.F.);
#233=ORIENTED_EDGE('',*,*,#184,.F.);
#234=ORIENTED_EDGE('',*,*,#185,.T.);
#235=ORIENTED_EDGE('',*,*,#186,.F.);
#236=ORIENTED_EDGE('',*,*,#187,.F.);
#237=ORIENTED_EDGE('',*,*,#188,.F.);
#238=ORIENTED_EDGE('',*,*,#189,.T.);
#239=ORIENTED_EDGE('',*,*,#190,.F.);
#240=ORIENTED_EDGE('',*,*,#191,.F.);
#241=ORIENTED_EDGE('',*,*,#192,.F.);
#242=ORIENTED_EDGE('',*,*,#191,.T.);
#243=ORIENTED_EDGE('',*,*,#193,.F.);
#244=ORIENTED_EDGE('',*,*,#185,.F.);
#245=ORIENTED_EDGE('',*,*,#193,.T.);
#246=ORIENTED_EDGE('',*,*,#190,.T.);
#247=ORIENTED_EDGE('',*,*,#194,.T.);
#248=ORIENTED_EDGE('',*,*,#186,.T.);
#249=ORIENTED_EDGE('',*,*,#195,.F.);
#250=ORIENTED_EDGE('',*,*,#196,.T.);
#251=ORIENTED_EDGE('',*,*,#197,.F.);
#252=ORIENTED_EDGE('',*,*,#198,.F.);
#253=ORIENTED_EDGE('',*,*,#199,.F.);
#254=ORIENTED_EDGE('',*,*,#198,.T.);
#255=ORIENTED_EDGE('',*,*,#200,.F.);
#256=ORIENTED_EDGE('',*,*,#201,.F.);
#257=ORIENTED_EDGE('',*,*,#202,.F.);
#258=ORIENTED_EDGE('',*,*,#201,.T.);
#259=ORIENTED_EDGE('',*,*,#203,.F.);
#260=ORIENTED_EDGE('',*,*,#204,.F.);
#261=ORIENTED_EDGE('',*,*,#205,.T.);
#262=ORIENTED_EDGE('',*,*,#203,.T.);
#263=ORIENTED_EDGE('',*,*,#200,.T.);
#264=ORIENTED_EDGE('',*,*,#197,.T.);
#265=ORIENTED_EDGE('',*,*,#188,.T.);
#266=ORIENTED_EDGE('',*,*,#192,.T.);
#267=ORIENTED_EDGE('',*,*,#184,.T.);
#268=ORIENTED_EDGE('',*,*,#206,.T.);
#269=ORIENTED_EDGE('',*,*,#207,.F.);
#270=ORIENTED_EDGE('',*,*,#208,.F.);
#271=ORIENTED_EDGE('',*,*,#195,.T.);
#272=ORIENTED_EDGE('',*,*,#199,.T.);
#273=ORIENTED_EDGE('',*,*,#202,.T.);
#274=ORIENTED_EDGE('',*,*,#209,.F.);
#275=ORIENTED_EDGE('',*,*,#210,.F.);
#276=ORIENTED_EDGE('',*,*,#211,.T.);
#277=ORIENTED_EDGE('',*,*,#183,.T.);
#278=ORIENTED_EDGE('',*,*,#212,.F.);
#279=ORIENTED_EDGE('',*,*,#213,.T.);
#280=ORIENTED_EDGE('',*,*,#214,.F.);
#281=ORIENTED_EDGE('',*,*,#213,.F.);
#282=ORIENTED_EDGE('',*,*,#215,.F.);
#283=ORIENTED_EDGE('',*,*,#209,.T.);
#284=ORIENTED_EDGE('',*,*,#204,.T.);
#285=ORIENTED_EDGE('',*,*,#205,.F.);
#286=ORIENTED_EDGE('',*,*,#196,.F.);
#287=ORIENTED_EDGE('',*,*,#208,.T.);
#288=ORIENTED_EDGE('',*,*,#216,.F.);
#289=ORIENTED_EDGE('',*,*,#217,.F.);
#290=ORIENTED_EDGE('',*,*,#218,.F.);
#291=ORIENTED_EDGE('',*,*,#217,.T.);
#292=ORIENTED_EDGE('',*,*,#219,.F.);
#293=ORIENTED_EDGE('',*,*,#220,.F.);
#294=ORIENTED_EDGE('',*,*,#180,.T.);
#295=ORIENTED_EDGE('',*,*,#221,.F.);
#296=ORIENTED_EDGE('',*,*,#220,.T.);
#297=ORIENTED_EDGE('',*,*,#222,.F.);
#298=ORIENTED_EDGE('',*,*,#206,.F.);
#299=ORIENTED_EDGE('',*,*,#187,.T.);
#300=ORIENTED_EDGE('',*,*,#194,.F.);
#301=ORIENTED_EDGE('',*,*,#189,.F.);
#302=ORIENTED_EDGE('',*,*,#211,.F.);
#303=ORIENTED_EDGE('',*,*,#210,.T.);
#304=ORIENTED_EDGE('',*,*,#215,.T.);
#305=ORIENTED_EDGE('',*,*,#218,.T.);
#306=ORIENTED_EDGE('',*,*,#221,.T.);
#307=ORIENTED_EDGE('',*,*,#214,.T.);
#308=ORIENTED_EDGE('',*,*,#207,.T.);
#309=ORIENTED_EDGE('',*,*,#222,.T.);
#310=ORIENTED_EDGE('',*,*,#219,.T.);
#311=ORIENTED_EDGE('',*,*,#216,.T.);
#312=ORIENTED_EDGE('',*,*,#212,.T.);
#313=PLANE('',#369);
#314=PLANE('',#376);
#315=PLANE('',#377);
#316=PLANE('',#378);
#317=PLANE('',#379);
#318=PLANE('',#380);
#319=PLANE('',#381);
#320=PLANE('',#382);
#321=PLANE('',#383);
#322=PLANE('',#384);
#323=PLANE('',#388);
#324=PLANE('',#389);
#325=PLANE('',#390);
#326=PLANE('',#391);
#327=PLANE('',#392);
#328=ADVANCED_FACE('',(#101,#96),#313,.T.);
#329=ADVANCED_FACE('',(#102),#93,.F.);
#330=ADVANCED_FACE('',(#103),#94,.F.);
#331=ADVANCED_FACE('',(#104),#314,.T.);
#332=ADVANCED_FACE('',(#105),#315,.T.);
#333=ADVANCED_FACE('',(#106),#316,.T.);
#334=ADVANCED_FACE('',(#107),#317,.T.);
#335=ADVANCED_FACE('',(#108),#318,.T.);
#336=ADVANCED_FACE('',(#109),#319,.T.);
#337=ADVANCED_FACE('',(#110),#320,.T.);
#338=ADVANCED_FACE('',(#111),#321,.T.);
#339=ADVANCED_FACE('',(#112,#97),#322,.T.);
#340=ADVANCED_FACE('',(#113),#95,.F.);
#341=ADVANCED_FACE('',(#114),#323,.T.);
#342=ADVANCED_FACE('',(#115,#98),#324,.T.);
#343=ADVANCED_FACE('',(#116),#325,.T.);
#344=ADVANCED_FACE('',(#117,#99),#326,.F.);
#345=ADVANCED_FACE('',(#118,#100),#327,.T.);
#346=CLOSED_SHELL('',(#328,#329,#330,#331,#332,#333,#334,#335,#336,#337,
#338,#339,#340,#341,#342,#343,#344,#345));
#347=DERIVED_UNIT_ELEMENT(#350,1.);
#348=DERIVED_UNIT_ELEMENT(#581,-3.);
#349=DIMENSIONAL_EXPONENTS(1.,0.,0.,0.,0.,0.,0.);
#350=(
CONVERSION_BASED_UNIT('gram',#352)
MASS_UNIT()
NAMED_UNIT(#349)
);
#351=(
MASS_UNIT()
NAMED_UNIT(*)
SI_UNIT(.KILO.,.GRAM.)
);
#352=MASS_MEASURE_WITH_UNIT(MASS_MEASURE(0.001),#351);
#353=DERIVED_UNIT((#347,#348));
#354=MEASURE_REPRESENTATION_ITEM('density measure',
POSITIVE_RATIO_MEASURE(1.13),#353);
#355=PROPERTY_DEFINITION_REPRESENTATION(#360,#357);
#356=PROPERTY_DEFINITION_REPRESENTATION(#361,#358);
#357=REPRESENTATION('material name',(#359),#578);
#358=REPRESENTATION('density',(#354),#578);
#359=DESCRIPTIVE_REPRESENTATION_ITEM('Nylon 6/6','Nylon 6/6');
#360=PROPERTY_DEFINITION('material property','material name',#588);
#361=PROPERTY_DEFINITION('material property','density of part',#588);
#362=DATE_TIME_ROLE('creation_date');
#363=APPLIED_DATE_AND_TIME_ASSIGNMENT(#364,#362,(#588));
#364=DATE_AND_TIME(#365,#366);
#365=CALENDAR_DATE(2018,18,4);
#366=LOCAL_TIME(0,0,0.,#367);
#367=COORDINATED_UNIVERSAL_TIME_OFFSET(0,0,.BEHIND.);
#368=AXIS2_PLACEMENT_3D('placement',#482,#393,#394);
#369=AXIS2_PLACEMENT_3D('',#483,#395,#396);
#370=AXIS2_PLACEMENT_3D('',#485,#397,#398);
#371=AXIS2_PLACEMENT_3D('',#487,#399,#400);
#372=AXIS2_PLACEMENT_3D('',#488,#401,#402);
#373=AXIS2_PLACEMENT_3D('',#490,#403,#404);
#374=AXIS2_PLACEMENT_3D('',#492,#406,#407);
#375=AXIS2_PLACEMENT_3D('',#495,#409,#410);
#376=AXIS2_PLACEMENT_3D('',#496,#411,#412);
#377=AXIS2_PLACEMENT_3D('',#505,#417,#418);
#378=AXIS2_PLACEMENT_3D('',#514,#423,#424);
#379=AXIS2_PLACEMENT_3D('',#517,#427,#428);
#380=AXIS2_PLACEMENT_3D('',#519,#430,#431);
#381=AXIS2_PLACEMENT_3D('',#528,#436,#437);
#382=AXIS2_PLACEMENT_3D('',#534,#441,#442);
#383=AXIS2_PLACEMENT_3D('',#540,#446,#447);
#384=AXIS2_PLACEMENT_3D('',#542,#449,#450);
#385=AXIS2_PLACEMENT_3D('',#553,#457,#458);
#386=AXIS2_PLACEMENT_3D('',#555,#459,#460);
#387=AXIS2_PLACEMENT_3D('',#558,#462,#463);
#388=AXIS2_PLACEMENT_3D('',#559,#464,#465);
#389=AXIS2_PLACEMENT_3D('',#565,#469,#470);
#390=AXIS2_PLACEMENT_3D('',#571,#474,#475);
#391=AXIS2_PLACEMENT_3D('',#574,#478,#479);
#392=AXIS2_PLACEMENT_3D('',#575,#480,#481);
#393=DIRECTION('axis',(0.,0.,1.));
#394=DIRECTION('refdir',(1.,0.,0.));
#395=DIRECTION('center_axis',(0.,-1.,0.));
#396=DIRECTION('ref_axis',(1.,0.,0.));
#397=DIRECTION('center_axis',(0.,-1.,0.));
#398=DIRECTION('ref_axis',(1.,0.,0.));
#399=DIRECTION('center_axis',(0.,-1.,0.));
#400=DIRECTION('ref_axis',(1.,0.,0.));
#401=DIRECTION('center_axis',(0.,-1.,0.));
#402=DIRECTION('ref_axis',(1.,0.,0.));
#403=DIRECTION('center_axis',(0.,1.,0.));
#404=DIRECTION('ref_axis',(1.,0.,0.));
#405=DIRECTION('',(0.,1.,0.));
#406=DIRECTION('center_axis',(0.,-1.,0.));
#407=DIRECTION('ref_axis',(1.,0.,0.));
#408=DIRECTION('',(0.,1.,0.));
#409=DIRECTION('center_axis',(0.,-1.,0.));
#410=DIRECTION('ref_axis',(1.,0.,0.));
#411=DIRECTION('center_axis',(0.,0.,1.));
#412=DIRECTION('ref_axis',(1.,0.,0.));
#413=DIRECTION('',(-1.,0.,0.));
#414=DIRECTION('',(0.,1.,0.));
#415=DIRECTION('',(1.,0.,0.));
#416=DIRECTION('',(0.,1.,0.));
#417=DIRECTION('center_axis',(0.,0.,-1.));
#418=DIRECTION('ref_axis',(-1.,0.,0.));
#419=DIRECTION('',(1.,0.,0.));
#420=DIRECTION('',(0.,1.,0.));
#421=DIRECTION('',(-1.,0.,0.));
#422=DIRECTION('',(0.,1.,0.));
#423=DIRECTION('center_axis',(1.,0.,0.));
#424=DIRECTION('ref_axis',(0.,0.,-1.));
#425=DIRECTION('',(0.,0.,1.));
#426=DIRECTION('',(0.,0.,-1.));
#427=DIRECTION('center_axis',(0.,1.,0.));
#428=DIRECTION('ref_axis',(0.,0.,1.));
#429=DIRECTION('',(0.,0.,1.));
#430=DIRECTION('center_axis',(0.,0.,1.));
#431=DIRECTION('ref_axis',(1.,0.,0.));
#432=DIRECTION('',(-1.,0.,0.));
#433=DIRECTION('',(0.,1.,0.));
#434=DIRECTION('',(1.,0.,0.));
#435=DIRECTION('',(0.,1.,0.));
#436=DIRECTION('center_axis',(-1.,0.,0.));
#437=DIRECTION('ref_axis',(0.,0.,1.));
#438=DIRECTION('',(0.,0.,-1.));
#439=DIRECTION('',(0.,0.,1.));
#440=DIRECTION('',(0.,1.,0.));
#441=DIRECTION('center_axis',(0.,0.,-1.));
#442=DIRECTION('ref_axis',(-1.,0.,0.));
#443=DIRECTION('',(1.,0.,0.));
#444=DIRECTION('',(-1.,0.,0.));
#445=DIRECTION('',(0.,1.,0.));
#446=DIRECTION('center_axis',(0.,1.,0.));
#447=DIRECTION('ref_axis',(0.,0.,1.));
#448=DIRECTION('',(0.,0.,-1.));
#449=DIRECTION('center_axis',(0.,1.,0.));
#450=DIRECTION('ref_axis',(-1.,0.,0.));
#451=DIRECTION('',(0.,0.,1.));
#452=DIRECTION('',(-1.,0.,0.));
#453=DIRECTION('',(0.,0.,1.));
#454=DIRECTION('',(0.,0.,1.));
#455=DIRECTION('',(1.,0.,0.));
#456=DIRECTION('',(0.,0.,1.));
#457=DIRECTION('center_axis',(0.,0.,1.));
#458=DIRECTION('ref_axis',(1.,0.,0.));
#459=DIRECTION('center_axis',(0.,0.,-1.));
#460=DIRECTION('ref_axis',(1.,0.,0.));
#461=DIRECTION('',(0.,0.,-1.));
#462=DIRECTION('center_axis',(0.,0.,1.));
#463=DIRECTION('ref_axis',(1.,0.,0.));
#464=DIRECTION('center_axis',(1.,0.,0.));
#465=DIRECTION('ref_axis',(0.,1.,0.));
#466=DIRECTION('',(0.,-1.,0.));
#467=DIRECTION('',(0.,1.,0.));
#468=DIRECTION('',(0.,0.,1.));
#469=DIRECTION('center_axis',(0.,-1.,0.));
#470=DIRECTION('ref_axis',(1.,0.,0.));
#471=DIRECTION('',(-1.,0.,0.));
#472=DIRECTION('',(1.,0.,0.));
#473=DIRECTION('',(0.,0.,1.));
#474=DIRECTION('center_axis',(-1.,0.,0.));
#475=DIRECTION('ref_axis',(0.,-1.,0.));
#476=DIRECTION('',(0.,1.,0.));
#477=DIRECTION('',(0.,-1.,0.));
#478=DIRECTION('center_axis',(0.,0.,1.));
#479=DIRECTION('ref_axis',(1.,0.,0.));
#480=DIRECTION('center_axis',(0.,0.,1.));
#481=DIRECTION('ref_axis',(1.,0.,0.));
#482=CARTESIAN_POINT('',(0.,0.,0.));
#483=CARTESIAN_POINT('Origin',(-5.,0.,16.5));
#484=CARTESIAN_POINT('',(-10.25,0.,16.5));
#485=CARTESIAN_POINT('Origin',(-5.,0.,16.5));
#486=CARTESIAN_POINT('',(-8.25,-1.11022302462516E-15,16.5));
#487=CARTESIAN_POINT('Origin',(-5.,-1.11022302462516E-15,16.5));
#488=CARTESIAN_POINT('Origin',(-5.,-3.25,16.5));
#489=CARTESIAN_POINT('',(-10.25,-6.5,16.5));
#490=CARTESIAN_POINT('Origin',(-5.,-6.5,16.5));
#491=CARTESIAN_POINT('',(-10.25,-3.25,16.5));
#492=CARTESIAN_POINT('Origin',(-5.,34.6217703899042,16.5));
#493=CARTESIAN_POINT('',(-8.25,6.5,16.5));
#494=CARTESIAN_POINT('',(-8.25,34.6217703899042,16.5));
#495=CARTESIAN_POINT('Origin',(-5.,6.5,16.5));
#496=CARTESIAN_POINT('Origin',(-12.5,6.5,20.5));
#497=CARTESIAN_POINT('',(-10.5,6.5,20.5));
#498=CARTESIAN_POINT('',(-12.5,6.5,20.5));
#499=CARTESIAN_POINT('',(1.11022302462516E-15,6.5,20.5));
#500=CARTESIAN_POINT('',(-10.5,8.5,20.5));
#501=CARTESIAN_POINT('',(-10.5,6.5,20.5));
#502=CARTESIAN_POINT('',(-12.5,8.5,20.5));
#503=CARTESIAN_POINT('',(-12.5,8.5,20.5));
#504=CARTESIAN_POINT('',(-12.5,6.5,20.5));
#505=CARTESIAN_POINT('Origin',(-10.5,6.5,12.5));
#506=CARTESIAN_POINT('',(-12.5,6.5,12.5));
#507=CARTESIAN_POINT('',(-10.5,6.5,12.5));
#508=CARTESIAN_POINT('',(1.,6.5,12.5));
#509=CARTESIAN_POINT('',(-12.5,8.5,12.5));
#510=CARTESIAN_POINT('',(-12.5,6.5,12.5));
#511=CARTESIAN_POINT('',(-10.5,8.5,12.5));
#512=CARTESIAN_POINT('',(-10.5,8.5,12.5));
#513=CARTESIAN_POINT('',(-10.5,6.5,12.5));
#514=CARTESIAN_POINT('Origin',(-10.5,6.5,20.5));
#515=CARTESIAN_POINT('',(-10.5,6.5,10.25));
#516=CARTESIAN_POINT('',(-10.5,8.5,20.5));
#517=CARTESIAN_POINT('Origin',(-11.5,8.5,16.5));
#518=CARTESIAN_POINT('',(-12.5,8.5,12.5));
#519=CARTESIAN_POINT('Origin',(0.499999999999998,6.5,20.5));
#520=CARTESIAN_POINT('',(12.5,6.5,20.5));
#521=CARTESIAN_POINT('',(0.499999999999998,6.5,20.5));
#522=CARTESIAN_POINT('',(6.5,6.5,20.5));
#523=CARTESIAN_POINT('',(12.5,8.5,20.5));
#524=CARTESIAN_POINT('',(12.5,6.5,20.5));
#525=CARTESIAN_POINT('',(0.499999999999998,8.5,20.5));
#526=CARTESIAN_POINT('',(0.499999999999998,8.5,20.5));
#527=CARTESIAN_POINT('',(0.499999999999998,6.5,20.5));
#528=CARTESIAN_POINT('Origin',(0.499999999999998,6.5,12.5));
#529=CARTESIAN_POINT('',(0.499999999999998,6.5,12.5));
#530=CARTESIAN_POINT('',(0.499999999999998,6.5,6.25));
#531=CARTESIAN_POINT('',(0.499999999999998,8.5,12.5));
#532=CARTESIAN_POINT('',(0.499999999999998,8.5,12.5));
#533=CARTESIAN_POINT('',(0.499999999999998,6.5,12.5));
#534=CARTESIAN_POINT('Origin',(12.5,6.5,12.5));
#535=CARTESIAN_POINT('',(12.5,6.5,12.5));
#536=CARTESIAN_POINT('',(12.5,6.5,12.5));
#537=CARTESIAN_POINT('',(12.5,8.5,12.5));
#538=CARTESIAN_POINT('',(12.5,8.5,12.5));
#539=CARTESIAN_POINT('',(12.5,6.5,12.5));
#540=CARTESIAN_POINT('Origin',(6.5,8.5,16.5));
#541=CARTESIAN_POINT('',(12.5,8.5,20.5));
#542=CARTESIAN_POINT('Origin',(12.5,6.5,0.));
#543=CARTESIAN_POINT('',(-12.5,6.5,29.));
#544=CARTESIAN_POINT('',(-12.5,6.5,0.));
#545=CARTESIAN_POINT('',(12.5,6.5,29.));
#546=CARTESIAN_POINT('',(-12.5,6.5,29.));
#547=CARTESIAN_POINT('',(12.5,6.5,0.));
#548=CARTESIAN_POINT('',(12.5,6.5,0.));
#549=CARTESIAN_POINT('',(12.5,6.5,0.));
#550=CARTESIAN_POINT('',(-12.5,6.5,0.));
#551=CARTESIAN_POINT('',(-12.5,6.5,0.));
#552=CARTESIAN_POINT('',(-12.5,6.5,0.));
#553=CARTESIAN_POINT('Origin',(6.,0.,-11.4351332383115));
#554=CARTESIAN_POINT('',(3.5415,-3.01079415570377E-16,29.));
#555=CARTESIAN_POINT('Origin',(6.,0.,29.));
#556=CARTESIAN_POINT('',(3.5415,-3.01079415570377E-16,0.));
#557=CARTESIAN_POINT('',(3.5415,-3.01079415570377E-16,-11.4351332383115));
#558=CARTESIAN_POINT('Origin',(6.,0.,0.));
#559=CARTESIAN_POINT('Origin',(12.5,-6.5,0.));
#560=CARTESIAN_POINT('',(12.5,-6.5,0.));
#561=CARTESIAN_POINT('',(12.5,6.5,0.));
#562=CARTESIAN_POINT('',(12.5,-6.5,29.));
#563=CARTESIAN_POINT('',(12.5,6.5,29.));
#564=CARTESIAN_POINT('',(12.5,-6.5,0.));
#565=CARTESIAN_POINT('Origin',(-12.5,-6.5,0.));
#566=CARTESIAN_POINT('',(-12.5,-6.5,0.));
#567=CARTESIAN_POINT('',(12.5,-6.5,0.));
#568=CARTESIAN_POINT('',(-12.5,-6.5,29.));
#569=CARTESIAN_POINT('',(12.5,-6.5,29.));
#570=CARTESIAN_POINT('',(-12.5,-6.5,0.));
#571=CARTESIAN_POINT('Origin',(-12.5,6.5,0.));
#572=CARTESIAN_POINT('',(-12.5,-6.5,0.));
#573=CARTESIAN_POINT('',(-12.5,-6.5,29.));
#574=CARTESIAN_POINT('Origin',(0.,0.,0.));
#575=CARTESIAN_POINT('Origin',(0.,0.,29.));
#576=UNCERTAINTY_MEASURE_WITH_UNIT(LENGTH_MEASURE(0.01),#580,
'DISTANCE_ACCURACY_VALUE',
'Maximum model space distance between geometric entities at asserted c
onnectivities');
#577=UNCERTAINTY_MEASURE_WITH_UNIT(LENGTH_MEASURE(0.01),#580,
'DISTANCE_ACCURACY_VALUE',
'Maximum model space distance between geometric entities at asserted c
onnectivities');
#578=(
GEOMETRIC_REPRESENTATION_CONTEXT(3)
GLOBAL_UNCERTAINTY_ASSIGNED_CONTEXT((#576))
GLOBAL_UNIT_ASSIGNED_CONTEXT((#580,#582,#583))
REPRESENTATION_CONTEXT('','3D')
);
#579=(
GEOMETRIC_REPRESENTATION_CONTEXT(3)
GLOBAL_UNCERTAINTY_ASSIGNED_CONTEXT((#577))
GLOBAL_UNIT_ASSIGNED_CONTEXT((#580,#582,#583))
REPRESENTATION_CONTEXT('','3D')
);
#580=(
LENGTH_UNIT()
NAMED_UNIT(*)
SI_UNIT(.MILLI.,.METRE.)
);
#581=(
LENGTH_UNIT()
NAMED_UNIT(*)
SI_UNIT(.CENTI.,.METRE.)
);
#582=(
NAMED_UNIT(*)
PLANE_ANGLE_UNIT()
SI_UNIT($,.RADIAN.)
);
#583=(
NAMED_UNIT(*)
SI_UNIT($,.STERADIAN.)
SOLID_ANGLE_UNIT()
);
#584=SHAPE_DEFINITION_REPRESENTATION(#585,#586);
#585=PRODUCT_DEFINITION_SHAPE('',$,#588);
#586=SHAPE_REPRESENTATION('',(#368),#578);
#587=PRODUCT_DEFINITION_CONTEXT('part definition',#592,'design');
#588=PRODUCT_DEFINITION('DBLXX0000199','DBLXX0000199',#589,#587);
#589=PRODUCT_DEFINITION_FORMATION('B',$,#594);
#590=PRODUCT_RELATED_PRODUCT_CATEGORY('DBLXX0000199','DBLXX0000199',(#594));
#591=APPLICATION_PROTOCOL_DEFINITION('international standard',
'automotive_design',2009,#592);
#592=APPLICATION_CONTEXT(
'Core Data for Automotive Mechanical Design Process');
#593=PRODUCT_CONTEXT('part definition',#592,'mechanical');
#594=PRODUCT('DBLXX0000199','DBLXX0000199',
'BLOCCHETTO PER BLOCC. PANN.IN PLASTICA NERA',(#593));
#595=PRESENTATION_STYLE_ASSIGNMENT((#596));
#596=SURFACE_STYLE_USAGE(.BOTH.,#599);
#597=SURFACE_STYLE_RENDERING_WITH_PROPERTIES($,#603,(#598));
#598=SURFACE_STYLE_TRANSPARENT(0.);
#599=SURFACE_SIDE_STYLE('',(#600,#597));
#600=SURFACE_STYLE_FILL_AREA(#601);
#601=FILL_AREA_STYLE('',(#602));
#602=FILL_AREA_STYLE_COLOUR('',#603);
#603=COLOUR_RGB('',0.16078431372549,0.16078431372549,0.16078431372549);
ENDSEC;
END-ISO-10303-21;
