  0
SECTION
  2
HEADER
  9
$ACADVER
  1
AC1015
  9
$ACADMAINTVER
 70
    20
  9
$DWGCODEPAGE
  3
ANSI_1252
  9
$INSBASE
 10
0.0
 20
0.0
 30
0.0
  9
$EXTMIN
 10
-28.50000000000001
 20
-7.499999999999972
 30
0.0
  9
$EXTMAX
 10
170.8102977164326
 20
281.5294582380773
 30
0.0
  9
$LIMMIN
 10
0.0
 20
0.0
  9
$LIMMAX
 10
210.0
 20
297.0
  9
$ORTHOMODE
 70
     0
  9
$REGENMODE
 70
     1
  9
$FILLMODE
 70
     1
  9
$QTEXTMODE
 70
     0
  9
$MIRRTEXT
 70
     1
  9
$LTSCALE
 40
25.4
  9
$ATTMODE
 70
     1
  9
$TEXTSIZE
 40
0.2
  9
$TRACEWID
 40
0.05
  9
$TEXTSTYLE
  7
Standard
  9
$CLAYER
  8
P-0000
  9
$CELTYPE
  6
CONTINUOUS
  9
$CECOLOR
 62
   256
  9
$CELTSCALE
 40
1.0
  9
$DISPSILH
 70
     0
  9
$DIMSCALE
 40
1.0
  9
$DIMASZ
 40
0.18
  9
$DIMEXO
 40
0.0625
  9
$DIMDLI
 40
0.38
  9
$DIMRND
 40
0.0
  9
$DIMDLE
 40
0.0
  9
$DIMEXE
 40
0.18
  9
$DIMTP
 40
0.0
  9
$DIMTM
 40
0.0
  9
$DIMTXT
 40
0.18
  9
$DIMCEN
 40
0.09
  9
$DIMTSZ
 40
0.0
  9
$DIMTOL
 70
     0
  9
$DIMLIM
 70
     0
  9
$DIMTIH
 70
     1
  9
$DIMTOH
 70
     1
  9
$DIMSE1
 70
     0
  9
$DIMSE2
 70
     0
  9
$DIMTAD
 70
     0
  9
$DIMZIN
 70
     0
  9
$DIMBLK
  1

  9
$DIMASO
 70
     1
  9
$DIMSHO
 70
     1
  9
$DIMPOST
  1

  9
$DIMAPOST
  1

  9
$DIMALT
 70
     0
  9
$DIMALTD
 70
     2
  9
$DIMALTF
 40
25.4
  9
$DIMLFAC
 40
1.0
  9
$DIMTOFL
 70
     0
  9
$DIMTVP
 40
0.0
  9
$DIMTIX
 70
     0
  9
$DIMSOXD
 70
     0
  9
$DIMSAH
 70
     0
  9
$DIMBLK1
  1

  9
$DIMBLK2
  1

  9
$DIMSTYLE
  2
Standard
  9
$DIMCLRD
 70
     0
  9
$DIMCLRE
 70
     0
  9
$DIMCLRT
 70
     0
  9
$DIMTFAC
 40
1.0
  9
$DIMGAP
 40
0.09
  9
$DIMJUST
 70
     0
  9
$DIMSD1
 70
     0
  9
$DIMSD2
 70
     0
  9
$DIMTOLJ
 70
     1
  9
$DIMTZIN
 70
     0
  9
$DIMALTZ
 70
     0
  9
$DIMALTTZ
 70
     0
  9
$DIMUPT
 70
     0
  9
$DIMDEC
 70
     4
  9
$DIMTDEC
 70
     4
  9
$DIMALTU
 70
     2
  9
$DIMALTTD
 70
     2
  9
$DIMTXSTY
  7
Standard
  9
$DIMAUNIT
 70
     0
  9
$DIMADEC
 70
     0
  9
$DIMALTRND
 40
0.0
  9
$DIMAZIN
 70
     0
  9
$DIMDSEP
 70
    46
  9
$DIMATFIT
 70
     3
  9
$DIMFRAC
 70
     0
  9
$DIMLDRBLK
  1

  9
$DIMLUNIT
 70
     2
  9
$DIMLWD
 70
    -2
  9
$DIMLWE
 70
    -2
  9
$DIMTMOVE
 70
     2
  9
$LUNITS
 70
     2
  9
$LUPREC
 70
     4
  9
$SKETCHINC
 40
0.1
  9
$FILLETRAD
 40
0.0
  9
$AUNITS
 70
     0
  9
$AUPREC
 70
     0
  9
$MENU
  1
acad
  9
$ELEVATION
 40
0.0
  9
$PELEVATION
 40
0.0
  9
$THICKNESS
 40
0.0
  9
$LIMCHECK
 70
     0
  9
$CHAMFERA
 40
0.0
  9
$CHAMFERB
 40
0.0
  9
$CHAMFERC
 40
0.0
  9
$CHAMFERD
 40
0.0
  9
$SKPOLY
 70
     0
  9
$TDCREATE
 40
2444975.041666666
  9
$TDUCREATE
 40
2444975.000000000
  9
$TDUPDATE
 40
2455637.618043669
  9
$TDUUPDATE
 40
2455637.576377003
  9
$TDINDWG
 40
0.0006934722
  9
$TDUSRTIMER
 40
0.0006934722
  9
$USRTIMER
 70
     1
  9
$ANGBASE
 50
0.0
  9
$ANGDIR
 70
     0
  9
$PDMODE
 70
     0
  9
$PDSIZE
 40
0.0
  9
$PLINEWID
 40
0.0
  9
$SPLFRAME
 70
     0
  9
$SPLINETYPE
 70
     6
  9
$SPLINESEGS
 70
     8
  9
$HANDSEED
  5
3C6
  9
$SURFTAB1
 70
     6
  9
$SURFTAB2
 70
     6
  9
$SURFTYPE
 70
     6
  9
$SURFU
 70
     6
  9
$SURFV
 70
     6
  9
$UCSBASE
  2

  9
$UCSNAME
  2

  9
$UCSORG
 10
0.0
 20
0.0
 30
0.0
  9
$UCSXDIR
 10
1.0
 20
0.0
 30
0.0
  9
$UCSYDIR
 10
0.0
 20
1.0
 30
0.0
  9
$UCSORTHOREF
  2

  9
$UCSORTHOVIEW
 70
     0
  9
$UCSORGTOP
 10
0.0
 20
0.0
 30
0.0
  9
$UCSORGBOTTOM
 10
0.0
 20
0.0
 30
0.0
  9
$UCSORGLEFT
 10
0.0
 20
0.0
 30
0.0
  9
$UCSORGRIGHT
 10
0.0
 20
0.0
 30
0.0
  9
$UCSORGFRONT
 10
0.0
 20
0.0
 30
0.0
  9
$UCSORGBACK
 10
0.0
 20
0.0
 30
0.0
  9
$PUCSBASE
  2

  9
$PUCSNAME
  2

  9
$PUCSORG
 10
0.0
 20
0.0
 30
0.0
  9
$PUCSXDIR
 10
1.0
 20
0.0
 30
0.0
  9
$PUCSYDIR
 10
0.0
 20
1.0
 30
0.0
  9
$PUCSORTHOREF
  2

  9
$PUCSORTHOVIEW
 70
     0
  9
$PUCSORGTOP
 10
0.0
 20
0.0
 30
0.0
  9
$PUCSORGBOTTOM
 10
0.0
 20
0.0
 30
0.0
  9
$PUCSORGLEFT
 10
0.0
 20
0.0
 30
0.0
  9
$PUCSORGRIGHT
 10
0.0
 20
0.0
 30
0.0
  9
$PUCSORGFRONT
 10
0.0
 20
0.0
 30
0.0
  9
$PUCSORGBACK
 10
0.0
 20
0.0
 30
0.0
  9
$USERI1
 70
     0
  9
$USERI2
 70
     0
  9
$USERI3
 70
     0
  9
$USERI4
 70
     0
  9
$USERI5
 70
     0
  9
$USERR1
 40
0.0
  9
$USERR2
 40
0.0
  9
$USERR3
 40
0.0
  9
$USERR4
 40
0.0
  9
$USERR5
 40
0.0
  9
$WORLDVIEW
 70
     1
  9
$SHADEDGE
 70
     3
  9
$SHADEDIF
 70
    70
  9
$TILEMODE
 70
     1
  9
$MAXACTVP
 70
    16
  9
$PINSBASE
 10
0.0
 20
0.0
 30
0.0
  9
$PLIMCHECK
 70
     0
  9
$PEXTMIN
 10
1.000000000000000E+20
 20
1.000000000000000E+20
 30
1.000000000000000E+20
  9
$PEXTMAX
 10
-1.000000000000000E+20
 20
-1.000000000000000E+20
 30
-1.000000000000000E+20
  9
$PLIMMIN
 10
0.0
 20
0.0
  9
$PLIMMAX
 10
12.0
 20
9.0
  9
$UNITMODE
 70
     0
  9
$VISRETAIN
 70
     0
  9
$PLINEGEN
 70
     1
  9
$PSLTSCALE
 70
     0
  9
$TREEDEPTH
 70
  3020
  9
$CMLSTYLE
  2
Standard
  9
$CMLJUST
 70
     0
  9
$CMLSCALE
 40
1.0
  9
$PROXYGRAPHICS
 70
     1
  9
$MEASUREMENT
 70
     0
  9
$CELWEIGHT
370
    -1
  9
$ENDCAPS
280
     0
  9
$JOINSTYLE
280
     0
  9
$LWDISPLAY
290
     0
  9
$INSUNITS
 70
     0
  9
$HYPERLINKBASE
  1

  9
$STYLESHEET
  1

  9
$XEDIT
290
     1
  9
$CEPSNTYPE
380
     0
  9
$PSTYLEMODE
290
     1
  9
$FINGERPRINTGUID
  2
{A9204CDF-A400-445F-8014-8E94D43AF1AF}
  9
$VERSIONGUID
  2
{61CFA0C8-D60B-438F-9063-62C49F4648C4}
  9
$EXTNAMES
290
     1
  9
$PSVPSCALE
 40
0.0
  9
$OLESTARTUP
290
     0
  0
ENDSEC
  0
SECTION
  2
CLASSES
  0
CLASS
  1
ACDBDICTIONARYWDFLT
  2
AcDbDictionaryWithDefault
  3
ObjectDBX Classes
 90
        0
280
     0
281
     0
  0
CLASS
  1
MATERIAL
  2
AcDbMaterial
  3
ObjectDBX Classes
 90
     1153
280
     0
281
     0
  0
CLASS
  1
VISUALSTYLE
  2
AcDbVisualStyle
  3
ObjectDBX Classes
 90
     4095
280
     0
281
     0
  0
CLASS
  1
SCALE
  2
AcDbScale
  3
ObjectDBX Classes
 90
     1153
280
     0
281
     0
  0
CLASS
  1
TABLESTYLE
  2
AcDbTableStyle
  3
ObjectDBX Classes
 90
     4095
280
     0
281
     0
  0
CLASS
  1
MLEADERSTYLE
  2
AcDbMLeaderStyle
  3
ACDB_MLEADERSTYLE_CLASS
 90
     4095
280
     0
281
     0
  0
CLASS
  1
ACDBQSCATEGORY
  2
AcQsCategory
  3
categories
 90
     1024
280
     0
281
     0
  0
CLASS
  1
PLOTSETTINGS
  2
AcDbPlotSettings
  3
ObjectDBX Classes
 90
        0
280
     0
281
     0
  0
CLASS
  1
CELLSTYLEMAP
  2
AcDbCellStyleMap
  3
ObjectDBX Classes
 90
     1152
280
     0
281
     0
  0
CLASS
  1
DICTIONARYVAR
  2
AcDbDictionaryVar
  3
ObjectDBX Classes
 90
        0
280
     0
281
     0
  0
CLASS
  1
ACDBPLACEHOLDER
  2
AcDbPlaceHolder
  3
ObjectDBX Classes
 90
        0
280
     0
281
     0
  0
CLASS
  1
LAYOUT
  2
AcDbLayout
  3
ObjectDBX Classes
 90
        0
280
     0
281
     0
  0
CLASS
  1
AEC_REFEDIT_STATUS_TRACKER
  2
AecDbRefEditStatusTracker
  3
AecArchBase60|Product Desc: Autodesk Architectural Desktop 2007 |Company: Autodesk,Inc. |WEB Address: www.autodesk.com
 90
      129
280
     0
281
     0
  0
CLASS
  1
NPOCOLLECTION
  2
AcDbImpNonPersistentObjectsCollection
  3
ObjectDBX Classes
 90
     1153
280
     0
281
     0
  0
ENDSEC
  0
SECTION
  2
TABLES
  0
TABLE
  2
VPORT
  5
213
102
{ACAD_XDICTIONARY
360
2EB
102
}
330
0
100
AcDbSymbolTable
 70
     1
  0
VPORT
  5
2A3
330
213
100
AcDbSymbolTableRecord
100
AcDbViewportTableRecord
  2
*ACTIVE
 70
     0
 10
0.0
 20
0.0
 11
1.0
 21
1.0
 12
319.6745289239274
 22
175.1797523955158
 13
0.0
 23
0.0
 14
1.0
 24
1.0
 15
0.0
 25
0.0
 16
0.0
 26
0.0
 36
1.0
 17
0.0
 27
0.0
 37
0.0
 40
495.8895294399952
 41
2.251225490196078
 42
50.0
 43
0.0
 44
0.0
 50
0.0
 51
0.0
 71
     0
 72
   100
 73
     1
 74
     1
 75
     0
 76
     0
 77
     0
 78
     0
281
     0
 65
     1
110
0.0
120
0.0
130
0.0
111
1.0
121
0.0
131
0.0
112
0.0
122
1.0
132
0.0
 79
     0
146
0.0
  0
ENDTAB
  0
TABLE
  2
LTYPE
  5
210
330
0
100
AcDbSymbolTable
 70
    10
  0
LTYPE
  5
270
330
210
100
AcDbSymbolTableRecord
100
AcDbLinetypeTableRecord
  2
ByBlock
 70
     0
  3

 72
    65
 73
     0
 40
0.0
  0
LTYPE
  5
271
330
210
100
AcDbSymbolTableRecord
100
AcDbLinetypeTableRecord
  2
ByLayer
 70
     0
  3

 72
    65
 73
     0
 40
0.0
  0
LTYPE
  5
272
330
210
100
AcDbSymbolTableRecord
100
AcDbLinetypeTableRecord
  2
CONTINUOUS
 70
     0
  3
Solid line
 72
    65
 73
     0
 40
0.0
  0
LTYPE
  5
29E
330
210
100
AcDbSymbolTableRecord
100
AcDbLinetypeTableRecord
  2
HIDDEN2
 70
     0
  3
_ _ _ _ _ _ _ _ _ _ _ _ _ _ _ _ _ _ _ _ _ _ _ _
 72
    65
 73
     2
 40
0.1875
 49
0.125
 74
     0
 49
-0.0625
 74
     0
  0
LTYPE
  5
29F
330
210
100
AcDbSymbolTableRecord
100
AcDbLinetypeTableRecord
  2
CENTER2
 70
     0
  3
___ _ ___ _ ___ _ ___ _ ___ _ ___ _ ___ _ ___ _
 72
    65
 73
     4
 40
1.125
 49
0.75
 74
     0
 49
-0.125
 74
     0
 49
0.125
 74
     0
 49
-0.125
 74
     0
  0
LTYPE
  5
2A0
330
210
100
AcDbSymbolTableRecord
100
AcDbLinetypeTableRecord
  2
PHANTOM2
 70
     0
  3
___ _ _ ___ _ _ ___ _ _ ___ _ _ ___ _ _ ___ _ _
 72
    65
 73
     6
 40
1.25
 49
0.625
 74
     0
 49
-0.125
 74
     0
 49
0.125
 74
     0
 49
-0.125
 74
     0
 49
0.125
 74
     0
 49
-0.125
 74
     0
  0
LTYPE
  5
2A1
330
210
100
AcDbSymbolTableRecord
100
AcDbLinetypeTableRecord
  2
DOT2
 70
     0
  3
...............................................
 72
    65
 73
     2
 40
0.125
 49
0.0
 74
     0
 49
-0.125
 74
     0
  0
LTYPE
  5
2A2
330
210
100
AcDbSymbolTableRecord
100
AcDbLinetypeTableRecord
  2
DASHDOT2
 70
     0
  3
_._._._._._._._._._._._._._._._._._._._._._._._
 72
    65
 73
     4
 40
0.5
 49
0.25
 74
     0
 49
-0.125
 74
     0
 49
0.0
 74
     0
 49
-0.125
 74
     0
  0
LTYPE
  5
2BE
330
210
100
AcDbSymbolTableRecord
100
AcDbLinetypeTableRecord
  2
ASSI
 70
     0
  3
-.-.-.-.-.-.-.-.-.-.-.-.-.-.-.-.-.-.-.-.-.-.-.-
 72
    65
 73
     4
 40
16.0
 49
10.0
 74
     0
 49
-2.0
 74
     0
 49
2.0
 74
     0
 49
-2.0
 74
     0
  0
LTYPE
  5
2BF
330
210
100
AcDbSymbolTableRecord
100
AcDbLinetypeTableRecord
  2
INGOMBRI
 70
     0
  3
--..--..--..--..--..--..--..--..--..--..--..--
 72
    65
 73
     6
 40
20.0
 49
10.0
 74
     0
 49
-2.0
 74
     0
 49
2.0
 74
     0
 49
-2.0
 74
     0
 49
2.0
 74
     0
 49
-2.0
 74
     0
  0
LTYPE
  5
2C0
330
210
100
AcDbSymbolTableRecord
100
AcDbLinetypeTableRecord
  2
TRATTEGGIO
 70
     0
  3
- - - - - - - - - - - - - - - - - - - - - -
 72
    65
 73
     2
 40
5.5
 49
4.0
 74
     0
 49
-1.5
 74
     0
  0
LTYPE
  5
2C1
330
210
100
AcDbSymbolTableRecord
100
AcDbLinetypeTableRecord
  2
PUNTO
 70
     0
  3
Punto . . . . . . . . . . . . . . . . . . . . .
 72
    65
 73
     2
 40
6.349999999999999
 49
0.0
 74
     0
 49
-6.349999999999999
 74
     0
  0
ENDTAB
  0
TABLE
  2
LAYER
  5
20D
330
0
100
AcDbSymbolTable
 70
    10
  0
LAYER
  5
26A
330
20D
100
AcDbSymbolTableRecord
100
AcDbLayerTableRecord
  2
0
 70
     0
 62
     7
  6
CONTINUOUS
370
    -3
390
21A
  0
LAYER
  5
2A4
330
20D
100
AcDbSymbolTableRecord
100
AcDbLayerTableRecord
  2
DEFAULT
 70
     0
 62
     7
  6
CONTINUOUS
370
    -3
390
21A
  0
LAYER
  5
2A5
330
20D
100
AcDbSymbolTableRecord
100
AcDbLayerTableRecord
  2
PREDEFINITO
 70
     0
 62
     7
  6
CONTINUOUS
370
    -3
390
21A
  0
LAYER
  5
2A6
330
20D
100
AcDbSymbolTableRecord
100
AcDbLayerTableRecord
  2
TESTI
 70
     0
 62
     7
  6
CONTINUOUS
370
    -3
390
21A
  0
LAYER
  5
2A7
330
20D
100
AcDbSymbolTableRecord
100
AcDbLayerTableRecord
  2
AUTO_-_HIDE
 70
     0
 62
     7
  6
CONTINUOUS
370
    -3
390
21A
  0
LAYER
  5
2A8
330
20D
100
AcDbSymbolTableRecord
100
AcDbLayerTableRecord
  2
DV1_0
 70
     0
 62
     7
  6
CONTINUOUS
370
    -3
390
21A
  0
LAYER
  5
2A9
330
20D
100
AcDbSymbolTableRecord
100
AcDbLayerTableRecord
  2
DV2_0
 70
     0
 62
     7
  6
CONTINUOUS
370
    -3
390
21A
  0
LAYER
  5
2AA
330
20D
100
AcDbSymbolTableRecord
100
AcDbLayerTableRecord
  2
DV3_0
 70
     0
 62
     7
  6
CONTINUOUS
370
    -3
390
21A
  0
LAYER
  5
2B6
330
20D
100
AcDbSymbolTableRecord
100
AcDbLayerTableRecord
  2
P-0000
 70
     0
 62
     7
  6
CONTINUOUS
370
    -3
390
21A
1001
AcAecLayerStandard
1000

1000
TOP
  0
LAYER
  5
2C2
330
20D
100
AcDbSymbolTableRecord
100
AcDbLayerTableRecord
  2
Defpoints
 70
     0
 62
     7
  6
CONTINUOUS
290
     0
370
    -3
390
21A
  0
ENDTAB
  0
TABLE
  2
STYLE
  5
20E
330
0
100
AcDbSymbolTable
 70
     7
  0
STYLE
  5
26B
330
20E
100
AcDbSymbolTableRecord
100
AcDbTextStyleTableRecord
  2
Standard
 70
     0
 40
0.0
 41
1.0
 50
0.0
 71
     0
 42
0.2
  3
txt
  4

  0
STYLE
  5
26F
330
20E
100
AcDbSymbolTableRecord
100
AcDbTextStyleTableRecord
  2
seansi_ttf
 70
     0
 40
0.0
 41
1.0
 50
0.0
 71
     0
 42
0.2
  3
seansi.ttf
  4

1001
AcadAnnotative
1000
AnnotativeData
1002
{
1070
     1
1070
     1
1002
}
  0
STYLE
  5
29D
330
20E
100
AcDbSymbolTableRecord
100
AcDbTextStyleTableRecord
  2
semeca1_ttf
 70
     0
 40
0.0
 41
1.0
 50
0.0
 71
     0
 42
0.2
  3
semeca1.ttf
  4

  0
STYLE
  5
2C3
330
20E
100
AcDbSymbolTableRecord
100
AcDbTextStyleTableRecord
  2
ROMANS
 70
     0
 40
0.0
 41
0.8
 50
0.0
 71
     0
 42
3.0
  3
ROMANS.shx
  4

  0
STYLE
  5
2C4
330
20E
100
AcDbSymbolTableRecord
100
AcDbTextStyleTableRecord
  2

 70
     1
 40
0.0
 41
1.0
 50
0.0
 71
     0
 42
0.2
  3
ltypeshp.shx
  4

  0
STYLE
  5
2C5
330
20E
100
AcDbSymbolTableRecord
100
AcDbTextStyleTableRecord
  2
Stile_Quota
 70
     0
 40
0.0
 41
1.0
 50
0.0
 71
     0
 42
3.0
  3
BOD_I.TTF
  4

1001
ACAD
1000
Bodoni MT
1071
 16777234
  0
STYLE
  5
2C6
330
20E
100
AcDbSymbolTableRecord
100
AcDbTextStyleTableRecord
  2
Stile_Quota_FISSO
 70
     0
 40
20.0
 41
1.0
 50
0.0
 71
     0
 42
3.0
  3
BOD_I.TTF
  4

1001
ACAD
1000
Bodoni MT
1071
 16777234
  0
ENDTAB
  0
TABLE
  2
VIEW
  5
211
330
0
100
AcDbSymbolTable
 70
     0
  0
ENDTAB
  0
TABLE
  2
UCS
  5
212
330
0
100
AcDbSymbolTable
 70
     0
  0
ENDTAB
  0
TABLE
  2
APPID
  5
214
330
0
100
AcDbSymbolTable
 70
    12
  0
APPID
  5
26C
330
214
100
AcDbSymbolTableRecord
100
AcDbRegAppTableRecord
  2
ACAD
 70
     0
  0
APPID
  5
273
330
214
100
AcDbSymbolTableRecord
100
AcDbRegAppTableRecord
  2
AcadAnnotative
 70
     0
  0
APPID
  5
2B7
330
214
100
AcDbSymbolTableRecord
100
AcDbRegAppTableRecord
  2
AcAecLayerStandard
 70
     0
  0
APPID
  5
2BD
330
214
100
AcDbSymbolTableRecord
100
AcDbRegAppTableRecord
  2
TOP
 70
     0
  0
APPID
  5
2CA
330
214
100
AcDbSymbolTableRecord
100
AcDbRegAppTableRecord
  2
ACAD_MLEADERVER
 70
     0
  0
APPID
  5
2CB
330
214
100
AcDbSymbolTableRecord
100
AcDbRegAppTableRecord
  2
ACAD_DSTYLE_DIMJAG
 70
     0
  0
APPID
  5
2CC
330
214
100
AcDbSymbolTableRecord
100
AcDbRegAppTableRecord
  2
ACAD_DSTYLE_DIMTALN
 70
     0
  0
APPID
  5
2CD
330
214
100
AcDbSymbolTableRecord
100
AcDbRegAppTableRecord
  2
AcadAnnoPO
 70
     0
  0
APPID
  5
2CE
330
214
100
AcDbSymbolTableRecord
100
AcDbRegAppTableRecord
  2
ACAD_EXEMPT_FROM_CAD_STANDARDS
 70
     0
  0
APPID
  5
2CF
330
214
100
AcDbSymbolTableRecord
100
AcDbRegAppTableRecord
  2
ACAD_PSEXT
 70
     0
  0
APPID
  5
2D0
330
214
100
AcDbSymbolTableRecord
100
AcDbRegAppTableRecord
  2
ACAD_DSTYLE_DIMBREAK
 70
     0
  0
APPID
  5
2E3
330
214
100
AcDbSymbolTableRecord
100
AcDbRegAppTableRecord
  2
DCO15
 70
     0
  0
ENDTAB
  0
TABLE
  2
DIMSTYLE
  5
215
330
0
100
AcDbSymbolTable
 70
     5
100
AcDbDimStyleTable
 71
     0
  0
DIMSTYLE
105
26D
330
215
100
AcDbSymbolTableRecord
100
AcDbDimStyleTableRecord
  2
Standard
 70
     0
279
     2
340
26B
  0
DIMSTYLE
105
26E
330
215
100
AcDbSymbolTableRecord
100
AcDbDimStyleTableRecord
  2
Annotative
 70
     0
340
26B
1001
AcadAnnotative
1000
AnnotativeData
1002
{
1070
     1
1070
     1
1002
}
  0
DIMSTYLE
105
2C7
330
215
100
AcDbSymbolTableRecord
100
AcDbDimStyleTableRecord
  2
ACADTOP
 70
     0
 41
2.0
 42
1.0
 43
10.0
 44
1.5
 73
     0
 74
     0
 77
     1
 78
     8
 79
     2
140
2.0
141
2.0
146
0.6
147
1.0
172
     1
176
     2
177
     2
178
     1
179
     1
271
     2
272
     2
284
     8
289
     0
340
2C5
1001
ACAD_DSTYLE_DIMJAG
1070
   388
1040
1.5
1001
ACAD_DSTYLE_DIMTALN
1070
   392
1070
     0
  0
DIMSTYLE
105
2C8
330
215
100
AcDbSymbolTableRecord
100
AcDbDimStyleTableRecord
  2
DIERRE_LUNG-ALT
 70
     0
 41
3.0
 42
1.0
 43
10.0
 44
1.5
 73
     0
 74
     0
 75
     1
 76
     1
 78
     8
 79
     2
140
20.0
141
2.0
146
0.6
147
1.0
172
     1
176
     3
177
     3
178
    30
179
     1
271
     1
272
     1
281
     1
282
     1
284
     8
340
2C6
1001
ACAD_DSTYLE_DIMBREAK
1070
   391
1040
3.75
1001
ACAD_DSTYLE_DIMJAG
1070
   388
1040
1.5
1001
ACAD_DSTYLE_DIMTALN
1070
   392
1070
     0
  0
DIMSTYLE
105
2C9
330
215
100
AcDbSymbolTableRecord
100
AcDbDimStyleTableRecord
  2
DIERRE_LARG
 70
     0
 41
3.0
 42
1.0
 43
10.0
 44
1.5
 73
     0
 74
     0
 75
     1
 76
     1
 78
     8
 79
     2
140
20.0
141
2.0
146
0.6
147
1.0
172
     1
176
     4
177
     4
178
     4
179
     1
271
     1
272
     1
281
     1
282
     1
284
     8
340
2C6
1001
ACAD_DSTYLE_DIMBREAK
1070
   391
1040
3.75
1001
ACAD_DSTYLE_DIMJAG
1070
   388
1040
1.5
1001
ACAD_DSTYLE_DIMTALN
1070
   392
1070
     0
  0
ENDTAB
  0
TABLE
  2
BLOCK_RECORD
  5
20C
330
0
100
AcDbSymbolTable
 70
    24
  0
BLOCK_RECORD
  5
281
330
20C
100
AcDbSymbolTableRecord
100
AcDbBlockTableRecord
  2
*Model_Space
340
284
  0
BLOCK_RECORD
  5
27D
330
20C
100
AcDbSymbolTableRecord
100
AcDbBlockTableRecord
  2
*Paper_Space
340
280
  0
BLOCK_RECORD
  5
285
330
20C
100
AcDbSymbolTableRecord
100
AcDbBlockTableRecord
  2
SE0
340
0
102
{BLKREFS
331
61
102
}
  0
BLOCK_RECORD
  5
286
330
20C
100
AcDbSymbolTableRecord
100
AcDbBlockTableRecord
  2
SE1
340
0
  0
BLOCK_RECORD
  5
287
330
20C
100
AcDbSymbolTableRecord
100
AcDbBlockTableRecord
  2
SE2
340
0
102
{BLKREFS
331
69
102
}
  0
BLOCK_RECORD
  5
288
330
20C
100
AcDbSymbolTableRecord
100
AcDbBlockTableRecord
  2
SE3
340
0
  0
BLOCK_RECORD
  5
289
330
20C
100
AcDbSymbolTableRecord
100
AcDbBlockTableRecord
  2
SE4
340
0
102
{BLKREFS
331
71
102
}
  0
BLOCK_RECORD
  5
28A
330
20C
100
AcDbSymbolTableRecord
100
AcDbBlockTableRecord
  2
SE5
340
0
  0
BLOCK_RECORD
  5
28B
330
20C
100
AcDbSymbolTableRecord
100
AcDbBlockTableRecord
  2
SE6
340
0
  0
BLOCK_RECORD
  5
28C
330
20C
100
AcDbSymbolTableRecord
100
AcDbBlockTableRecord
  2
SE7
340
0
  0
BLOCK_RECORD
  5
28D
330
20C
100
AcDbSymbolTableRecord
100
AcDbBlockTableRecord
  2
SE8
340
0
  0
BLOCK_RECORD
  5
28E
330
20C
100
AcDbSymbolTableRecord
100
AcDbBlockTableRecord
  2
SE9
340
0
  0
BLOCK_RECORD
  5
28F
330
20C
100
AcDbSymbolTableRecord
100
AcDbBlockTableRecord
  2
SE10
340
0
  0
BLOCK_RECORD
  5
290
330
20C
100
AcDbSymbolTableRecord
100
AcDbBlockTableRecord
  2
SE11
340
0
  0
BLOCK_RECORD
  5
291
330
20C
100
AcDbSymbolTableRecord
100
AcDbBlockTableRecord
  2
SE12
340
0
  0
BLOCK_RECORD
  5
292
330
20C
100
AcDbSymbolTableRecord
100
AcDbBlockTableRecord
  2
SE13
340
0
  0
BLOCK_RECORD
  5
293
330
20C
100
AcDbSymbolTableRecord
100
AcDbBlockTableRecord
  2
SE14
340
0
  0
BLOCK_RECORD
  5
294
330
20C
100
AcDbSymbolTableRecord
100
AcDbBlockTableRecord
  2
SE15
340
0
  0
BLOCK_RECORD
  5
295
330
20C
100
AcDbSymbolTableRecord
100
AcDbBlockTableRecord
  2
SE16
340
0
  0
BLOCK_RECORD
  5
296
330
20C
100
AcDbSymbolTableRecord
100
AcDbBlockTableRecord
  2
SE17
340
0
  0
BLOCK_RECORD
  5
297
330
20C
100
AcDbSymbolTableRecord
100
AcDbBlockTableRecord
  2
SE18
340
0
  0
BLOCK_RECORD
  5
298
330
20C
100
AcDbSymbolTableRecord
100
AcDbBlockTableRecord
  2
SE19
340
0
  0
BLOCK_RECORD
  5
299
330
20C
100
AcDbSymbolTableRecord
100
AcDbBlockTableRecord
  2
SE20
340
0
  0
BLOCK_RECORD
  5
29A
330
20C
100
AcDbSymbolTableRecord
100
AcDbBlockTableRecord
  2
SE21
340
0
  0
BLOCK_RECORD
  5
29B
330
20C
100
AcDbSymbolTableRecord
100
AcDbBlockTableRecord
  2
SE22
340
0
  0
BLOCK_RECORD
  5
29C
330
20C
100
AcDbSymbolTableRecord
100
AcDbBlockTableRecord
  2
SE23
340
0
  0
ENDTAB
  0
ENDSEC
  0
SECTION
  2
BLOCKS
  0
BLOCK
  5
2AD
330
281
100
AcDbEntity
  8
0
100
AcDbBlockBegin
  2
*Model_Space
 70
     0
 10
0.0
 20
0.0
 30
0.0
  3
*Model_Space
  1

  0
ENDBLK
  5
2AE
330
281
100
AcDbEntity
  8
0
100
AcDbBlockEnd
  0
BLOCK
  5
2AB
330
27D
100
AcDbEntity
 67
     1
  8
0
100
AcDbBlockBegin
  2
*Paper_Space
 70
     0
 10
0.0
 20
0.0
 30
0.0
  3
*Paper_Space
  1

  0
ENDBLK
  5
2AC
330
27D
100
AcDbEntity
 67
     1
  8
0
100
AcDbBlockEnd
  0
BLOCK
  5
AC
330
285
100
AcDbEntity
  8
DEFAULT
 62
     1
100
AcDbBlockBegin
  2
SE0
 70
     0
 10
0.0
 20
0.0
 30
0.0
  3
SE0
  1

  0
ENDBLK
  5
AD
330
285
100
AcDbEntity
  8
DEFAULT
 62
     1
100
AcDbBlockEnd
  0
BLOCK
  5
98
330
286
100
AcDbEntity
  8
DEFAULT
 62
     1
100
AcDbBlockBegin
  2
SE1
 70
     0
 10
0.0
 20
0.0
 30
0.0
  3
SE1
  1

  0
LINE
  5
99
330
286
100
AcDbEntity
  8
DV1_0
  6
HIDDEN2
 62
     7
100
AcDbLine
 10
45.88467157682297
 20
244.0264453871966
 30
0.0
 11
42.88467157682297
 21
244.0264453871966
 31
0.0
  0
LINE
  5
9A
330
286
100
AcDbEntity
  8
DV1_0
  6
HIDDEN2
 62
     7
100
AcDbLine
 10
68.38467157682297
 20
214.0264453871966
 30
0.0
 11
68.38467157682297
 21
211.0264453871967
 31
0.0
  0
LINE
  5
9B
330
286
100
AcDbEntity
  8
DV1_0
  6
HIDDEN2
 62
     7
100
AcDbLine
 10
45.88467157682296
 20
224.0264453871966
 30
0.0
 11
42.88467157682297
 21
224.0264453871966
 31
0.0
  0
LINE
  5
9C
330
286
100
AcDbEntity
  8
DV1_0
  6
Continuous
 62
     7
100
AcDbLine
 10
45.88467157682297
 20
216.0264453871966
 30
0.0
 11
45.88467157682297
 21
250.0264453871967
 31
0.0
  0
LINE
  5
9D
330
286
100
AcDbEntity
  8
DV1_0
  6
Continuous
 62
     7
100
AcDbLine
 10
42.88467157682297
 20
251.0264453871966
 30
0.0
 11
45.88467157682297
 21
251.0264453871966
 31
0.0
  0
ARC
  5
9E
330
286
100
AcDbEntity
  8
DV1_0
  6
Continuous
 62
     7
100
AcDbCircle
 10
47.88467157682297
 20
216.0264453871966
 30
0.0
 40
2.000000000000001
100
AcDbArc
 50
180.0
 51
270.0
  0
LINE
  5
9F
330
286
100
AcDbEntity
  8
DV1_0
  6
HIDDEN2
 62
     7
100
AcDbLine
 10
42.88467157682297
 20
238.0264453871967
 30
0.0
 11
45.88467157682296
 21
238.0264453871967
 31
0.0
  0
LINE
  5
A0
330
286
100
AcDbEntity
  8
DV1_0
  6
HIDDEN2
 62
     7
100
AcDbLine
 10
74.38467157682296
 20
211.0264453871967
 30
0.0
 11
74.38467157682296
 21
214.0264453871966
 31
0.0
  0
LINE
  5
A1
330
286
100
AcDbEntity
  8
DV1_0
  6
Continuous
 62
     7
100
AcDbLine
 10
82.88467157682296
 20
211.0264453871967
 30
0.0
 11
81.88467157682296
 21
211.0264453871967
 31
0.0
  0
LINE
  5
A2
330
286
100
AcDbEntity
  8
DV1_0
  6
HIDDEN2
 62
     7
100
AcDbLine
 10
42.88467157682297
 20
218.0264453871966
 30
0.0
 11
45.88467157682296
 21
218.0264453871966
 31
0.0
  0
LINE
  5
A3
330
286
100
AcDbEntity
  8
DV1_0
  6
Continuous
 62
     7
100
AcDbLine
 10
42.88467157682297
 20
250.0264453871967
 30
0.0
 11
42.88467157682297
 21
251.0264453871966
 31
0.0
  0
LINE
  5
A4
330
286
100
AcDbEntity
  8
DV1_0
  6
Continuous
 62
     7
100
AcDbLine
 10
47.88467157682297
 20
211.0264453871967
 30
0.0
 11
81.88467157682296
 21
211.0264453871967
 31
0.0
  0
LINE
  5
A5
330
286
100
AcDbEntity
  8
DV1_0
  6
Continuous
 62
     7
100
AcDbLine
 10
45.88467157682297
 20
251.0264453871966
 30
0.0
 11
45.88467157682297
 21
250.0264453871967
 31
0.0
  0
LINE
  5
A6
330
286
100
AcDbEntity
  8
DV1_0
  6
Continuous
 62
     7
100
AcDbLine
 10
82.88467157682296
 20
214.0264453871966
 30
0.0
 11
82.88467157682296
 21
211.0264453871967
 31
0.0
  0
LINE
  5
A7
330
286
100
AcDbEntity
  8
DV1_0
  6
Continuous
 62
     7
100
AcDbLine
 10
42.88467157682297
 20
250.0264453871967
 30
0.0
 11
42.88467157682297
 21
216.0264453871966
 31
0.0
  0
ARC
  5
A8
330
286
100
AcDbEntity
  8
DV1_0
  6
Continuous
 62
     7
100
AcDbCircle
 10
47.88467157682297
 20
216.0264453871966
 30
0.0
 40
4.999999999999997
100
AcDbArc
 50
180.0
 51
270.0
  0
LINE
  5
A9
330
286
100
AcDbEntity
  8
DV1_0
  6
Continuous
 62
     7
100
AcDbLine
 10
81.88467157682296
 20
214.0264453871966
 30
0.0
 11
47.88467157682297
 21
214.0264453871966
 31
0.0
  0
LINE
  5
AA
330
286
100
AcDbEntity
  8
DV1_0
  6
Continuous
 62
     7
100
AcDbLine
 10
81.88467157682296
 20
214.0264453871966
 30
0.0
 11
82.88467157682296
 21
214.0264453871966
 31
0.0
  0
ENDBLK
  5
AB
330
286
100
AcDbEntity
  8
DV1_0
  6
Continuous
 62
     7
100
AcDbBlockEnd
  0
BLOCK
  5
C3
330
287
100
AcDbEntity
  8
DEFAULT
 62
     1
100
AcDbBlockBegin
  2
SE2
 70
     0
 10
0.0
 20
0.0
 30
0.0
  3
SE2
  1

  0
ENDBLK
  5
C4
330
287
100
AcDbEntity
  8
DEFAULT
 62
     1
100
AcDbBlockEnd
  0
BLOCK
  5
AE
330
288
100
AcDbEntity
  8
DEFAULT
 62
     1
100
AcDbBlockBegin
  2
SE3
 70
     0
 10
0.0
 20
0.0
 30
0.0
  3
SE3
  1

  0
LINE
  5
AF
330
288
100
AcDbEntity
  8
DV2_0
  6
HIDDEN2
 62
     7
100
AcDbLine
 10
45.88467157682297
 20
157.903360068383
 30
0.0
 11
42.88467157682297
 21
157.903360068383
 31
0.0
  0
LINE
  5
B0
330
288
100
AcDbEntity
  8
DV2_0
  6
HIDDEN2
 62
     7
100
AcDbLine
 10
42.88467157682297
 20
151.903360068383
 30
0.0
 11
45.88467157682296
 21
151.903360068383
 31
0.0
  0
LINE
  5
B1
330
288
100
AcDbEntity
  8
DV2_0
  6
Continuous
 62
     7
100
AcDbLine
 10
45.88467157682296
 20
174.903360068383
 30
0.0
 11
47.88467157682297
 21
174.903360068383
 31
0.0
  0
LINE
  5
B2
330
288
100
AcDbEntity
  8
DV2_0
  6
Continuous
 62
     7
100
AcDbLine
 10
81.88467157682296
 20
174.903360068383
 30
0.0
 11
47.88467157682297
 21
174.903360068383
 31
0.0
  0
LINE
  5
B3
330
288
100
AcDbEntity
  8
DV2_0
  6
Continuous
 62
     7
100
AcDbLine
 10
47.88467157682297
 20
134.903360068383
 30
0.0
 11
45.88467157682297
 21
134.903360068383
 31
0.0
  0
LINE
  5
B4
330
288
100
AcDbEntity
  8
DV2_0
  6
Continuous
 62
     7
100
AcDbLine
 10
42.88467157682297
 20
134.903360068383
 30
0.0
 11
42.88467157682297
 21
135.903360068383
 31
0.0
  0
ARC
  5
B5
330
288
100
AcDbEntity
  8
DV2_0
  6
Continuous
 62
     7
100
AcDbCircle
 10
81.88467157682296
 20
173.903360068383
 30
0.0
 40
1.0
100
AcDbArc
 50
0.0
 51
90.0
  0
LINE
  5
B6
330
288
100
AcDbEntity
  8
DV2_0
  6
Continuous
 62
     7
100
AcDbLine
 10
45.88467157682297
 20
135.903360068383
 30
0.0
 11
45.88467157682297
 21
134.903360068383
 31
0.0
  0
LINE
  5
B7
330
288
100
AcDbEntity
  8
DV2_0
  6
Continuous
 62
     7
100
AcDbLine
 10
42.88467157682297
 20
173.903360068383
 30
0.0
 11
42.88467157682297
 21
174.903360068383
 31
0.0
  0
LINE
  5
B8
330
288
100
AcDbEntity
  8
DV2_0
  6
Continuous
 62
     7
100
AcDbLine
 10
82.88467157682296
 20
135.903360068383
 30
0.0
 11
82.88467157682296
 21
173.903360068383
 31
0.0
  0
LINE
  5
B9
330
288
100
AcDbEntity
  8
DV2_0
  6
Continuous
 62
     7
100
AcDbLine
 10
42.88467157682297
 20
174.903360068383
 30
0.0
 11
45.88467157682297
 21
174.903360068383
 31
0.0
  0
LINE
  5
BA
330
288
100
AcDbEntity
  8
DV2_0
  6
Continuous
 62
     7
100
AcDbLine
 10
81.88467157682296
 20
134.903360068383
 30
0.0
 11
47.88467157682297
 21
134.903360068383
 31
0.0
  0
CIRCLE
  5
BB
330
288
100
AcDbEntity
  8
DV2_0
  6
Continuous
 62
     7
100
AcDbCircle
 10
71.38467157682296
 20
167.403360068383
 30
0.0
 40
3.0
  0
CIRCLE
  5
BC
330
288
100
AcDbEntity
  8
DV2_0
  6
Continuous
 62
     7
100
AcDbCircle
 10
71.38467157682298
 20
142.403360068383
 30
0.0
 40
3.0
  0
LINE
  5
BD
330
288
100
AcDbEntity
  8
DV2_0
  6
Continuous
 62
     7
100
AcDbLine
 10
45.88467157682297
 20
174.903360068383
 30
0.0
 11
45.88467157682297
 21
173.903360068383
 31
0.0
  0
LINE
  5
BE
330
288
100
AcDbEntity
  8
DV2_0
  6
Continuous
 62
     7
100
AcDbLine
 10
45.88467157682297
 20
134.903360068383
 30
0.0
 11
42.88467157682297
 21
134.903360068383
 31
0.0
  0
LINE
  5
BF
330
288
100
AcDbEntity
  8
DV2_0
  6
Continuous
 62
     7
100
AcDbLine
 10
42.88467157682297
 20
135.903360068383
 30
0.0
 11
42.88467157682297
 21
173.903360068383
 31
0.0
  0
LINE
  5
C0
330
288
100
AcDbEntity
  8
DV2_0
  6
Continuous
 62
     7
100
AcDbLine
 10
45.88467157682297
 20
135.903360068383
 30
0.0
 11
45.88467157682297
 21
173.903360068383
 31
0.0
  0
ARC
  5
C1
330
288
100
AcDbEntity
  8
DV2_0
  6
Continuous
 62
     7
100
AcDbCircle
 10
81.88467157682296
 20
135.903360068383
 30
0.0
 40
1.0
100
AcDbArc
 50
270.0
 51
360.0
  0
ENDBLK
  5
C2
330
288
100
AcDbEntity
  8
DV2_0
  6
Continuous
 62
     7
100
AcDbBlockEnd
  0
BLOCK
  5
D6
330
289
100
AcDbEntity
  8
DEFAULT
 62
     1
100
AcDbBlockBegin
  2
SE4
 70
     0
 10
0.0
 20
0.0
 30
0.0
  3
SE4
  1

  0
ENDBLK
  5
D7
330
289
100
AcDbEntity
  8
DEFAULT
 62
     1
100
AcDbBlockEnd
  0
BLOCK
  5
C5
330
28A
100
AcDbEntity
  8
DEFAULT
 62
     1
100
AcDbBlockBegin
  2
SE5
 70
     0
 10
0.0
 20
0.0
 30
0.0
  3
SE5
  1

  0
LINE
  5
C6
330
28A
100
AcDbEntity
  8
DV3_0
  6
Continuous
 62
     7
100
AcDbLine
 10
150.4207955671536
 20
216.0264453871966
 30
0.0
 11
150.4207955671536
 21
211.0264453871966
 31
0.0
  0
LINE
  5
C7
330
28A
100
AcDbEntity
  8
DV3_0
  6
HIDDEN2
 62
     7
100
AcDbLine
 10
139.9207955671536
 20
214.0264453871966
 30
0.0
 11
139.9207955671536
 21
211.0264453871967
 31
0.0
  0
LINE
  5
C8
330
28A
100
AcDbEntity
  8
DV3_0
  6
Continuous
 62
     7
100
AcDbLine
 10
150.4207955671536
 20
211.0264453871967
 30
0.0
 11
110.4207955671536
 21
211.0264453871967
 31
0.0
  0
ARC
  5
C9
330
28A
100
AcDbEntity
  8
DV3_0
  6
Continuous
 62
     7
100
AcDbCircle
 10
111.4207955671536
 20
250.0264453871967
 30
0.0
 40
1.0
100
AcDbArc
 50
90.0
 51
180.0
  0
ARC
  5
CA
330
28A
100
AcDbEntity
  8
DV3_0
  6
Continuous
 62
     7
100
AcDbCircle
 10
149.4207955671536
 20
250.0264453871967
 30
0.0
 40
1.0
100
AcDbArc
 50
0.0
 51
90.0
  0
CIRCLE
  5
CB
330
28A
100
AcDbEntity
  8
DV3_0
  6
Continuous
 62
     7
100
AcDbCircle
 10
130.4207955671536
 20
241.0264453871966
 30
0.0
 40
3.0
  0
LINE
  5
CC
330
28A
100
AcDbEntity
  8
DV3_0
  6
HIDDEN2
 62
     7
100
AcDbLine
 10
114.9207955671536
 20
214.0264453871966
 30
0.0
 11
114.9207955671536
 21
211.0264453871967
 31
0.0
  0
LINE
  5
CD
330
28A
100
AcDbEntity
  8
DV3_0
  6
HIDDEN2
 62
     7
100
AcDbLine
 10
145.9207955671536
 20
211.0264453871967
 30
0.0
 11
145.9207955671536
 21
214.0264453871966
 31
0.0
  0
LINE
  5
CE
330
28A
100
AcDbEntity
  8
DV3_0
  6
HIDDEN2
 62
     7
100
AcDbLine
 10
120.9207955671536
 20
211.0264453871967
 30
0.0
 11
120.9207955671536
 21
214.0264453871966
 31
0.0
  0
LINE
  5
CF
330
28A
100
AcDbEntity
  8
DV3_0
  6
Continuous
 62
     7
100
AcDbLine
 10
110.4207955671536
 20
250.0264453871967
 30
0.0
 11
110.4207955671536
 21
216.0264453871966
 31
0.0
  0
LINE
  5
D0
330
28A
100
AcDbEntity
  8
DV3_0
  6
Continuous
 62
     7
100
AcDbLine
 10
150.4207955671536
 20
250.0264453871967
 30
0.0
 11
150.4207955671536
 21
216.0264453871966
 31
0.0
  0
LINE
  5
D1
330
28A
100
AcDbEntity
  8
DV3_0
  6
Continuous
 62
     7
100
AcDbLine
 10
149.4207955671536
 20
251.0264453871966
 30
0.0
 11
111.4207955671536
 21
251.0264453871966
 31
0.0
  0
LINE
  5
D2
330
28A
100
AcDbEntity
  8
DV3_0
  6
Continuous
 62
     7
100
AcDbLine
 10
110.4207955671536
 20
211.0264453871967
 30
0.0
 11
110.4207955671536
 21
216.0264453871966
 31
0.0
  0
CIRCLE
  5
D3
330
28A
100
AcDbEntity
  8
DV3_0
  6
Continuous
 62
     7
100
AcDbCircle
 10
130.4207955671536
 20
221.0264453871966
 30
0.0
 40
3.0
  0
LINE
  5
D4
330
28A
100
AcDbEntity
  8
DV3_0
  6
HIDDEN2
 62
     7
100
AcDbLine
 10
110.4207955671536
 20
214.0264453871966
 30
0.0
 11
150.4207955671536
 21
214.0264453871966
 31
0.0
  0
ENDBLK
  5
D5
330
28A
100
AcDbEntity
  8
DV3_0
  6
HIDDEN2
 62
     7
100
AcDbBlockEnd
  0
BLOCK
  5
D8
330
28B
100
AcDbEntity
  8
DEFAULT
 62
     1
100
AcDbBlockBegin
  2
SE6
 70
     0
 10
0.0
 20
0.0
 30
0.0
  3
SE6
  1

  0
LWPOLYLINE
  5
D9
330
28B
100
AcDbEntity
  8
DEFAULT
  6
Continuous
 62
     2
100
AcDbPolyline
 90
        4
 70
     0
 43
0.0
 10
168.9185267244217
 20
254.5264454952301
 10
168.3351933730828
 20
251.0264453871966
 10
167.7518600217439
 20
254.5264454952301
 10
168.9185267244217
 20
254.5264454952301
  0
LWPOLYLINE
  5
DF
330
28B
100
AcDbEntity
  8
DEFAULT
  6
Continuous
 62
     2
100
AcDbPolyline
 90
        4
 70
     0
 43
0.0
 10
168.9185267244217
 20
237.5264452791632
 10
168.3351933730828
 20
241.0264453871966
 10
167.7518600217439
 20
237.5264452791632
 10
168.9185267244217
 20
237.5264452791632
  0
LINE
  5
E5
330
28B
100
AcDbEntity
  8
DEFAULT
  6
Continuous
 62
     2
100
AcDbLine
 10
149.4207955671536
 20
251.0264453871966
 30
0.0
 11
170.0851934270995
 21
251.0264453871966
 31
0.0
  0
LINE
  5
E6
330
28B
100
AcDbEntity
  8
DEFAULT
  6
Continuous
 62
     2
100
AcDbLine
 10
130.4207955671536
 20
241.0264453871966
 30
0.0
 11
170.0851934270995
 21
241.0264453871966
 31
0.0
  0
LINE
  5
E7
330
28B
100
AcDbEntity
  8
DEFAULT
  6
Continuous
 62
     2
100
AcDbLine
 10
168.3351933730828
 20
258.0264456032635
 30
0.0
 11
168.3351933730828
 21
234.0264444633247
 31
0.0
  0
TEXT
  5
E8
330
28B
100
AcDbEntity
  8
DEFAULT
  6
Continuous
 62
     2
100
AcDbText
 10
167.4601933730828
 20
243.3724170629364
 30
0.0
 40
3.5
  1
10
 50
90.0
  7
seansi_ttf
 11
163.9601933730828
 21
243.3724170629364
 31
0.0
100
AcDbText
 73
     3
  0
ENDBLK
  5
E9
330
28B
100
AcDbEntity
  8
DEFAULT
  6
Continuous
 62
     2
100
AcDbBlockEnd
  0
BLOCK
  5
EA
330
28C
100
AcDbEntity
  8
DEFAULT
 62
     1
100
AcDbBlockBegin
  2
SE7
 70
     0
 10
0.0
 20
0.0
 30
0.0
  3
SE7
  1

  0
LWPOLYLINE
  5
EB
330
28C
100
AcDbEntity
  8
DEFAULT
  6
Continuous
 62
     2
100
AcDbPolyline
 90
        4
 70
     0
 43
0.0
 10
168.9185279761192
 20
237.5264452791632
 10
168.3351946247803
 20
241.0264453871966
 10
167.7518612734415
 20
237.5264452791632
 10
168.9185279761192
 20
237.5264452791632
  0
LWPOLYLINE
  5
F1
330
28C
100
AcDbEntity
  8
DEFAULT
  6
Continuous
 62
     2
100
AcDbPolyline
 90
        4
 70
     0
 43
0.0
 10
168.9185279761192
 20
224.52644549523
 10
168.3351946247803
 20
221.0264453871966
 10
167.7518612734415
 20
224.52644549523
 10
168.9185279761192
 20
224.52644549523
  0
LINE
  5
F7
330
28C
100
AcDbEntity
  8
DEFAULT
  6
Continuous
 62
     2
100
AcDbLine
 10
130.4207955671536
 20
241.0264453871966
 30
0.0
 11
170.085194678797
 21
241.0264453871966
 31
0.0
  0
LINE
  5
F8
330
28C
100
AcDbEntity
  8
DEFAULT
  6
Continuous
 62
     2
100
AcDbLine
 10
130.4207955671536
 20
221.0264453871966
 30
0.0
 11
170.085194678797
 21
221.0264453871966
 31
0.0
  0
LINE
  5
F9
330
28C
100
AcDbEntity
  8
DEFAULT
  6
Continuous
 62
     2
100
AcDbLine
 10
168.3351946247803
 20
241.0264453871966
 30
0.0
 11
168.3351946247803
 21
221.0264458342315
 31
0.0
  0
TEXT
  5
FA
330
28C
100
AcDbEntity
  8
DEFAULT
  6
Continuous
 62
     2
100
AcDbText
 10
167.4601946247803
 20
228.3724171746951
 30
0.0
 40
3.5
  1
20
 50
90.0
  7
seansi_ttf
 11
163.9601946247803
 21
228.3724171746951
 31
0.0
100
AcDbText
 73
     3
  0
ENDBLK
  5
FB
330
28C
100
AcDbEntity
  8
DEFAULT
  6
Continuous
 62
     2
100
AcDbBlockEnd
  0
BLOCK
  5
FC
330
28D
100
AcDbEntity
  8
DEFAULT
 62
     1
100
AcDbBlockBegin
  2
SE8
 70
     0
 10
0.0
 20
0.0
 30
0.0
  3
SE8
  1

  0
LWPOLYLINE
  5
FD
330
28D
100
AcDbEntity
  8
DEFAULT
  6
Continuous
 62
     2
100
AcDbPolyline
 90
        4
 70
     0
 43
0.0
 10
22.29336386907117
 20
214.5264454952301
 10
22.87669722041008
 20
211.0264453871967
 10
23.46003057174899
 20
214.5264454952301
 10
22.29336386907117
 20
214.5264454952301
  0
LWPOLYLINE
  5
103
330
28D
100
AcDbEntity
  8
DEFAULT
  6
Continuous
 62
     2
100
AcDbPolyline
 90
        4
 70
     0
 43
0.0
 10
22.29336386907117
 20
247.5264452791632
 10
22.87669722041008
 20
251.0264453871966
 10
23.46003057174899
 20
247.5264452791632
 10
22.29336386907117
 20
247.5264452791632
  0
LINE
  5
109
330
28D
100
AcDbEntity
  8
DEFAULT
  6
Continuous
 62
     2
100
AcDbLine
 10
47.88467157682297
 20
211.0264453871967
 30
0.0
 11
21.12669716639337
 21
211.0264453871967
 31
0.0
  0
LINE
  5
10A
330
28D
100
AcDbEntity
  8
DEFAULT
  6
Continuous
 62
     2
100
AcDbLine
 10
42.88467157682297
 20
251.0264453871966
 30
0.0
 11
21.12669716639337
 21
251.0264453871966
 31
0.0
  0
LINE
  5
10B
330
28D
100
AcDbEntity
  8
DEFAULT
  6
Continuous
 62
     2
100
AcDbLine
 10
22.87669722041008
 20
211.0264453871967
 30
0.0
 11
22.87669722041008
 21
251.0264444931269
 31
0.0
  0
TEXT
  5
10C
330
28D
100
AcDbEntity
  8
DEFAULT
  6
Continuous
 62
     2
100
AcDbText
 10
22.00169722041008
 20
228.3724165041428
 30
0.0
 40
3.5
  1
40
 50
90.0
  7
seansi_ttf
 11
18.50169722041008
 21
228.3724165041428
 31
0.0
100
AcDbText
 73
     3
  0
ENDBLK
  5
10D
330
28D
100
AcDbEntity
  8
DEFAULT
  6
Continuous
 62
     2
100
AcDbBlockEnd
  0
BLOCK
  5
10E
330
28E
100
AcDbEntity
  8
DEFAULT
 62
     1
100
AcDbBlockBegin
  2
SE9
 70
     0
 10
0.0
 20
0.0
 30
0.0
  3
SE9
  1

  0
LWPOLYLINE
  5
10F
330
28E
100
AcDbEntity
  8
DEFAULT
  6
Continuous
 62
     2
100
AcDbPolyline
 90
        4
 70
     0
 43
0.0
 10
46.38467168485639
 20
200.1816659100523
 10
42.88467157682297
 20
200.7649992613913
 10
46.38467168485639
 20
201.3483326127301
 10
46.38467168485639
 20
200.1816659100523
  0
LWPOLYLINE
  5
115
330
28E
100
AcDbEntity
  8
DEFAULT
  6
Continuous
 62
     2
100
AcDbPolyline
 90
        4
 70
     0
 43
0.0
 10
79.38467146878955
 20
200.1816659100523
 10
82.88467157682296
 20
200.7649992613913
 10
79.38467146878955
 20
201.3483326127301
 10
79.38467146878955
 20
200.1816659100523
  0
LINE
  5
11B
330
28E
100
AcDbEntity
  8
DEFAULT
  6
Continuous
 62
     2
100
AcDbLine
 10
42.88467157682297
 20
216.0264453871966
 30
0.0
 11
42.88467157682297
 21
199.0149992073745
 31
0.0
  0
LINE
  5
11C
330
28E
100
AcDbEntity
  8
DEFAULT
  6
Continuous
 62
     2
100
AcDbLine
 10
82.88467157682296
 20
211.0264453871967
 30
0.0
 11
82.88467157682296
 21
199.0149992073745
 31
0.0
  0
LINE
  5
11D
330
28E
100
AcDbEntity
  8
DEFAULT
  6
Continuous
 62
     2
100
AcDbLine
 10
42.88467157682297
 20
200.7649992613913
 30
0.0
 11
82.88467068275329
 21
200.7649992613913
 31
0.0
  0
TEXT
  5
11E
330
28E
100
AcDbEntity
  8
DEFAULT
  6
Continuous
 62
     2
100
AcDbText
 10
60.23064269376918
 20
201.6399992613912
 30
0.0
 40
3.5
  1
40
  7
seansi_ttf
 11
60.23064269376918
 21
205.1399992613912
 31
0.0
100
AcDbText
 73
     3
  0
ENDBLK
  5
11F
330
28E
100
AcDbEntity
  8
DEFAULT
  6
Continuous
 62
     2
100
AcDbBlockEnd
  0
BLOCK
  5
120
330
28F
100
AcDbEntity
  8
DEFAULT
 62
     1
100
AcDbBlockBegin
  2
SE10
 70
     0
 10
0.0
 20
0.0
 30
0.0
  3
SE10
  1

  0
LWPOLYLINE
  5
121
330
28F
100
AcDbEntity
  8
DEFAULT
  6
Continuous
 62
     2
100
AcDbPolyline
 90
        4
 70
     0
 43
0.0
 10
113.920795675187
 20
277.7377915894162
 10
110.4207955671536
 20
277.1544582380773
 10
113.920795675187
 20
276.5711248867384
 10
113.920795675187
 20
277.7377915894162
  0
LWPOLYLINE
  5
127
330
28F
100
AcDbEntity
  8
DEFAULT
  6
Continuous
 62
     2
100
AcDbPolyline
 90
        4
 70
     0
 43
0.0
 10
146.9207954591202
 20
277.7377915894162
 10
150.4207955671536
 20
277.1544582380773
 10
146.9207954591202
 20
276.5711248867384
 10
146.9207954591202
 20
277.7377915894162
  0
LINE
  5
12D
330
28F
100
AcDbEntity
  8
DEFAULT
  6
Continuous
 62
     2
100
AcDbLine
 10
110.4207955671536
 20
250.0264453871967
 30
0.0
 11
110.4207955671536
 21
278.904458292094
 31
0.0
  0
LINE
  5
12E
330
28F
100
AcDbEntity
  8
DEFAULT
  6
Continuous
 62
     2
100
AcDbLine
 10
150.4207955671536
 20
250.0264453871967
 30
0.0
 11
150.4207955671536
 21
278.904458292094
 31
0.0
  0
LINE
  5
12F
330
28F
100
AcDbEntity
  8
DEFAULT
  6
Continuous
 62
     2
100
AcDbLine
 10
110.4207955671536
 20
277.1544582380773
 30
0.0
 11
150.4207946730839
 21
277.1544582380773
 31
0.0
  0
TEXT
  5
130
330
28F
100
AcDbEntity
  8
DEFAULT
  6
Continuous
 62
     2
100
AcDbText
 10
127.7667666840998
 20
278.0294582380772
 30
0.0
 40
3.5
  1
40
  7
seansi_ttf
 11
127.7667666840998
 21
281.5294582380773
 31
0.0
100
AcDbText
 73
     3
  0
ENDBLK
  5
131
330
28F
100
AcDbEntity
  8
DEFAULT
  6
Continuous
 62
     2
100
AcDbBlockEnd
  0
BLOCK
  5
132
330
290
100
AcDbEntity
  8
DEFAULT
 62
     1
100
AcDbBlockBegin
  2
SE11
 70
     0
 10
0.0
 20
0.0
 30
0.0
  3
SE11
  1

  0
LWPOLYLINE
  5
133
330
290
100
AcDbEntity
  8
DEFAULT
  6
Continuous
 62
     2
100
AcDbPolyline
 90
        4
 70
     0
 43
0.0
 10
113.920795675187
 20
272.5109448050629
 10
110.4207955671536
 20
271.927611453724
 10
113.920795675187
 20
271.3442781023851
 10
113.920795675187
 20
272.5109448050629
  0
LWPOLYLINE
  5
139
330
290
100
AcDbEntity
  8
DEFAULT
  6
Continuous
 62
     2
100
AcDbPolyline
 90
        4
 70
     0
 43
0.0
 10
126.9207954591202
 20
272.5109448050629
 10
130.4207955671536
 20
271.927611453724
 10
126.9207954591202
 20
271.3442781023851
 10
126.9207954591202
 20
272.5109448050629
  0
LINE
  5
13F
330
290
100
AcDbEntity
  8
DEFAULT
  6
Continuous
 62
     2
100
AcDbLine
 10
110.4207955671536
 20
250.0264453871967
 30
0.0
 11
110.4207955671536
 21
273.6776115077407
 31
0.0
  0
LINE
  5
140
330
290
100
AcDbEntity
  8
DEFAULT
  6
Continuous
 62
     2
100
AcDbLine
 10
130.4207955671536
 20
241.0264453871966
 30
0.0
 11
130.4207955671536
 21
273.6776115077407
 31
0.0
  0
LINE
  5
141
330
290
100
AcDbEntity
  8
DEFAULT
  6
Continuous
 62
     2
100
AcDbLine
 10
110.4207955671536
 20
271.927611453724
 30
0.0
 11
130.4207951201188
 21
271.927611453724
 31
0.0
  0
TEXT
  5
142
330
290
100
AcDbEntity
  8
DEFAULT
  6
Continuous
 62
     2
100
AcDbText
 10
117.7667669076172
 20
272.802611453724
 30
0.0
 40
3.5
  1
20
  7
seansi_ttf
 11
117.7667669076172
 21
276.302611453724
 31
0.0
100
AcDbText
 73
     3
  0
ENDBLK
  5
143
330
290
100
AcDbEntity
  8
DEFAULT
  6
Continuous
 62
     2
100
AcDbBlockEnd
  0
BLOCK
  5
144
330
291
100
AcDbEntity
  8
DEFAULT
 62
     1
100
AcDbBlockBegin
  2
SE12
 70
     0
 10
0.0
 20
0.0
 30
0.0
  3
SE12
  1

  0
LWPOLYLINE
  5
145
330
291
100
AcDbEntity
  8
DEFAULT
  6
Continuous
 62
     2
100
AcDbPolyline
 90
        4
 70
     0
 43
0.0
 10
133.920795675187
 20
272.5109444176327
 10
130.4207955671536
 20
271.9276110662938
 10
133.920795675187
 20
271.3442777149549
 10
133.920795675187
 20
272.5109444176327
  0
LWPOLYLINE
  5
14B
330
291
100
AcDbEntity
  8
DEFAULT
  6
Continuous
 62
     2
100
AcDbPolyline
 90
        4
 70
     0
 43
0.0
 10
146.9207954591202
 20
272.5109444176327
 10
150.4207955671536
 20
271.9276110662938
 10
146.9207954591202
 20
271.3442777149549
 10
146.9207954591202
 20
272.5109444176327
  0
LINE
  5
151
330
291
100
AcDbEntity
  8
DEFAULT
  6
Continuous
 62
     2
100
AcDbLine
 10
130.4207955671536
 20
241.0264453871966
 30
0.0
 11
130.4207955671536
 21
273.6776111203105
 31
0.0
  0
LINE
  5
152
330
291
100
AcDbEntity
  8
DEFAULT
  6
Continuous
 62
     2
100
AcDbLine
 10
150.4207955671536
 20
250.0264453871967
 30
0.0
 11
150.4207955671536
 21
273.6776111203105
 31
0.0
  0
LINE
  5
153
330
291
100
AcDbEntity
  8
DEFAULT
  6
Continuous
 62
     2
100
AcDbLine
 10
130.4207955671536
 20
271.9276110662938
 30
0.0
 11
150.4207951201188
 21
271.9276110662938
 31
0.0
  0
TEXT
  5
154
330
291
100
AcDbEntity
  8
DEFAULT
  6
Continuous
 62
     2
100
AcDbText
 10
137.7667669076172
 20
272.8026110662938
 30
0.0
 40
3.5
  1
20
  7
seansi_ttf
 11
137.7667669076172
 21
276.3026110662938
 31
0.0
100
AcDbText
 73
     3
  0
ENDBLK
  5
155
330
291
100
AcDbEntity
  8
DEFAULT
  6
Continuous
 62
     2
100
AcDbBlockEnd
  0
BLOCK
  5
156
330
292
100
AcDbEntity
  8
DEFAULT
 62
     1
100
AcDbBlockBegin
  2
SE13
 70
     0
 10
0.0
 20
0.0
 30
0.0
  3
SE13
  1

  0
LINE
  5
157
330
292
100
AcDbEntity
  8
DEFAULT
  6
Continuous
 62
     2
100
AcDbLine
 10
149.4207955671536
 20
250.0264453871967
 30
0.0
 11
170.8102977164326
 21
265.6971394116098
 31
0.0
  0
LWPOLYLINE
  5
158
330
292
100
AcDbEntity
  8
DEFAULT
  6
Continuous
 62
     2
100
AcDbPolyline
 90
        4
 70
     0
 43
0.0
 10
152.7060785823543
 20
253.156492396607
 10
150.2274691882265
 20
250.6174425691401
 10
153.3955753159042
 20
252.2153731429727
 10
152.7060785823543
 20
253.156492396607
  0
TEXT
  5
15E
330
292
100
AcDbEntity
  8
DEFAULT
  6
Continuous
 62
     2
100
AcDbText
 10
162.4593614890168
 20
260.6636541569508
 30
0.0
 40
3.5
  1
R
 50
36.2278032302844
  7
seansi_ttf
 11
160.3908713522145
 21
263.4870118307059
 31
0.0
100
AcDbText
 73
     3
  0
TEXT
  5
15F
330
292
100
AcDbEntity
  8
DEFAULT
  6
Continuous
 62
     2
100
AcDbText
 10
167.1640655558048
 20
264.1104841669019
 30
0.0
 40
3.5
  1
1
 50
36.2278032302844
  7
seansi_ttf
 11
165.0955754190026
 21
266.933841840657
 31
0.0
100
AcDbText
 73
     3
  0
ENDBLK
  5
160
330
292
100
AcDbEntity
  8
DEFAULT
  6
Continuous
 62
     2
100
AcDbBlockEnd
  0
BLOCK
  5
161
330
293
100
AcDbEntity
  8
DEFAULT
 62
     1
100
AcDbBlockBegin
  2
SE14
 70
     0
 10
0.0
 20
0.0
 30
0.0
  3
SE14
  1

  0
LINE
  5
162
330
293
100
AcDbEntity
  8
DEFAULT
  6
Continuous
 62
     2
100
AcDbLine
 10
81.88467157682296
 20
173.903360068383
 30
0.0
 11
105.1706997113584
 21
188.5088892325819
 31
0.0
  0
LWPOLYLINE
  5
163
330
293
100
AcDbEntity
  8
DEFAULT
  6
Continuous
 62
     2
100
AcDbPolyline
 90
        4
 70
     0
 43
0.0
 10
85.38689508120027
 20
176.7886173006713
 10
82.73182246354801
 20
174.4347124703922
 10
86.00680623601229
 20
175.8002745689853
 10
85.38689508120027
 20
176.7886173006713
  0
TEXT
  5
169
330
293
100
AcDbEntity
  8
DEFAULT
  6
Continuous
 62
     2
100
AcDbText
 10
96.47886680602198
 20
184.0900467916742
 30
0.0
 40
3.5
  1
R
 50
32.09687680006068
  7
seansi_ttf
 11
94.6191333989897
 21
187.0550748952118
 31
0.0
100
AcDbText
 73
     3
  0
TEXT
  5
16A
330
293
100
AcDbEntity
  8
DEFAULT
  6
Continuous
 62
     2
100
AcDbText
 10
101.4196434941918
 20
187.1890148765677
 30
0.0
 40
3.5
  1
1
 50
32.09687680006068
  7
seansi_ttf
 11
99.55991008715958
 21
190.1540429801054
 31
0.0
100
AcDbText
 73
     3
  0
ENDBLK
  5
16B
330
293
100
AcDbEntity
  8
DEFAULT
  6
Continuous
 62
     2
100
AcDbBlockEnd
  0
BLOCK
  5
16C
330
294
100
AcDbEntity
  8
DEFAULT
 62
     1
100
AcDbBlockBegin
  2
SE15
 70
     0
 10
0.0
 20
0.0
 30
0.0
  3
SE15
  1

  0
LWPOLYLINE
  5
16D
330
294
100
AcDbEntity
  8
DEFAULT
  6
Continuous
 62
     2
100
AcDbPolyline
 90
        4
 70
     0
 43
0.0
 10
104.3296438019774
 20
178.4033601764164
 10
103.7463104506385
 20
174.903360068383
 10
103.1629770992996
 20
178.4033601764164
 10
104.3296438019774
 20
178.4033601764164
  0
LWPOLYLINE
  5
173
330
294
100
AcDbEntity
  8
DEFAULT
  6
Continuous
 62
     2
100
AcDbPolyline
 90
        4
 70
     0
 43
0.0
 10
104.3296438019774
 20
163.9033599603496
 10
103.7463104506385
 20
167.403360068383
 10
103.1629770992996
 20
163.9033599603496
 10
104.3296438019774
 20
163.9033599603496
  0
LINE
  5
179
330
294
100
AcDbEntity
  8
DEFAULT
  6
Continuous
 62
     2
100
AcDbLine
 10
81.88467157682296
 20
174.903360068383
 30
0.0
 11
105.4963105046552
 21
174.903360068383
 31
0.0
  0
LINE
  5
17A
330
294
100
AcDbEntity
  8
DEFAULT
  6
Continuous
 62
     2
100
AcDbLine
 10
71.38467157682296
 20
167.403360068383
 30
0.0
 11
105.4963105046552
 21
167.403360068383
 31
0.0
  0
LINE
  5
17B
330
294
100
AcDbEntity
  8
DEFAULT
  6
Continuous
 62
     2
100
AcDbLine
 10
103.7463104506385
 20
181.9033602844498
 30
0.0
 11
103.7463104506385
 21
160.4033604856155
 31
0.0
  0
TEXT
  5
17C
330
294
100
AcDbEntity
  8
DEFAULT
  6
Continuous
 62
     2
100
AcDbText
 10
102.8713104506385
 20
167.7943554128655
 30
0.0
 40
3.5
  1
7,5
 50
90.0
  7
seansi_ttf
 11
99.37131045063852
 21
167.7943554128655
 31
0.0
100
AcDbText
 73
     3
  0
ENDBLK
  5
17D
330
294
100
AcDbEntity
  8
DEFAULT
  6
Continuous
 62
     2
100
AcDbBlockEnd
  0
BLOCK
  5
17E
330
295
100
AcDbEntity
  8
DEFAULT
 62
     1
100
AcDbBlockBegin
  2
SE16
 70
     0
 10
0.0
 20
0.0
 30
0.0
  3
SE16
  1

  0
LWPOLYLINE
  5
17F
330
295
100
AcDbEntity
  8
DEFAULT
  6
Continuous
 62
     2
100
AcDbPolyline
 90
        4
 70
     0
 43
0.0
 10
104.3296427290938
 20
163.9033599603496
 10
103.7463093777549
 20
167.403360068383
 10
103.162976026416
 20
163.9033599603496
 10
104.3296427290938
 20
163.9033599603496
  0
LWPOLYLINE
  5
185
330
295
100
AcDbEntity
  8
DEFAULT
  6
Continuous
 62
     2
100
AcDbPolyline
 90
        4
 70
     0
 43
0.0
 10
104.3296427290938
 20
145.9033601764164
 10
103.7463093777549
 20
142.403360068383
 10
103.162976026416
 20
145.9033601764164
 10
104.3296427290938
 20
145.9033601764164
  0
LINE
  5
18B
330
295
100
AcDbEntity
  8
DEFAULT
  6
Continuous
 62
     2
100
AcDbLine
 10
71.38467157682296
 20
167.403360068383
 30
0.0
 11
105.4963094317716
 21
167.403360068383
 31
0.0
  0
LINE
  5
18C
330
295
100
AcDbEntity
  8
DEFAULT
  6
Continuous
 62
     2
100
AcDbLine
 10
71.38467157682298
 20
142.403360068383
 30
0.0
 11
105.4963094317716
 21
142.403360068383
 31
0.0
  0
LINE
  5
18D
330
295
100
AcDbEntity
  8
DEFAULT
  6
Continuous
 62
     2
100
AcDbLine
 10
103.7463093777549
 20
167.403360068383
 30
0.0
 11
103.7463093777549
 21
142.403359695854
 31
0.0
  0
TEXT
  5
18E
330
295
100
AcDbEntity
  8
DEFAULT
  6
Continuous
 62
     2
100
AcDbText
 10
102.8713093777549
 20
152.2493314460996
 30
0.0
 40
3.5
  1
25
 50
90.0
  7
seansi_ttf
 11
99.3713093777549
 21
152.2493314460996
 31
0.0
100
AcDbText
 73
     3
  0
ENDBLK
  5
18F
330
295
100
AcDbEntity
  8
DEFAULT
  6
Continuous
 62
     2
100
AcDbBlockEnd
  0
BLOCK
  5
190
330
296
100
AcDbEntity
  8
DEFAULT
 62
     1
100
AcDbBlockBegin
  2
SE17
 70
     0
 10
0.0
 20
0.0
 30
0.0
  3
SE17
  1

  0
LWPOLYLINE
  5
191
330
296
100
AcDbEntity
  8
DEFAULT
  6
Continuous
 62
     2
100
AcDbPolyline
 90
        4
 70
     0
 43
0.0
 10
104.3296427290938
 20
145.9033601764164
 10
103.7463093777549
 20
142.403360068383
 10
103.162976026416
 20
145.9033601764164
 10
104.3296427290938
 20
145.9033601764164
  0
LWPOLYLINE
  5
197
330
296
100
AcDbEntity
  8
DEFAULT
  6
Continuous
 62
     2
100
AcDbPolyline
 90
        4
 70
     0
 43
0.0
 10
104.3296427290938
 20
131.4033599603496
 10
103.7463093777549
 20
134.903360068383
 10
103.162976026416
 20
131.4033599603496
 10
104.3296427290938
 20
131.4033599603496
  0
LINE
  5
19D
330
296
100
AcDbEntity
  8
DEFAULT
  6
Continuous
 62
     2
100
AcDbLine
 10
71.38467157682298
 20
142.403360068383
 30
0.0
 11
105.4963094317716
 21
142.403360068383
 31
0.0
  0
LINE
  5
19E
330
296
100
AcDbEntity
  8
DEFAULT
  6
Continuous
 62
     2
100
AcDbLine
 10
81.88467157682296
 20
134.903360068383
 30
0.0
 11
105.4963094317716
 21
134.903360068383
 31
0.0
  0
LINE
  5
19F
330
296
100
AcDbEntity
  8
DEFAULT
  6
Continuous
 62
     2
100
AcDbLine
 10
103.7463093777549
 20
149.4033602844498
 30
0.0
 11
103.7463093777549
 21
127.9033604856155
 31
0.0
  0
TEXT
  5
1A0
330
296
100
AcDbEntity
  8
DEFAULT
  6
Continuous
 62
     2
100
AcDbText
 10
102.8713093777549
 20
135.2943554128655
 30
0.0
 40
3.5
  1
7,5
 50
90.0
  7
seansi_ttf
 11
99.3713093777549
 21
135.2943554128655
 31
0.0
100
AcDbText
 73
     3
  0
ENDBLK
  5
1A1
330
296
100
AcDbEntity
  8
DEFAULT
  6
Continuous
 62
     2
100
AcDbBlockEnd
  0
BLOCK
  5
1A2
330
297
100
AcDbEntity
  8
DEFAULT
 62
     1
100
AcDbBlockBegin
  2
SE18
 70
     0
 10
0.0
 20
0.0
 30
0.0
  3
SE18
  1

  0
LINE
  5
1A3
330
297
100
AcDbEntity
  8
DEFAULT
  6
Continuous
 62
     2
100
AcDbLine
 10
63.26115830193781
 20
148.2350439070442
 30
0.0
 11
73.8217255489993
 21
140.6538549241711
 31
0.0
  0
LINE
  5
1A4
330
297
100
AcDbEntity
  8
DEFAULT
  6
Continuous
 62
     2
100
AcDbLine
 10
73.82172550663186
 20
140.6538549545857
 30
0.0
 11
124.6815039917012
 21
104.1427866282455
 31
0.0
  0
LWPOLYLINE
  5
1A5
330
297
100
AcDbEntity
  8
DEFAULT
  6
Continuous
 62
     2
100
AcDbPolyline
 90
        4
 70
     0
 43
0.0
 10
66.44456953488125
 20
146.6678261567019
 10
68.94761764701408
 20
144.1528651821803
 10
65.76420641407063
 20
145.7200829325225
 10
66.44456953488125
 20
146.6678261567019
  0
LWPOLYLINE
  5
1AB
330
297
100
AcDbEntity
  8
DEFAULT
  6
Continuous
 62
     2
100
AcDbPolyline
 90
        4
 70
     0
 43
0.0
 10
77.00513673957532
 20
139.0866372042435
 10
73.82172550663186
 20
140.6538549545857
 10
76.32477361876469
 20
138.1388939800641
 10
77.00513673957532
 20
139.0866372042435
  0
TEXT
  5
1B1
330
297
100
AcDbEntity
  8
DEFAULT
  6
Continuous
 62
     2
100
AcDbText
 10
117.0924234955581
 20
110.6679336274623
 30
0.0
 40
3.5
  1
O
 50
324.3263010405223
  7
semeca1_ttf
 11
119.1335127949883
 21
113.5111632122394
 31
0.0
100
AcDbText
 73
     3
  0
TEXT
  5
1B2
330
297
100
AcDbEntity
  8
DEFAULT
  6
Continuous
 62
     2
100
AcDbText
 10
122.0406405974858
 20
107.1157220747697
 30
0.0
 40
3.5
  1
6
 50
324.3263010405223
  7
seansi_ttf
 11
124.0817298969161
 21
109.9589516595468
 31
0.0
100
AcDbText
 73
     3
  0
TEXT
  5
1B3
330
297
100
AcDbEntity
  8
DEFAULT
  6
Continuous
 62
     2
100
AcDbText
 10
91.52087476081211
 20
129.0251618906316
 30
0.0
 40
3.5
  1
N°4 F.PASS.
 50
324.3263010405223
  7
seansi_ttf
 11
93.56196406024233
 21
131.8683914754087
 31
0.0
100
AcDbText
 73
     3
  0
ENDBLK
  5
1B4
330
297
100
AcDbEntity
  8
DEFAULT
  6
Continuous
 62
     2
100
AcDbBlockEnd
  0
BLOCK
  5
1B5
330
298
100
AcDbEntity
  8
DEFAULT
 62
     1
100
AcDbBlockBegin
  2
SE19
 70
     0
 10
0.0
 20
0.0
 30
0.0
  3
SE19
  1

  0
LWPOLYLINE
  5
1B6
330
298
100
AcDbEntity
  8
DEFAULT
  6
Continuous
 62
     2
100
AcDbPolyline
 90
        4
 70
     0
 43
0.0
 10
111.7965672474406
 20
171.4033599603496
 10
111.2132338961017
 20
174.903360068383
 10
110.6299005447628
 20
171.4033599603496
 10
111.7965672474406
 20
171.4033599603496
  0
LWPOLYLINE
  5
1BC
330
298
100
AcDbEntity
  8
DEFAULT
  6
Continuous
 62
     2
100
AcDbPolyline
 90
        4
 70
     0
 43
0.0
 10
111.7965672474406
 20
138.4033601764165
 10
111.2132338961017
 20
134.903360068383
 10
110.6299005447628
 20
138.4033601764165
 10
111.7965672474406
 20
138.4033601764165
  0
LINE
  5
1C2
330
298
100
AcDbEntity
  8
DEFAULT
  6
Continuous
 62
     2
100
AcDbLine
 10
81.88467157682296
 20
174.903360068383
 30
0.0
 11
112.9632339501184
 21
174.903360068383
 31
0.0
  0
LINE
  5
1C3
330
298
100
AcDbEntity
  8
DEFAULT
  6
Continuous
 62
     2
100
AcDbLine
 10
81.88467157682296
 20
134.903360068383
 30
0.0
 11
112.9632339501184
 21
134.903360068383
 31
0.0
  0
LINE
  5
1C4
330
298
100
AcDbEntity
  8
DEFAULT
  6
Continuous
 62
     2
100
AcDbLine
 10
111.2132338961017
 20
174.903360068383
 30
0.0
 11
111.2132338961017
 21
134.9033609624527
 31
0.0
  0
TEXT
  5
1C5
330
298
100
AcDbEntity
  8
DEFAULT
  6
Continuous
 62
     2
100
AcDbText
 10
110.3382338961017
 20
152.2493320793989
 30
0.0
 40
3.5
  1
40
 50
90.0
  7
seansi_ttf
 11
106.8382338961017
 21
152.2493320793989
 31
0.0
100
AcDbText
 73
     3
  0
ENDBLK
  5
1C6
330
298
100
AcDbEntity
  8
DEFAULT
  6
Continuous
 62
     2
100
AcDbBlockEnd
  0
BLOCK
  5
1C7
330
299
100
AcDbEntity
  8
DEFAULT
 62
     1
100
AcDbBlockBegin
  2
SE20
 70
     0
 10
0.0
 20
0.0
 30
0.0
  3
SE20
  1

  0
LWPOLYLINE
  5
1C8
330
299
100
AcDbEntity
  8
DEFAULT
  6
Continuous
 62
     2
100
AcDbPolyline
 90
        4
 70
     0
 43
0.0
 10
79.38467146878955
 20
114.9122438494933
 10
82.88467157682296
 20
115.4955772008322
 10
79.38467146878955
 20
116.0789105521711
 10
79.38467146878955
 20
114.9122438494933
  0
LWPOLYLINE
  5
1CE
330
299
100
AcDbEntity
  8
DEFAULT
  6
Continuous
 62
     2
100
AcDbPolyline
 90
        4
 70
     0
 43
0.0
 10
74.8846716848564
 20
114.9122438494933
 10
71.38467157682298
 20
115.4955772008322
 10
74.8846716848564
 20
116.0789105521711
 10
74.8846716848564
 20
114.9122438494933
  0
LINE
  5
1D4
330
299
100
AcDbEntity
  8
DEFAULT
  6
Continuous
 62
     2
100
AcDbLine
 10
82.88467157682296
 20
135.903360068383
 30
0.0
 11
82.88467157682296
 21
113.7455771468155
 31
0.0
  0
LINE
  5
1D5
330
299
100
AcDbEntity
  8
DEFAULT
  6
Continuous
 62
     2
100
AcDbLine
 10
71.38467157682298
 20
142.403360068383
 30
0.0
 11
71.38467157682298
 21
113.7455771468155
 31
0.0
  0
LINE
  5
1D6
330
299
100
AcDbEntity
  8
DEFAULT
  6
Continuous
 62
     2
100
AcDbLine
 10
82.88467157682296
 20
115.4955772008322
 30
0.0
 11
71.38467155447123
 21
115.4955772008322
 31
0.0
  0
TEXT
  5
1D7
330
299
100
AcDbEntity
  8
DEFAULT
  6
Continuous
 62
     2
100
AcDbText
 10
72.44865260830113
 20
116.3705772008322
 30
0.0
 40
3.5
  1
11,5
  7
seansi_ttf
 11
72.44865260830113
 21
119.8705772008322
 31
0.0
100
AcDbText
 73
     3
  0
ENDBLK
  5
1D8
330
299
100
AcDbEntity
  8
DEFAULT
  6
Continuous
 62
     2
100
AcDbBlockEnd
  0
BLOCK
  5
1D9
330
29A
100
AcDbEntity
  8
DEFAULT
 62
     1
100
AcDbBlockBegin
  2
SE21
 70
     0
 10
0.0
 20
0.0
 30
0.0
  3
SE21
  1

  0
LWPOLYLINE
  5
1DA
330
29A
100
AcDbEntity
  8
DEFAULT
  6
Continuous
 62
     2
100
AcDbPolyline
 90
        4
 70
     0
 43
0.0
 10
39.38467146878956
 20
258.3237923075925
 10
42.88467157682297
 20
257.7404589562537
 10
39.38467146878956
 20
257.1571256049147
 10
39.38467146878956
 20
258.3237923075925
  0
LWPOLYLINE
  5
1E0
330
29A
100
AcDbEntity
  8
DEFAULT
  6
Continuous
 62
     2
100
AcDbPolyline
 90
        4
 70
     0
 43
0.0
 10
49.38467168485638
 20
258.3237923075925
 10
45.88467157682297
 20
257.7404589562537
 10
49.38467168485638
 20
257.1571256049147
 10
49.38467168485638
 20
258.3237923075925
  0
LINE
  5
1E6
330
29A
100
AcDbEntity
  8
DEFAULT
  6
Continuous
 62
     2
100
AcDbLine
 10
42.88467157682297
 20
250.0264453871967
 30
0.0
 11
42.88467157682297
 21
259.4904590102704
 31
0.0
  0
LINE
  5
1E7
330
29A
100
AcDbEntity
  8
DEFAULT
  6
Continuous
 62
     2
100
AcDbLine
 10
45.88467157682297
 20
250.0264453871967
 30
0.0
 11
45.88467157682297
 21
259.4904590102704
 31
0.0
  0
LINE
  5
1E8
330
29A
100
AcDbEntity
  8
DEFAULT
  6
Continuous
 62
     2
100
AcDbLine
 10
35.88467136075614
 20
257.7404589562537
 30
0.0
 11
52.88467135330556
 21
257.7404589562537
 31
0.0
  0
TEXT
  5
1E9
330
29A
100
AcDbEntity
  8
DEFAULT
  6
Continuous
 62
     2
100
AcDbText
 10
43.05765737185201
 20
258.6154589562536
 30
0.0
 40
3.5
  1
3
  7
seansi_ttf
 11
43.05765737185201
 21
262.1154589562536
 31
0.0
100
AcDbText
 73
     3
  0
ENDBLK
  5
1EA
330
29A
100
AcDbEntity
  8
DEFAULT
  6
Continuous
 62
     2
100
AcDbBlockEnd
  0
BLOCK
  5
1EB
330
29B
100
AcDbEntity
  8
DEFAULT
 62
     1
100
AcDbBlockBegin
  2
SE22
 70
     0
 10
0.0
 20
0.0
 30
0.0
  3
SE22
  1

  0
LWPOLYLINE
  5
1EC
330
29B
100
AcDbEntity
  8
DEFAULT
  6
Continuous
 62
     2
100
AcDbPolyline
 90
        4
 70
     0
 43
0.0
 10
168.9185279761192
 20
224.52644549523
 10
168.3351946247803
 20
221.0264453871966
 10
167.7518612734415
 20
224.52644549523
 10
168.9185279761192
 20
224.52644549523
  0
LWPOLYLINE
  5
1F2
330
29B
100
AcDbEntity
  8
DEFAULT
  6
Continuous
 62
     2
100
AcDbPolyline
 90
        4
 70
     0
 43
0.0
 10
168.9185279761192
 20
207.5264452791632
 10
168.3351946247803
 20
211.0264453871967
 10
167.7518612734415
 20
207.5264452791632
 10
168.9185279761192
 20
207.5264452791632
  0
LINE
  5
1F8
330
29B
100
AcDbEntity
  8
DEFAULT
  6
Continuous
 62
     2
100
AcDbLine
 10
130.4207955671536
 20
221.0264453871966
 30
0.0
 11
170.085194678797
 21
221.0264453871966
 31
0.0
  0
LINE
  5
1F9
330
29B
100
AcDbEntity
  8
DEFAULT
  6
Continuous
 62
     2
100
AcDbLine
 10
150.4207955671536
 20
211.0264453871967
 30
0.0
 11
170.085194678797
 21
211.0264453871967
 31
0.0
  0
LINE
  5
1FA
330
29B
100
AcDbEntity
  8
DEFAULT
  6
Continuous
 62
     2
100
AcDbLine
 10
168.3351946247803
 20
228.0264456032635
 30
0.0
 11
168.3351946247803
 21
204.0264444633246
 31
0.0
  0
TEXT
  5
1FB
330
29B
100
AcDbEntity
  8
DEFAULT
  6
Continuous
 62
     2
100
AcDbText
 10
167.4601946247803
 20
213.3724170629364
 30
0.0
 40
3.5
  1
10
 50
90.0
  7
seansi_ttf
 11
163.9601946247803
 21
213.3724170629364
 31
0.0
100
AcDbText
 73
     3
  0
ENDBLK
  5
1FC
330
29B
100
AcDbEntity
  8
DEFAULT
  6
Continuous
 62
     2
100
AcDbBlockEnd
  0
BLOCK
  5
1FD
330
29C
100
AcDbEntity
  8
DEFAULT
 62
     1
100
AcDbBlockBegin
  2
SE23
 70
     0
 10
0.0
 20
0.0
 30
0.0
  3
SE23
  1

  0
LINE
  5
1FE
330
29C
100
AcDbEntity
  8
DEFAULT
  6
Continuous
 62
     2
100
AcDbLine
 10
61.39215409225695
 20
231.4950847581147
 30
0.0
 11
46.56918407827402
 21
214.5199617261034
 31
0.0
  0
LWPOLYLINE
  5
1FF
330
29C
100
AcDbEntity
  8
DEFAULT
  6
Continuous
 62
     2
100
AcDbPolyline
 90
        4
 70
     0
 43
0.0
 10
49.31067828544271
 20
216.7726243133638
 10
46.56918414075632
 20
214.5199617976575
 10
48.43189616441978
 20
217.5399920080888
 10
49.31067828544271
 20
216.7726243133638
  0
TEXT
  5
205
330
29C
100
AcDbEntity
  8
DEFAULT
  6
Continuous
 62
     2
100
AcDbText
 10
54.34554956599907
 20
224.7556862372984
 30
0.0
 40
3.5
  1
R
 50
48.87197792530081
  7
seansi_ttf
 11
51.70920328430554
 21
227.057789250415
 31
0.0
100
AcDbText
 73
     3
  0
TEXT
  5
206
330
29C
100
AcDbEntity
  8
DEFAULT
  6
Continuous
 62
     2
100
AcDbText
 10
58.18166055847209
 20
229.1487637379782
 30
0.0
 40
3.5
  1
2
 50
48.87197792530081
  7
seansi_ttf
 11
55.54531427677855
 21
231.4508667510949
 31
0.0
100
AcDbText
 73
     3
  0
ENDBLK
  5
207
330
29C
100
AcDbEntity
  8
DEFAULT
  6
Continuous
 62
     2
100
AcDbBlockEnd
  0
ENDSEC
  0
SECTION
  2
ENTITIES
  0
INSERT
  5
61
330
281
100
AcDbEntity
  8
DEFAULT
 62
     0
100
AcDbBlockReference
  2
SE0
 10
0.0
 20
0.0
 30
0.0
  0
INSERT
  5
69
330
281
100
AcDbEntity
  8
DEFAULT
 62
     0
100
AcDbBlockReference
  2
SE2
 10
0.0
 20
0.0
 30
0.0
  0
INSERT
  5
71
330
281
100
AcDbEntity
  8
DEFAULT
 62
     0
100
AcDbBlockReference
  2
SE4
 10
0.0
 20
0.0
 30
0.0
  0
LINE
  5
342
330
281
100
AcDbEntity
  8
DV3_0
  6
Continuous
 62
     7
100
AcDbLine
 10
79.03612399033064
 20
73.62308531881359
 30
0.0
 11
79.03612399033064
 21
68.62308531881359
 31
0.0
  0
LINE
  5
343
330
281
100
AcDbEntity
  8
DV3_0
  6
HIDDEN2
 62
     7
100
AcDbLine
 10
68.53612399033067
 20
71.62308531881362
 30
0.0
 11
68.53612399033067
 21
68.62308531881362
 31
0.0
  0
LINE
  5
344
330
281
100
AcDbEntity
  8
DV3_0
  6
Continuous
 62
     7
100
AcDbLine
 10
79.03612399033064
 20
68.62308531881362
 30
0.0
 11
39.03612399033064
 21
68.62308531881362
 31
0.0
  0
ARC
  5
345
330
281
100
AcDbEntity
  8
DV3_0
  6
Continuous
 62
     7
100
AcDbCircle
 10
40.03612399033065
 20
107.6230853188136
 30
0.0
 40
1.0
100
AcDbArc
 50
90.0
 51
180.0
  0
ARC
  5
346
330
281
100
AcDbEntity
  8
DV3_0
  6
Continuous
 62
     7
100
AcDbCircle
 10
78.03612399033063
 20
107.6230853188136
 30
0.0
 40
1.0
100
AcDbArc
 50
0.0
 51
90.0
  0
CIRCLE
  5
347
330
281
100
AcDbEntity
  8
DV3_0
  6
Continuous
 62
     7
100
AcDbCircle
 10
59.03612399033066
 20
98.62308531881362
 30
0.0
 40
3.0
  0
LINE
  5
348
330
281
100
AcDbEntity
  8
DV3_0
  6
HIDDEN2
 62
     7
100
AcDbLine
 10
43.53612399033065
 20
71.62308531881362
 30
0.0
 11
43.53612399033065
 21
68.62308531881362
 31
0.0
  0
LINE
  5
349
330
281
100
AcDbEntity
  8
DV3_0
  6
HIDDEN2
 62
     7
100
AcDbLine
 10
74.53612399033066
 20
68.62308531881362
 30
0.0
 11
74.53612399033066
 21
71.62308531881362
 31
0.0
  0
LINE
  5
34A
330
281
100
AcDbEntity
  8
DV3_0
  6
HIDDEN2
 62
     7
100
AcDbLine
 10
49.53612399033065
 20
68.62308531881362
 30
0.0
 11
49.53612399033065
 21
71.62308531881362
 31
0.0
  0
LINE
  5
34B
330
281
100
AcDbEntity
  8
DV3_0
  6
Continuous
 62
     7
100
AcDbLine
 10
39.03612399033065
 20
107.6230853188136
 30
0.0
 11
39.03612399033065
 21
73.62308531881362
 31
0.0
  0
LINE
  5
34C
330
281
100
AcDbEntity
  8
DV3_0
  6
Continuous
 62
     7
100
AcDbLine
 10
79.03612399033064
 20
107.6230853188136
 30
0.0
 11
79.03612399033064
 21
73.62308531881362
 31
0.0
  0
LINE
  5
34D
330
281
100
AcDbEntity
  8
DV3_0
  6
Continuous
 62
     7
100
AcDbLine
 10
78.03612399033063
 20
108.6230853188136
 30
0.0
 11
40.03612399033063
 21
108.6230853188136
 31
0.0
  0
LINE
  5
34E
330
281
100
AcDbEntity
  8
DV3_0
  6
Continuous
 62
     7
100
AcDbLine
 10
39.03612399033065
 20
68.62308531881362
 30
0.0
 11
39.03612399033065
 21
73.62308531881362
 31
0.0
  0
CIRCLE
  5
34F
330
281
100
AcDbEntity
  8
DV3_0
  6
Continuous
 62
     7
100
AcDbCircle
 10
59.03612399033066
 20
78.62308531881359
 30
0.0
 40
3.0
  0
LINE
  5
350
330
281
100
AcDbEntity
  8
DV3_0
  6
HIDDEN2
 62
     7
100
AcDbLine
 10
39.03612399033065
 20
71.62308531881362
 30
0.0
 11
79.03612399033064
 21
71.62308531881362
 31
0.0
  0
LINE
  5
353
330
281
100
AcDbEntity
  8
DV2_0
  6
HIDDEN2
 62
     7
100
AcDbLine
 10
-25.50000000000002
 20
15.50000000000003
 30
0.0
 11
-28.50000000000001
 21
15.50000000000003
 31
0.0
  0
LINE
  5
354
330
281
100
AcDbEntity
  8
DV2_0
  6
HIDDEN2
 62
     7
100
AcDbLine
 10
-28.50000000000001
 20
9.5
 30
0.0
 11
-25.50000000000002
 21
9.5
 31
0.0
  0
LINE
  5
355
330
281
100
AcDbEntity
  8
DV2_0
  6
Continuous
 62
     7
100
AcDbLine
 10
-25.50000000000002
 20
32.5
 30
0.0
 11
-23.50000000000001
 21
32.5
 31
0.0
  0
LINE
  5
356
330
281
100
AcDbEntity
  8
DV2_0
  6
Continuous
 62
     7
100
AcDbLine
 10
10.49999999999998
 20
32.5
 30
0.0
 11
-23.50000000000001
 21
32.5
 31
0.0
  0
LINE
  5
357
330
281
100
AcDbEntity
  8
DV2_0
  6
Continuous
 62
     7
100
AcDbLine
 10
-23.50000000000001
 20
-7.499999999999971
 30
0.0
 11
-25.50000000000002
 21
-7.499999999999971
 31
0.0
  0
LINE
  5
358
330
281
100
AcDbEntity
  8
DV2_0
  6
Continuous
 62
     7
100
AcDbLine
 10
-28.50000000000001
 20
-7.499999999999971
 30
0.0
 11
-28.50000000000001
 21
-6.499999999999971
 31
0.0
  0
ARC
  5
359
330
281
100
AcDbEntity
  8
DV2_0
  6
Continuous
 62
     7
100
AcDbCircle
 10
10.49999999999998
 20
31.5
 30
0.0
 40
1.0
100
AcDbArc
 50
0.0
 51
90.0
  0
LINE
  5
35A
330
281
100
AcDbEntity
  8
DV2_0
  6
Continuous
 62
     7
100
AcDbLine
 10
-25.50000000000001
 20
-6.499999999999971
 30
0.0
 11
-25.50000000000001
 21
-7.499999999999971
 31
0.0
  0
LINE
  5
35B
330
281
100
AcDbEntity
  8
DV2_0
  6
Continuous
 62
     7
100
AcDbLine
 10
-28.50000000000001
 20
31.5
 30
0.0
 11
-28.50000000000001
 21
32.5
 31
0.0
  0
LINE
  5
35C
330
281
100
AcDbEntity
  8
DV2_0
  6
Continuous
 62
     7
100
AcDbLine
 10
11.49999999999998
 20
-6.499999999999971
 30
0.0
 11
11.49999999999998
 21
31.50000000000003
 31
0.0
  0
LINE
  5
35D
330
281
100
AcDbEntity
  8
DV2_0
  6
Continuous
 62
     7
100
AcDbLine
 10
-28.50000000000001
 20
32.5
 30
0.0
 11
-25.50000000000002
 21
32.5
 31
0.0
  0
LINE
  5
35E
330
281
100
AcDbEntity
  8
DV2_0
  6
Continuous
 62
     7
100
AcDbLine
 10
10.49999999999998
 20
-7.499999999999971
 30
0.0
 11
-23.50000000000001
 21
-7.499999999999971
 31
0.0
  0
CIRCLE
  5
35F
330
281
100
AcDbEntity
  8
DV2_0
  6
Continuous
 62
     7
100
AcDbCircle
 10
-0.0000000000000142
 20
25.00000000000003
 30
0.0
 40
3.0
  0
CIRCLE
  5
360
330
281
100
AcDbEntity
  8
DV2_0
  6
Continuous
 62
     7
100
AcDbCircle
 10
0.0
 20
0.0
 30
0.0
 40
3.0
  0
LINE
  5
361
330
281
100
AcDbEntity
  8
DV2_0
  6
Continuous
 62
     7
100
AcDbLine
 10
-25.50000000000002
 20
32.5
 30
0.0
 11
-25.50000000000002
 21
31.5
 31
0.0
  0
LINE
  5
362
330
281
100
AcDbEntity
  8
DV2_0
  6
Continuous
 62
     7
100
AcDbLine
 10
-25.50000000000001
 20
-7.499999999999971
 30
0.0
 11
-28.50000000000001
 21
-7.499999999999971
 31
0.0
  0
LINE
  5
363
330
281
100
AcDbEntity
  8
DV2_0
  6
Continuous
 62
     7
100
AcDbLine
 10
-28.50000000000001
 20
-6.499999999999971
 30
0.0
 11
-28.50000000000001
 21
31.50000000000003
 31
0.0
  0
LINE
  5
364
330
281
100
AcDbEntity
  8
DV2_0
  6
Continuous
 62
     7
100
AcDbLine
 10
-25.50000000000001
 20
-6.499999999999971
 30
0.0
 11
-25.50000000000002
 21
31.50000000000003
 31
0.0
  0
ARC
  5
365
330
281
100
AcDbEntity
  8
DV2_0
  6
Continuous
 62
     7
100
AcDbCircle
 10
10.49999999999998
 20
-6.499999999999971
 30
0.0
 40
1.0
100
AcDbArc
 50
270.0
 51
0.0
  0
LINE
  5
366
330
281
100
AcDbEntity
  8
DV1_0
  6
HIDDEN2
 62
     7
100
AcDbLine
 10
-25.50000000000002
 20
101.6230853188136
 30
0.0
 11
-28.50000000000001
 21
101.6230853188136
 31
0.0
  0
LINE
  5
367
330
281
100
AcDbEntity
  8
DV1_0
  6
HIDDEN2
 62
     7
100
AcDbLine
 10
-3.000000000000014
 20
71.62308531881362
 30
0.0
 11
-3.000000000000014
 21
68.62308531881362
 31
0.0
  0
LINE
  5
368
330
281
100
AcDbEntity
  8
DV1_0
  6
HIDDEN2
 62
     7
100
AcDbLine
 10
-25.50000000000002
 20
81.62308531881359
 30
0.0
 11
-28.50000000000001
 21
81.62308531881359
 31
0.0
  0
LINE
  5
369
330
281
100
AcDbEntity
  8
DV1_0
  6
Continuous
 62
     7
100
AcDbLine
 10
-25.50000000000002
 20
73.62308531881362
 30
0.0
 11
-25.50000000000001
 21
107.6230853188136
 31
0.0
  0
LINE
  5
36A
330
281
100
AcDbEntity
  8
DV1_0
  6
Continuous
 62
     7
100
AcDbLine
 10
-28.50000000000001
 20
108.6230853188136
 30
0.0
 11
-25.50000000000001
 21
108.6230853188136
 31
0.0
  0
ARC
  5
36B
330
281
100
AcDbEntity
  8
DV1_0
  6
Continuous
 62
     7
100
AcDbCircle
 10
-23.50000000000001
 20
73.62308531881362
 30
0.0
 40
2.000000000000001
100
AcDbArc
 50
180.0
 51
270.0
  0
LINE
  5
36C
330
281
100
AcDbEntity
  8
DV1_0
  6
HIDDEN2
 62
     7
100
AcDbLine
 10
-28.50000000000001
 20
95.62308531881361
 30
0.0
 11
-25.50000000000002
 21
95.62308531881361
 31
0.0
  0
LINE
  5
36D
330
281
100
AcDbEntity
  8
DV1_0
  6
HIDDEN2
 62
     7
100
AcDbLine
 10
2.999999999999985
 20
68.62308531881362
 30
0.0
 11
2.999999999999985
 21
71.62308531881362
 31
0.0
  0
LINE
  5
36E
330
281
100
AcDbEntity
  8
DV1_0
  6
Continuous
 62
     7
100
AcDbLine
 10
11.49999999999998
 20
68.62308531881362
 30
0.0
 11
10.49999999999998
 21
68.62308531881362
 31
0.0
  0
LINE
  5
36F
330
281
100
AcDbEntity
  8
DV1_0
  6
HIDDEN2
 62
     7
100
AcDbLine
 10
-28.50000000000001
 20
75.6230853188136
 30
0.0
 11
-25.50000000000002
 21
75.6230853188136
 31
0.0
  0
LINE
  5
370
330
281
100
AcDbEntity
  8
DV1_0
  6
Continuous
 62
     7
100
AcDbLine
 10
-28.50000000000001
 20
107.6230853188136
 30
0.0
 11
-28.50000000000001
 21
108.6230853188136
 31
0.0
  0
LINE
  5
371
330
281
100
AcDbEntity
  8
DV1_0
  6
Continuous
 62
     7
100
AcDbLine
 10
-23.50000000000001
 20
68.62308531881362
 30
0.0
 11
10.49999999999998
 21
68.62308531881362
 31
0.0
  0
LINE
  5
372
330
281
100
AcDbEntity
  8
DV1_0
  6
Continuous
 62
     7
100
AcDbLine
 10
-25.50000000000001
 20
108.6230853188136
 30
0.0
 11
-25.50000000000001
 21
107.6230853188136
 31
0.0
  0
LINE
  5
373
330
281
100
AcDbEntity
  8
DV1_0
  6
Continuous
 62
     7
100
AcDbLine
 10
11.49999999999998
 20
71.62308531881362
 30
0.0
 11
11.49999999999998
 21
68.62308531881362
 31
0.0
  0
LINE
  5
374
330
281
100
AcDbEntity
  8
DV1_0
  6
Continuous
 62
     7
100
AcDbLine
 10
-28.50000000000001
 20
107.6230853188136
 30
0.0
 11
-28.50000000000001
 21
73.62308531881362
 31
0.0
  0
ARC
  5
375
330
281
100
AcDbEntity
  8
DV1_0
  6
Continuous
 62
     7
100
AcDbCircle
 10
-23.50000000000001
 20
73.62308531881359
 30
0.0
 40
4.999999999999997
100
AcDbArc
 50
180.0
 51
270.0
  0
LINE
  5
376
330
281
100
AcDbEntity
  8
DV1_0
  6
Continuous
 62
     7
100
AcDbLine
 10
10.49999999999998
 20
71.62308531881362
 30
0.0
 11
-23.50000000000001
 21
71.62308531881362
 31
0.0
  0
LINE
  5
377
330
281
100
AcDbEntity
  8
DV1_0
  6
Continuous
 62
     7
100
AcDbLine
 10
10.49999999999998
 20
71.62308531881362
 30
0.0
 11
11.49999999999998
 21
71.62308531881362
 31
0.0
  0
ENDSEC
  0
SECTION
  2
OBJECTS
  0
DICTIONARY
  5
217
330
0
100
AcDbDictionary
281
     1
  3
ACAD_COLOR
350
278
  3
ACAD_GROUP
350
218
  3
ACAD_LAYOUT
350
277
  3
ACAD_MATERIAL
350
21B
  3
ACAD_MLEADERSTYLE
350
27B
  3
ACAD_MLINESTYLE
350
274
  3
ACAD_PLOTSETTINGS
350
276
  3
ACAD_PLOTSTYLENAME
350
219
  3
ACAD_SCALELIST
350
248
  3
ACAD_TABLESTYLE
350
279
  3
ACAD_VISUALSTYLE
350
234
  3
ACDB_RECOMPOSE_DATA
350
37C
  3
AcDbVariableDictionary
350
327
  3
AEC_PROPERTY_SET_DEFS
350
2DD
  3
ASE_INDEX_DICTIONARY
350
2E2
  3
DWGPROPS
350
37D
  3
qs_topprt_diz
350
2B4
  3
QSCATDICT
350
2B1
  3
QsPallStyleDict
350
2B3
  3
QsTop499
350
2DE
  3
TopSpotLight
350
2BB
  0
DICTIONARY
  5
2EB
330
213
100
AcDbDictionary
280
     1
281
     1
  0
DICTIONARY
  5
278
102
{ACAD_REACTORS
330
217
102
}
330
217
100
AcDbDictionary
281
     1
  0
DICTIONARY
  5
218
102
{ACAD_REACTORS
330
217
102
}
330
217
100
AcDbDictionary
281
     1
  0
DICTIONARY
  5
277
102
{ACAD_REACTORS
330
217
102
}
330
217
100
AcDbDictionary
281
     1
  3
Layout1
350
280
  3
Model
350
284
  0
DICTIONARY
  5
21B
102
{ACAD_REACTORS
330
217
102
}
330
217
100
AcDbDictionary
281
     1
  3
ByBlock
350
224
  3
ByLayer
350
21C
  3
Global
350
22C
  0
DICTIONARY
  5
27B
102
{ACAD_REACTORS
330
217
102
}
330
217
100
AcDbDictionary
281
     1
  3
Standard
350
27C
  0
DICTIONARY
  5
274
102
{ACAD_REACTORS
330
217
102
}
330
217
100
AcDbDictionary
281
     1
  3
Standard
350
275
  0
DICTIONARY
  5
276
102
{ACAD_REACTORS
330
217
102
}
330
217
100
AcDbDictionary
281
     1
  3
Kyocera_1010 OR
350
2D1
  3
Kyocera_1010 VER
350
2D2
  3
Olivetti_200 A3
350
2D3
  3
Olivetti_200 A4
350
2D4
  3
PLOTTER
350
2D5
  0
ACDBDICTIONARYWDFLT
  5
219
102
{ACAD_REACTORS
330
217
102
}
330
217
100
AcDbDictionary
281
     1
  3
Normal
350
21A
100
AcDbDictionaryWithDefault
340
21A
  0
DICTIONARY
  5
248
102
{ACAD_REACTORS
330
217
102
}
330
217
100
AcDbDictionary
281
     1
  3
A0
350
249
  3
A1
350
24A
  3
A2
350
24B
  3
A3
350
24C
  3
A4
350
24D
  3
A5
350
24E
  3
A6
350
24F
  3
A7
350
250
  3
A8
350
251
  3
A9
350
252
  3
B0
350
253
  3
B1
350
254
  3
B2
350
255
  3
B3
350
256
  3
B4
350
257
  3
B5
350
258
  3
B6
350
259
  3
B7
350
25A
  3
B8
350
25B
  3
B9
350
25C
  3
C0
350
25D
  3
C1
350
25E
  3
C2
350
25F
  3
C3
350
260
  3
C4
350
261
  3
C5
350
262
  3
C6
350
263
  3
C7
350
264
  3
C8
350
265
  3
C9
350
266
  3
D0
350
267
  3
D1
350
268
  3
D2
350
269
  0
DICTIONARY
  5
279
102
{ACAD_REACTORS
330
217
102
}
330
217
100
AcDbDictionary
281
     1
  3
QSTABFORI
350
2D6
  3
QSTABREGION
350
2D8
  3
Standard
350
27A
  0
DICTIONARY
  5
234
102
{ACAD_REACTORS
330
217
102
}
330
217
100
AcDbDictionary
281
     1
  3
2dWireframe
350
23A
  3
3D Hidden
350
23C
  3
3dWireframe
350
23B
  3
Basic
350
239
  3
Brighten
350
240
  3
ColorChange
350
244
  3
Conceptual
350
23D
  3
Dim
350
23F
  3
EdgeColorOff
350
247
  3
Facepattern
350
243
  3
Flat
350
235
  3
FlatWithEdges
350
236
  3
Gouraud
350
237
  3
GouraudWithEdges
350
238
  3
Hidden
350
337
  3
JitterOff
350
245
  3
Linepattern
350
242
  3
OverhangOff
350
246
  3
Realistic
350
23E
  3
Shaded
350
33C
  3
Shaded with edges
350
33B
  3
Shades of Gray
350
338
  3
Sketchy
350
339
  3
Thicken
350
241
  3
Wireframe
350
336
  3
X-Ray
350
33A
  0
XRECORD
  5
37C
102
{ACAD_REACTORS
330
217
102
}
330
217
100
AcDbXrecord
280
     1
 90
        1
330
27A
330
2D6
330
2D8
  0
DICTIONARY
  5
327
102
{ACAD_REACTORS
330
217
102
}
330
217
100
AcDbDictionary
281
     1
  3
CANNOSCALE
350
32C
  3
CMLEADERSTYLE
350
329
  3
CTABLESTYLE
350
328
  3
DIMASSOC
350
333
  3
DRAWORDERCTL
350
32A
  3
HIDETEXT
350
332
  3
INDEXCTL
350
331
  3
LAYEREVAL
350
32E
  3
LAYERNOTIFY
350
32F
  3
LIGHTINGUNITS
350
32D
  3
MSLTSCALE
350
32B
  3
SORTENTS
350
330
  3
XCLIPFRAME
350
378
  0
DICTIONARY
  5
2DD
102
{ACAD_REACTORS
330
217
102
}
330
217
100
AcDbDictionary
281
     1
  0
DICTIONARY
  5
2E2
102
{ACAD_REACTORS
330
217
102
}
330
217
100
AcDbDictionary
281
     1
  3
ASEBlockHierarchyIndexRecord
350
2E4
1001
DCO15
1040
1713692694.973
  0
XRECORD
  5
37D
102
{ACAD_REACTORS
330
217
102
}
330
217
100
AcDbXrecord
280
     1
  1
DWGPROPS COOKIE
  2

  3

  4

  6

  7

  8
mpistoia
  9

300
=
301
=
302
=
303
=
304
=
305
=
306
=
307
=
308
=
309
=
 40
0.0006929282407407
 41
2444975.041666666
 42
2455637.618043669
  1

 90
        0
  0
DICTIONARY
  5
2B4
102
{ACAD_REACTORS
330
217
102
}
330
217
100
AcDbDictionary
281
     1
  3
UCNT
350
2B5
  0
DICTIONARY
  5
2B1
102
{ACAD_REACTORS
330
217
102
}
330
217
100
AcDbDictionary
281
     1
  3
DEFAULT
350
2B2
  0
DICTIONARY
  5
2B3
102
{ACAD_REACTORS
330
217
102
}
330
217
100
AcDbDictionary
281
     1
  0
DICTIONARY
  5
2DE
102
{ACAD_REACTORS
330
217
102
}
330
217
100
AcDbDictionary
281
     1
  3
TOP
350
2E0
  3
X155d
350
2DF
  0
DICTIONARY
  5
2BB
102
{ACAD_REACTORS
330
217
102
}
330
217
100
AcDbDictionary
281
     1
  3
colors
350
2BC
  0
LAYOUT
  5
280
102
{ACAD_XDICTIONARY
360
3A8
102
}
102
{ACAD_REACTORS
330
277
102
}
330
277
100
AcDbPlotSettings
  1

  2
Microsoft XPS Document Writer
  4

  6

 40
0.0
 41
0.0
 42
0.0
 43
0.0
 44
0.0
 45
0.0
 46
0.0
 47
0.0
 48
0.0
 49
0.0
140
0.0
141
0.0
142
1.0
143
1.0
 70
   688
 72
     0
 73
     0
 74
     5
  7

 75
    16
147
1.0
148
0.0
149
0.0
100
AcDbLayout
  1
Layout1
 70
     0
 71
     1
 10
0.0
 20
0.0
 11
12.0
 21
9.0
 12
0.0
 22
0.0
 32
0.0
 14
1.000000000000000E+20
 24
1.000000000000000E+20
 34
1.000000000000000E+20
 15
-1.000000000000000E+20
 25
-1.000000000000000E+20
 35
-1.000000000000000E+20
146
0.0
 13
0.0
 23
0.0
 33
0.0
 16
1.0
 26
0.0
 36
0.0
 17
0.0
 27
1.0
 37
0.0
 76
     0
330
27D
  0
LAYOUT
  5
284
102
{ACAD_XDICTIONARY
360
3AA
102
}
102
{ACAD_REACTORS
330
277
102
}
330
277
100
AcDbPlotSettings
  1

  2
Microsoft XPS Document Writer
  4

  6

 40
0.0
 41
0.0
 42
0.0
 43
0.0
 44
0.0
 45
0.0
 46
0.0
 47
0.0
 48
0.0
 49
0.0
140
0.0
141
0.0
142
1.0
143
1.0
 70
  1712
 72
     0
 73
     0
 74
     0
  7

 75
     0
147
1.0
148
0.0
149
0.0
100
AcDbLayout
  1
Model
 70
     1
 71
     0
 10
0.0
 20
0.0
 11
12.0
 21
9.0
 12
0.0
 22
0.0
 32
0.0
 14
0.0
 24
0.0
 34
0.0
 15
0.0
 25
0.0
 35
0.0
146
0.0
 13
0.0
 23
0.0
 33
0.0
 16
1.0
 26
0.0
 36
0.0
 17
0.0
 27
1.0
 37
0.0
 76
     0
330
281
331
2A3
  0
MATERIAL
  5
224
102
{ACAD_XDICTIONARY
360
225
102
}
102
{ACAD_REACTORS
330
21B
102
}
330
21B
100
AcDbMaterial
  1
ByBlock
 72
     0
 43
0.0208333333333333
 43
0.0
 43
0.0
 43
0.0
 43
0.0
 43
0.0208333333333333
 43
0.0
 43
0.0
 43
0.0
 43
0.0
 43
1.0
 43
0.0
 43
0.0
 43
0.0
 43
0.0
 43
1.0
 77
     0
 47
0.0208333333333333
 47
0.0
 47
0.0
 47
0.0
 47
0.0
 47
0.0208333333333333
 47
0.0
 47
0.0
 47
0.0
 47
0.0
 47
1.0
 47
0.0
 47
0.0
 47
0.0
 47
0.0
 47
1.0
171
     0
 49
0.0208333333333333
 49
0.0
 49
0.0
 49
0.0
 49
0.0
 49
0.0208333333333333
 49
0.0
 49
0.0
 49
0.0
 49
0.0
 49
1.0
 49
0.0
 49
0.0
 49
0.0
 49
0.0
 49
1.0
175
     0
142
0.0208333333333333
142
0.0
142
0.0
142
0.0
142
0.0
142
0.0208333333333333
142
0.0
142
0.0
142
0.0
142
0.0
142
1.0
142
0.0
142
0.0
142
0.0
142
0.0
142
1.0
179
     0
144
0.0208333333333333
144
0.0
144
0.0
144
0.0
144
0.0
144
0.0208333333333333
144
0.0
144
0.0
144
0.0
144
0.0
144
1.0
144
0.0
144
0.0
144
0.0
144
0.0
144
1.0
147
0.0208333333333333
147
0.0
147
0.0
147
0.0
147
0.0
147
0.0208333333333333
147
0.0
147
0.0
147
0.0
147
0.0
147
1.0
147
0.0
147
0.0
147
0.0
147
0.0
147
1.0
  0
MATERIAL
  5
21C
102
{ACAD_XDICTIONARY
360
21D
102
}
102
{ACAD_REACTORS
330
21B
102
}
330
21B
100
AcDbMaterial
  1
ByLayer
 72
     0
 43
0.0208333333333333
 43
0.0
 43
0.0
 43
0.0
 43
0.0
 43
0.0208333333333333
 43
0.0
 43
0.0
 43
0.0
 43
0.0
 43
1.0
 43
0.0
 43
0.0
 43
0.0
 43
0.0
 43
1.0
 77
     0
 47
0.0208333333333333
 47
0.0
 47
0.0
 47
0.0
 47
0.0
 47
0.0208333333333333
 47
0.0
 47
0.0
 47
0.0
 47
0.0
 47
1.0
 47
0.0
 47
0.0
 47
0.0
 47
0.0
 47
1.0
171
     0
 49
0.0208333333333333
 49
0.0
 49
0.0
 49
0.0
 49
0.0
 49
0.0208333333333333
 49
0.0
 49
0.0
 49
0.0
 49
0.0
 49
1.0
 49
0.0
 49
0.0
 49
0.0
 49
0.0
 49
1.0
175
     0
142
0.0208333333333333
142
0.0
142
0.0
142
0.0
142
0.0
142
0.0208333333333333
142
0.0
142
0.0
142
0.0
142
0.0
142
1.0
142
0.0
142
0.0
142
0.0
142
0.0
142
1.0
179
     0
144
0.0208333333333333
144
0.0
144
0.0
144
0.0
144
0.0
144
0.0208333333333333
144
0.0
144
0.0
144
0.0
144
0.0
144
1.0
144
0.0
144
0.0
144
0.0
144
0.0
144
1.0
147
0.0208333333333333
147
0.0
147
0.0
147
0.0
147
0.0
147
0.0208333333333333
147
0.0
147
0.0
147
0.0
147
0.0
147
1.0
147
0.0
147
0.0
147
0.0
147
0.0
147
1.0
  0
MATERIAL
  5
22C
102
{ACAD_XDICTIONARY
360
22D
102
}
102
{ACAD_REACTORS
330
21B
102
}
330
21B
100
AcDbMaterial
  1
Global
 72
     0
 43
0.0208333333333333
 43
0.0
 43
0.0
 43
0.0
 43
0.0
 43
0.0208333333333333
 43
0.0
 43
0.0
 43
0.0
 43
0.0
 43
1.0
 43
0.0
 43
0.0
 43
0.0
 43
0.0
 43
1.0
 77
     0
 47
0.0208333333333333
 47
0.0
 47
0.0
 47
0.0
 47
0.0
 47
0.0208333333333333
 47
0.0
 47
0.0
 47
0.0
 47
0.0
 47
1.0
 47
0.0
 47
0.0
 47
0.0
 47
0.0
 47
1.0
171
     0
 49
0.0208333333333333
 49
0.0
 49
0.0
 49
0.0
 49
0.0
 49
0.0208333333333333
 49
0.0
 49
0.0
 49
0.0
 49
0.0
 49
1.0
 49
0.0
 49
0.0
 49
0.0
 49
0.0
 49
1.0
175
     0
142
0.0208333333333333
142
0.0
142
0.0
142
0.0
142
0.0
142
0.0208333333333333
142
0.0
142
0.0
142
0.0
142
0.0
142
1.0
142
0.0
142
0.0
142
0.0
142
0.0
142
1.0
179
     0
144
0.0208333333333333
144
0.0
144
0.0
144
0.0
144
0.0
144
0.0208333333333333
144
0.0
144
0.0
144
0.0
144
0.0
144
1.0
144
0.0
144
0.0
144
0.0
144
0.0
144
1.0
147
0.0208333333333333
147
0.0
147
0.0
147
0.0
147
0.0
147
0.0208333333333333
147
0.0
147
0.0
147
0.0
147
0.0
147
1.0
147
0.0
147
0.0
147
0.0
147
0.0
147
1.0
  0
MLEADERSTYLE
  5
27C
102
{ACAD_REACTORS
330
27B
102
}
330
27B
100
AcDbMLeaderStyle
170
     2
171
     1
172
     0
 90
        2
 40
0.0
 41
0.0
173
     1
 91
-1056964608
340
270
 92
       -2
290
     1
 42
0.09
291
     1
 43
0.36
  3
Standard
 44
0.18
300

342
26B
174
     1
178
     6
175
     1
176
     0
 93
-1056964608
 45
0.18
292
     0
297
     0
 46
0.18
 94
-1056964608
 47
1.0
 49
1.0
140
1.0
293
     1
141
0.0
294
     1
177
     0
142
1.0
295
     0
296
     0
143
0.125
1001
ACAD_MLEADERVER
1070
     2
  0
MLINESTYLE
  5
275
102
{ACAD_REACTORS
330
274
102
}
330
274
100
AcDbMlineStyle
  2
STANDARD
 70
     0
  3

 62
   256
 51
90.0
 52
90.0
 71
     2
 49
0.5
 62
   256
  6
BYLAYER
 49
-0.5
 62
   256
  6
BYLAYER
  0
PLOTSETTINGS
  5
2D1
102
{ACAD_XDICTIONARY
360
3AC
102
}
102
{ACAD_REACTORS
330
276
102
}
330
276
100
AcDbPlotSettings
  1
Kyocera_1010 OR
  2
Kyocera_1010.pc3
  4
A4
  6

 40
4.984749794006347
 41
5.154074668884277
 42
5.111740112304687
 43
4.9847412109375
 44
210.0156707763672
 45
297.0106506347656
 46
0.0
 47
109.7870247470818
 48
0.0
 49
0.0
140
0.0
141
0.0
142
1.0
143
0.6770771918566143
 70
 11956
 72
     1
 73
     1
 74
     1
  7
DIERRE BN.ctb
 75
     0
147
1.476936473458659
148
-222.4649060220283
149
-239.0808115236937
1001
ACAD_PSEXT
1000
Kyocera_1010.pc3
1000
Kyocera Mita FS-1010 KX
1000
\\PC5
1000

1070
     0
  0
PLOTSETTINGS
  5
2D2
102
{ACAD_XDICTIONARY
360
3AE
102
}
102
{ACAD_REACTORS
330
276
102
}
330
276
100
AcDbPlotSettings
  1
Kyocera_1010 VER
  2
Kyocera_1010.pc3
  4
A4
  6

 40
4.984749794006347
 41
5.154074668884277
 42
5.111740112304687
 43
4.9847412109375
 44
210.0156707763672
 45
297.0106506347656
 46
51.67548120477697
 47
0.0
 48
0.0
 49
0.0
140
0.0
141
0.0
142
1.0
143
0.4718508448115938
 70
 11956
 72
     1
 73
     0
 74
     1
  7
DIERRE BN.ctb
 75
     0
147
2.119313785268927
148
-222.4649060220283
149
-239.0808115236937
1001
ACAD_PSEXT
1000
Kyocera_1010.pc3
1000
Kyocera Mita FS-1010 KX
1000
\\PC5
1000

1070
     0
  0
PLOTSETTINGS
  5
2D3
102
{ACAD_XDICTIONARY
360
3B0
102
}
102
{ACAD_REACTORS
330
276
102
}
330
276
100
AcDbPlotSettings
  1
Olivetti_200 A3
  2
Olivetti_200.pc3
  4
A3
  6

 40
4.984749794006347
 41
5.111746788024902
 42
5.154083251953125
 43
4.9847412109375
 44
297.0106506347656
 45
419.9889831542968
 46
0.0
 47
156.6621412366913
 48
0.0
 49
0.0
140
0.0
141
0.0
142
1.0
143
0.4718508730467012
 70
 11956
 72
     1
 73
     1
 74
     1
  7
DIERRE BN.ctb
 75
     0
147
2.119313658451206
148
-222.4649060220283
149
-239.0808115236937
1001
ACAD_PSEXT
1000
Olivetti_200.pc3
1000
Olivetti d-Copia 200MF KX
1000
IP_192.168.1.151
1000

1070
     0
  0
PLOTSETTINGS
  5
2D4
102
{ACAD_XDICTIONARY
360
3B2
102
}
102
{ACAD_REACTORS
330
276
102
}
330
276
100
AcDbPlotSettings
  1
Olivetti_200 A4
  2
Olivetti_200.pc3
  4
A4
  6

 40
4.984749794006347
 41
5.154074668884277
 42
5.111740112304687
 43
4.9847412109375
 44
210.0156707763672
 45
297.0106506347656
 46
51.67548120477697
 47
0.0
 48
0.0
 49
0.0
140
0.0
141
0.0
142
1.0
143
0.4718508448115938
 70
 11956
 72
     1
 73
     0
 74
     1
  7
DIERRE BN.ctb
 75
     0
147
2.119313785268927
148
-222.4649060220283
149
-239.0808115236937
1001
ACAD_PSEXT
1000
Olivetti_200.pc3
1000
Olivetti d-Copia 200MF KX
1000
IP_192.168.1.151
1000

1070
     0
  0
PLOTSETTINGS
  5
2D5
102
{ACAD_XDICTIONARY
360
3B4
102
}
102
{ACAD_REACTORS
330
276
102
}
330
276
100
AcDbPlotSettings
  1
PLOTTER
  2
PLOTTER.pc3
  4
User622
  6

 40
0.0
 41
0.0
 42
0.0
 43
0.0
 44
841.0
 45
1189.0
 46
0.0
 47
0.0
 48
0.0
 49
0.0
140
0.0
141
0.0
142
1.0
143
1.0
 70
 11936
 72
     1
 73
     0
 74
     1
  7
DIERRE BN.ctb
 75
     0
147
2.194137304425714
148
-222.4649060220283
149
-239.0808115236937
1001
ACAD_PSEXT
1000
PLOTTER.pc3
1000
HP DesignJet 430 (E/A0) by HP
1000
\\SERVER2003
1000

1070
     0
  0
ACDBPLACEHOLDER
  5
21A
102
{ACAD_REACTORS
330
219
102
}
330
219
  0
SCALE
  5
249
102
{ACAD_REACTORS
330
248
102
}
330
248
100
AcDbScale
 70
     0
300
1:1
140
1.0
141
1.0
290
     1
  0
SCALE
  5
24A
102
{ACAD_REACTORS
330
248
102
}
330
248
100
AcDbScale
 70
     0
300
1:2
140
1.0
141
2.0
290
     0
  0
SCALE
  5
24B
102
{ACAD_REACTORS
330
248
102
}
330
248
100
AcDbScale
 70
     0
300
1:4
140
1.0
141
4.0
290
     0
  0
SCALE
  5
24C
102
{ACAD_REACTORS
330
248
102
}
330
248
100
AcDbScale
 70
     0
300
1:5
140
1.0
141
5.0
290
     0
  0
SCALE
  5
24D
102
{ACAD_REACTORS
330
248
102
}
330
248
100
AcDbScale
 70
     0
300
1:8
140
1.0
141
8.0
290
     0
  0
SCALE
  5
24E
102
{ACAD_REACTORS
330
248
102
}
330
248
100
AcDbScale
 70
     0
300
1:10
140
1.0
141
10.0
290
     0
  0
SCALE
  5
24F
102
{ACAD_REACTORS
330
248
102
}
330
248
100
AcDbScale
 70
     0
300
1:16
140
1.0
141
16.0
290
     0
  0
SCALE
  5
250
102
{ACAD_REACTORS
330
248
102
}
330
248
100
AcDbScale
 70
     0
300
1:20
140
1.0
141
20.0
290
     0
  0
SCALE
  5
251
102
{ACAD_REACTORS
330
248
102
}
330
248
100
AcDbScale
 70
     0
300
1:30
140
1.0
141
30.0
290
     0
  0
SCALE
  5
252
102
{ACAD_REACTORS
330
248
102
}
330
248
100
AcDbScale
 70
     0
300
1:40
140
1.0
141
40.0
290
     0
  0
SCALE
  5
253
102
{ACAD_REACTORS
330
248
102
}
330
248
100
AcDbScale
 70
     0
300
1:50
140
1.0
141
50.0
290
     0
  0
SCALE
  5
254
102
{ACAD_REACTORS
330
248
102
}
330
248
100
AcDbScale
 70
     0
300
1:100
140
1.0
141
100.0
290
     0
  0
SCALE
  5
255
102
{ACAD_REACTORS
330
248
102
}
330
248
100
AcDbScale
 70
     0
300
2:1
140
2.0
141
1.0
290
     0
  0
SCALE
  5
256
102
{ACAD_REACTORS
330
248
102
}
330
248
100
AcDbScale
 70
     0
300
4:1
140
4.0
141
1.0
290
     0
  0
SCALE
  5
257
102
{ACAD_REACTORS
330
248
102
}
330
248
100
AcDbScale
 70
     0
300
8:1
140
8.0
141
1.0
290
     0
  0
SCALE
  5
258
102
{ACAD_REACTORS
330
248
102
}
330
248
100
AcDbScale
 70
     0
300
10:1
140
10.0
141
1.0
290
     0
  0
SCALE
  5
259
102
{ACAD_REACTORS
330
248
102
}
330
248
100
AcDbScale
 70
     0
300
100:1
140
100.0
141
1.0
290
     0
  0
SCALE
  5
25A
102
{ACAD_REACTORS
330
248
102
}
330
248
100
AcDbScale
 70
     0
300
1/128" = 1'-0"
140
0.0078125
141
12.0
290
     0
  0
SCALE
  5
25B
102
{ACAD_REACTORS
330
248
102
}
330
248
100
AcDbScale
 70
     0
300
1/64" = 1'-0"
140
0.015625
141
12.0
290
     0
  0
SCALE
  5
25C
102
{ACAD_REACTORS
330
248
102
}
330
248
100
AcDbScale
 70
     0
300
1/32" = 1'-0"
140
0.03125
141
12.0
290
     0
  0
SCALE
  5
25D
102
{ACAD_REACTORS
330
248
102
}
330
248
100
AcDbScale
 70
     0
300
1/16" = 1'-0"
140
0.0625
141
12.0
290
     0
  0
SCALE
  5
25E
102
{ACAD_REACTORS
330
248
102
}
330
248
100
AcDbScale
 70
     0
300
3/32" = 1'-0"
140
0.09375
141
12.0
290
     0
  0
SCALE
  5
25F
102
{ACAD_REACTORS
330
248
102
}
330
248
100
AcDbScale
 70
     0
300
1/8" = 1'-0"
140
0.125
141
12.0
290
     0
  0
SCALE
  5
260
102
{ACAD_REACTORS
330
248
102
}
330
248
100
AcDbScale
 70
     0
300
3/16" = 1'-0"
140
0.1875
141
12.0
290
     0
  0
SCALE
  5
261
102
{ACAD_REACTORS
330
248
102
}
330
248
100
AcDbScale
 70
     0
300
1/4" = 1'-0"
140
0.25
141
12.0
290
     0
  0
SCALE
  5
262
102
{ACAD_REACTORS
330
248
102
}
330
248
100
AcDbScale
 70
     0
300
3/8" = 1'-0"
140
0.375
141
12.0
290
     0
  0
SCALE
  5
263
102
{ACAD_REACTORS
330
248
102
}
330
248
100
AcDbScale
 70
     0
300
1/2" = 1'-0"
140
0.5
141
12.0
290
     0
  0
SCALE
  5
264
102
{ACAD_REACTORS
330
248
102
}
330
248
100
AcDbScale
 70
     0
300
3/4" = 1'-0"
140
0.75
141
12.0
290
     0
  0
SCALE
  5
265
102
{ACAD_REACTORS
330
248
102
}
330
248
100
AcDbScale
 70
     0
300
1" = 1'-0"
140
1.0
141
12.0
290
     0
  0
SCALE
  5
266
102
{ACAD_REACTORS
330
248
102
}
330
248
100
AcDbScale
 70
     0
300
1-1/2" = 1'-0"
140
1.5
141
12.0
290
     0
  0
SCALE
  5
267
102
{ACAD_REACTORS
330
248
102
}
330
248
100
AcDbScale
 70
     0
300
3" = 1'-0"
140
3.0
141
12.0
290
     0
  0
SCALE
  5
268
102
{ACAD_REACTORS
330
248
102
}
330
248
100
AcDbScale
 70
     0
300
6" = 1'-0"
140
6.0
141
12.0
290
     0
  0
SCALE
  5
269
102
{ACAD_REACTORS
330
248
102
}
330
248
100
AcDbScale
 70
     0
300
1'-0" = 1'-0"
140
12.0
141
12.0
290
     0
  0
TABLESTYLE
  5
2D6
102
{ACAD_XDICTIONARY
360
2D7
102
}
102
{ACAD_REACTORS
330
279
102
}
330
279
100
AcDbTableStyle
  3
Standard
 70
     1
 71
     0
 40
1.5
 41
1.5
280
     1
281
     0
  7
ROMANS
140
3.0
170
     5
 62
     7
 63
     7
283
     0
274
    -2
284
     1
 64
     0
275
    -2
285
     1
 65
     0
276
    -2
286
     1
 66
     0
277
    -2
287
     1
 67
     0
278
    -2
288
     1
 68
     0
279
    -2
289
     1
 69
     0
  7
ROMANS
140
6.0
170
     5
 62
     1
 63
     7
283
     0
274
    -2
284
     1
 64
     0
275
    -2
285
     1
 65
     0
276
    -2
286
     1
 66
     0
277
    -2
287
     1
 67
     0
278
    -2
288
     1
 68
     0
279
    -2
289
     1
 69
     0
  7
ROMANS
140
3.5
170
     5
 62
     3
 63
     7
283
     0
274
    -2
284
     1
 64
     0
275
    -2
285
     1
 65
     0
276
    -2
286
     1
 66
     0
277
    -2
287
     1
 67
     0
278
    -2
288
     1
 68
     0
279
    -2
289
     1
 69
     0
  0
TABLESTYLE
  5
2D8
102
{ACAD_XDICTIONARY
360
2D9
102
}
102
{ACAD_REACTORS
330
279
102
}
330
279
100
AcDbTableStyle
  3
Standard
 70
     0
 71
     0
 40
1.5
 41
1.5
280
     0
281
     0
  7
ROMANS
140
4.5
170
     5
 62
     7
 63
     7
283
     0
274
    -2
284
     1
 64
     0
275
    -2
285
     1
 65
     0
276
    -2
286
     1
 66
     0
277
    -2
287
     1
 67
     0
278
    -2
288
     1
 68
     0
279
    -2
289
     1
 69
     0
  7
ROMANS
140
6.0
170
     5
 62
     1
 63
     7
283
     0
274
    -2
284
     1
 64
     0
275
    -2
285
     1
 65
     0
276
    -2
286
     1
 66
     0
277
    -2
287
     1
 67
     0
278
    -2
288
     1
 68
     0
279
    -2
289
     1
 69
     0
  7
ROMANS
140
5.0
170
     5
 62
     3
 63
     7
283
     0
274
    -2
284
     1
 64
     0
275
    -2
285
     1
 65
     0
276
    -2
286
     1
 66
     0
277
    -2
287
     1
 67
     0
278
    -2
288
     1
 68
     0
279
    -2
289
     1
 69
     0
  0
TABLESTYLE
  5
27A
102
{ACAD_XDICTIONARY
360
2E5
102
}
102
{ACAD_REACTORS
330
279
102
}
330
279
100
AcDbTableStyle
  3
Standard
 70
     0
 71
     0
 40
0.06
 41
0.06
280
     0
281
     0
  7
Standard
140
0.18
170
     2
 62
     0
 63
     7
283
     0
274
    -2
284
     1
 64
     0
275
    -2
285
     1
 65
     0
276
    -2
286
     1
 66
     0
277
    -2
287
     1
 67
     0
278
    -2
288
     1
 68
     0
279
    -2
289
     1
 69
     0
  7
Standard
140
0.25
170
     5
 62
     0
 63
     7
283
     0
274
    -2
284
     1
 64
     0
275
    -2
285
     1
 65
     0
276
    -2
286
     1
 66
     0
277
    -2
287
     1
 67
     0
278
    -2
288
     1
 68
     0
279
    -2
289
     1
 69
     0
  7
Standard
140
0.18
170
     5
 62
     0
 63
     7
283
     0
274
    -2
284
     1
 64
     0
275
    -2
285
     1
 65
     0
276
    -2
286
     1
 66
     0
277
    -2
287
     1
 67
     0
278
    -2
288
     1
 68
     0
279
    -2
289
     1
 69
     0
  0
VISUALSTYLE
  5
23A
102
{ACAD_XDICTIONARY
360
38B
102
}
102
{ACAD_REACTORS
330
234
102
}
330
234
100
AcDbVisualStyle
  2
2dWireframe
 70
     4
 71
     0
 72
     2
 73
     0
 90
        0
 40
-0.6
 41
-30.0
 62
     5
 63
     7
 74
     1
 91
        4
 64
     7
 65
   257
 75
     1
175
     1
 42
1.0
 92
        0
 66
   257
 43
1.0
 76
     1
 77
     6
 78
     2
 67
     7
 79
     5
170
     0
171
     0
290
     0
174
     0
 93
        1
 44
0.0
173
     0
291
     0
 45
0.0
1001
ACAD
1000
AcDbSavedByObjectVersion
1070
     0
  0
VISUALSTYLE
  5
23C
102
{ACAD_XDICTIONARY
360
38F
102
}
102
{ACAD_REACTORS
330
234
102
}
330
234
100
AcDbVisualStyle
  2
3D Hidden
 70
     6
 71
     1
 72
     2
 73
     2
 90
        0
 40
-0.6
 41
-30.0
 62
     5
 63
     7
 74
     2
 91
        2
 64
     7
 65
   257
 75
     2
175
     1
 42
179.0
 92
        0
 66
   257
 43
1.0
 76
     1
 77
     6
 78
     2
 67
     7
 79
     3
170
     0
171
     0
290
     0
174
     0
 93
        1
 44
0.0
173
     0
291
     0
 45
0.0
1001
ACAD
1000
AcDbSavedByObjectVersion
1070
     0
  0
VISUALSTYLE
  5
23B
102
{ACAD_XDICTIONARY
360
38D
102
}
102
{ACAD_REACTORS
330
234
102
}
330
234
100
AcDbVisualStyle
  2
3dWireframe
 70
     5
 71
     0
 72
     2
 73
     0
 90
        0
 40
-0.6
 41
-30.0
 62
     5
 63
     7
 74
     1
 91
        4
 64
     7
 65
   257
 75
     1
175
     1
 42
1.0
 92
        0
 66
   257
 43
1.0
 76
     1
 77
     6
 78
     2
 67
     7
 79
     5
170
     0
171
     0
290
     0
174
     0
 93
        1
 44
0.0
173
     0
291
     0
 45
0.0
1001
ACAD
1000
AcDbSavedByObjectVersion
1070
     0
  0
VISUALSTYLE
  5
239
102
{ACAD_XDICTIONARY
360
389
102
}
102
{ACAD_REACTORS
330
234
102
}
330
234
100
AcDbVisualStyle
  2
Basic
 70
     7
 71
     1
 72
     0
 73
     1
 90
        0
 40
-0.6
 41
-30.0
 62
     5
 63
     7
 74
     0
 91
        4
 64
     7
 65
   257
 75
     1
175
     1
 42
1.0
 92
        8
 66
     7
 43
1.0
 76
     1
 77
     6
 78
     2
 67
     7
 79
     5
170
     0
171
     0
290
     0
174
     0
 93
        1
 44
0.0
173
     0
291
     1
 45
0.0
1001
ACAD
1000
AcDbSavedByObjectVersion
1070
     0
  0
VISUALSTYLE
  5
240
102
{ACAD_XDICTIONARY
360
397
102
}
102
{ACAD_REACTORS
330
234
102
}
330
234
100
AcDbVisualStyle
  2
Brighten
 70
    12
 71
     2
 72
     2
 73
     0
 90
        0
 40
-0.6
 41
-30.0
 62
     5
 63
     7
 74
     1
 91
        4
 64
     7
 65
   257
 75
     1
175
     1
 42
1.0
 92
        8
 66
     7
 43
1.0
 76
     1
 77
     6
 78
     2
 67
     7
 79
     5
170
     0
171
     0
290
     0
174
     0
 93
        1
 44
50.0
173
     0
291
     1
 45
0.0
1001
ACAD
1000
AcDbSavedByObjectVersion
1070
     0
  0
VISUALSTYLE
  5
244
102
{ACAD_XDICTIONARY
360
39F
102
}
102
{ACAD_REACTORS
330
234
102
}
330
234
100
AcDbVisualStyle
  2
ColorChange
 70
    16
 71
     2
 72
     2
 73
     3
 90
        0
 40
-0.6
 41
-30.0
 62
     5
 63
     8
 74
     1
 91
        4
 64
     7
 65
   257
 75
     1
175
     1
 42
1.0
 92
        8
 66
     8
 43
1.0
 76
     1
 77
     6
 78
     2
 67
     7
 79
     5
170
     0
171
     0
290
     0
174
     0
 93
        1
 44
0.0
173
     0
291
     1
 45
0.0
1001
ACAD
1000
AcDbSavedByObjectVersion
1070
     0
  0
VISUALSTYLE
  5
23D
102
{ACAD_XDICTIONARY
360
391
102
}
102
{ACAD_REACTORS
330
234
102
}
330
234
100
AcDbVisualStyle
  2
Conceptual
 70
     9
 71
     3
 72
     2
 73
     0
 90
        0
 40
-0.6
 41
-30.0
 62
     5
 63
     7
 74
     2
 91
        2
 64
     7
 65
   257
 75
     1
175
     1
 42
179.0
 92
        8
 66
     7
 43
1.0
 76
     1
 77
     6
 78
     2
 67
     7
 79
     3
170
     0
171
     0
290
     0
174
     0
 93
        1
 44
0.0
173
     0
291
     0
 45
0.0
1001
ACAD
1000
AcDbSavedByObjectVersion
1070
     0
  0
VISUALSTYLE
  5
23F
102
{ACAD_XDICTIONARY
360
395
102
}
102
{ACAD_REACTORS
330
234
102
}
330
234
100
AcDbVisualStyle
  2
Dim
 70
    11
 71
     2
 72
     2
 73
     0
 90
        0
 40
-0.6
 41
-30.0
 62
     5
 63
     7
 74
     1
 91
        4
 64
     7
 65
   257
 75
     1
175
     1
 42
1.0
 92
        8
 66
     7
 43
1.0
 76
     1
 77
     6
 78
     2
 67
     7
 79
     5
170
     0
171
     0
290
     0
174
     0
 93
        1
 44
-50.0
173
     0
291
     1
 45
0.0
1001
ACAD
1000
AcDbSavedByObjectVersion
1070
     0
  0
VISUALSTYLE
  5
247
102
{ACAD_XDICTIONARY
360
3A5
102
}
102
{ACAD_REACTORS
330
234
102
}
330
234
100
AcDbVisualStyle
  2
EdgeColorOff
 70
    22
 71
     2
 72
     2
 73
     0
 90
        0
 40
-0.6
 41
-30.0
 62
     5
 63
     7
 74
     1
 91
        4
 64
     7
 65
   257
 75
     1
175
     1
 42
1.0
 92
        8
 66
     7
 43
1.0
 76
     1
 77
     6
 78
     2
 67
     7
 79
     5
170
     0
171
     0
290
     0
174
     0
 93
        1
 44
0.0
173
     0
291
     1
 45
0.0
1001
ACAD
1000
AcDbSavedByObjectVersion
1070
     0
  0
VISUALSTYLE
  5
243
102
{ACAD_XDICTIONARY
360
39D
102
}
102
{ACAD_REACTORS
330
234
102
}
330
234
100
AcDbVisualStyle
  2
Facepattern
 70
    15
 71
     2
 72
     2
 73
     0
 90
        0
 40
-0.6
 41
-30.0
 62
     5
 63
     7
 74
     1
 91
        4
 64
     7
 65
   257
 75
     1
175
     1
 42
1.0
 92
        8
 66
     7
 43
1.0
 76
     1
 77
     6
 78
     2
 67
     7
 79
     5
170
     0
171
     0
290
     0
174
     0
 93
        1
 44
0.0
173
     0
291
     1
 45
0.0
1001
ACAD
1000
AcDbSavedByObjectVersion
1070
     0
  0
VISUALSTYLE
  5
235
102
{ACAD_XDICTIONARY
360
381
102
}
102
{ACAD_REACTORS
330
234
102
}
330
234
100
AcDbVisualStyle
  2
Flat
 70
     0
 71
     2
 72
     1
 73
     1
 90
        2
 40
-0.6
 41
30.0
 62
     5
 63
     7
 74
     0
 91
        4
 64
     7
 65
   257
 75
     1
175
     1
 42
1.0
 92
        8
 66
     7
 43
1.0
 76
     1
 77
     6
 78
     2
 67
     7
 79
     5
170
     0
171
     0
290
     0
174
     0
 93
       13
 44
0.0
173
     0
291
     1
 45
0.0
1001
ACAD
1000
AcDbSavedByObjectVersion
1070
     0
  0
VISUALSTYLE
  5
236
102
{ACAD_XDICTIONARY
360
383
102
}
102
{ACAD_REACTORS
330
234
102
}
330
234
100
AcDbVisualStyle
  2
FlatWithEdges
 70
     1
 71
     2
 72
     1
 73
     1
 90
        2
 40
-0.6
 41
30.0
 62
     5
 63
     7
 74
     1
 91
        4
 64
     7
 65
   257
 75
     1
175
     1
 42
1.0
 92
        0
 66
   257
 43
1.0
 76
     1
 77
     6
 78
     2
 67
     7
 79
     5
170
     0
171
     0
290
     0
174
     0
 93
       13
 44
0.0
173
     0
291
     1
 45
0.0
1001
ACAD
1000
AcDbSavedByObjectVersion
1070
     0
  0
VISUALSTYLE
  5
237
102
{ACAD_XDICTIONARY
360
385
102
}
102
{ACAD_REACTORS
330
234
102
}
330
234
100
AcDbVisualStyle
  2
Gouraud
 70
     2
 71
     2
 72
     2
 73
     1
 90
        2
 40
-0.6
 41
30.0
 62
     5
 63
     7
 74
     0
 91
        4
 64
     7
 65
   257
 75
     1
175
     1
 42
1.0
 92
        0
 66
     7
 43
1.0
 76
     1
 77
     6
 78
     2
 67
     7
 79
     5
170
     0
171
     0
290
     0
174
     0
 93
       13
 44
0.0
173
     0
291
     1
 45
0.0
1001
ACAD
1000
AcDbSavedByObjectVersion
1070
     0
  0
VISUALSTYLE
  5
238
102
{ACAD_XDICTIONARY
360
387
102
}
102
{ACAD_REACTORS
330
234
102
}
330
234
100
AcDbVisualStyle
  2
GouraudWithEdges
 70
     3
 71
     2
 72
     2
 73
     1
 90
        2
 40
-0.6
 41
30.0
 62
     5
 63
     7
 74
     1
 91
        4
 64
     7
 65
   257
 75
     1
175
     1
 42
1.0
 92
        0
 66
   257
 43
1.0
 76
     1
 77
     6
 78
     2
 67
     7
 79
     5
170
     0
171
     0
290
     0
174
     0
 93
       13
 44
0.0
173
     0
291
     1
 45
0.0
1001
ACAD
1000
AcDbSavedByObjectVersion
1070
     0
  0
VISUALSTYLE
  5
337
102
{ACAD_XDICTIONARY
360
3BA
102
}
102
{ACAD_REACTORS
330
234
102
}
330
234
100
AcDbVisualStyle
  2
Hidden
 70
     6
 71
     1
 72
     2
 73
     2
 90
        0
 40
-0.6
 41
-30.0
 62
     5
 63
     7
 74
     2
 91
        2
 64
     7
 65
   257
 75
     2
175
     1
 42
40.0
 92
        0
 66
   257
 43
1.0
 76
     1
 77
     6
 78
     2
 67
     7
 79
     3
170
     0
171
     0
290
     0
174
     0
 93
        1
 44
0.0
173
     0
291
     0
 45
0.0
1001
ACAD
1000
AcDbSavedByObjectVersion
1070
     0
  0
VISUALSTYLE
  5
245
102
{ACAD_XDICTIONARY
360
3A1
102
}
102
{ACAD_REACTORS
330
234
102
}
330
234
100
AcDbVisualStyle
  2
JitterOff
 70
    20
 71
     2
 72
     2
 73
     0
 90
        0
 40
-0.6
 41
-30.0
 62
     5
 63
     7
 74
     1
 91
        4
 64
     7
 65
   257
 75
     1
175
     1
 42
1.0
 92
       10
 66
     7
 43
1.0
 76
     1
 77
     6
 78
     2
 67
     7
 79
     5
170
     0
171
     0
290
     0
174
     0
 93
        1
 44
0.0
173
     0
291
     1
 45
0.0
1001
ACAD
1000
AcDbSavedByObjectVersion
1070
     0
  0
VISUALSTYLE
  5
242
102
{ACAD_XDICTIONARY
360
39B
102
}
102
{ACAD_REACTORS
330
234
102
}
330
234
100
AcDbVisualStyle
  2
Linepattern
 70
    14
 71
     2
 72
     2
 73
     0
 90
        0
 40
-0.6
 41
-30.0
 62
     5
 63
     7
 74
     1
 91
        4
 64
     7
 65
   257
 75
     7
175
     7
 42
1.0
 92
        8
 66
     7
 43
1.0
 76
     1
 77
     6
 78
     2
 67
     7
 79
     5
170
     0
171
     0
290
     0
174
     0
 93
        1
 44
0.0
173
     0
291
     1
 45
0.0
1001
ACAD
1000
AcDbSavedByObjectVersion
1070
     0
  0
VISUALSTYLE
  5
246
102
{ACAD_XDICTIONARY
360
3A3
102
}
102
{ACAD_REACTORS
330
234
102
}
330
234
100
AcDbVisualStyle
  2
OverhangOff
 70
    21
 71
     2
 72
     2
 73
     0
 90
        0
 40
-0.6
 41
-30.0
 62
     5
 63
     7
 74
     1
 91
        4
 64
     7
 65
   257
 75
     1
175
     1
 42
1.0
 92
        9
 66
     7
 43
1.0
 76
     1
 77
     6
 78
     2
 67
     7
 79
     5
170
     0
171
     0
290
     0
174
     0
 93
        1
 44
0.0
173
     0
291
     1
 45
0.0
1001
ACAD
1000
AcDbSavedByObjectVersion
1070
     0
  0
VISUALSTYLE
  5
23E
102
{ACAD_XDICTIONARY
360
393
102
}
102
{ACAD_REACTORS
330
234
102
}
330
234
100
AcDbVisualStyle
  2
Realistic
 70
     8
 71
     2
 72
     2
 73
     0
 90
        0
 40
-0.6
 41
-30.0
 62
     5
 63
     7
 74
     1
 91
        0
 64
     7
 65
   257
 75
     1
175
     1
 42
1.0
 92
        8
 66
     8
 43
1.0
 76
     1
 77
     6
 78
     2
 67
     7
 79
     5
170
     0
171
     0
290
     0
174
     0
 93
       13
 44
0.0
173
     0
291
     0
 45
0.0
1001
ACAD
1000
AcDbSavedByObjectVersion
1070
     0
  0
VISUALSTYLE
  5
33C
102
{ACAD_XDICTIONARY
360
3C4
102
}
102
{ACAD_REACTORS
330
234
102
}
330
234
100
AcDbVisualStyle
  2
Shaded
 70
    27
 71
     2
 72
     2
 73
     1
 90
        2
 40
-0.6
 41
30.0
 62
     5
 63
     7
 74
     0
 91
        4
 64
     7
 65
   257
 75
     1
175
     1
 42
1.0
 92
        8
 66
   257
 43
1.0
 76
     1
 77
     6
 78
     2
 67
     8
 79
     3
170
     0
171
     0
290
     0
174
     0
 93
        5
 44
0.0
173
     0
291
     0
 45
0.0
1001
ACAD
1000
AcDbSavedByObjectVersion
1070
     0
  0
VISUALSTYLE
  5
33B
102
{ACAD_XDICTIONARY
360
3C2
102
}
102
{ACAD_REACTORS
330
234
102
}
330
234
100
AcDbVisualStyle
  2
Shaded with edges
 70
    26
 71
     2
 72
     2
 73
     1
 90
        2
 40
-0.6
 41
30.0
 62
     5
 63
     7
 74
     1
 91
       10
 64
     7
 65
   257
 75
     2
175
     1
 42
1.0
 92
        8
 66
   257
 43
1.0
 76
     1
 77
     6
 78
     2
 67
     7
 79
     3
170
     0
171
     0
290
     0
174
     0
 93
        5
 44
0.0
173
     0
291
     0
 45
0.0
1001
ACAD
1000
AcDbSavedByObjectVersion
1070
     0
  0
VISUALSTYLE
  5
338
102
{ACAD_XDICTIONARY
360
3BC
102
}
102
{ACAD_REACTORS
330
234
102
}
330
234
100
AcDbVisualStyle
  2
Shades of Gray
 70
    23
 71
     2
 72
     2
 73
     3
 90
        0
 40
-0.6
 41
-30.0
 62
     5
 63
     7
 74
     2
 91
        2
 64
     7
 65
     7
 75
     1
175
     1
 42
40.0
 92
        8
 66
     7
 43
1.0
 76
     1
 77
     6
 78
     2
 67
     7
 79
     3
170
     0
171
     0
290
     0
174
     0
 93
        1
 44
0.0
173
     0
291
     0
 45
0.0
1001
ACAD
1000
AcDbSavedByObjectVersion
1070
     0
  0
VISUALSTYLE
  5
339
102
{ACAD_XDICTIONARY
360
3BE
102
}
102
{ACAD_REACTORS
330
234
102
}
330
234
100
AcDbVisualStyle
  2
Sketchy
 70
    24
 71
     1
 72
     2
 73
     2
 90
        0
 40
-0.6
 41
-30.0
 62
     5
 63
     7
 74
     2
 91
        2
 64
     7
 65
     7
 75
     1
175
     1
 42
40.0
 92
       11
 66
     7
 43
1.0
 76
     1
 77
     6
 78
     2
 67
     7
 79
     6
170
     0
171
     0
290
     0
174
     0
 93
        1
 44
0.0
173
     0
291
     0
 45
0.0
1001
ACAD
1000
AcDbSavedByObjectVersion
1070
     0
  0
VISUALSTYLE
  5
241
102
{ACAD_XDICTIONARY
360
399
102
}
102
{ACAD_REACTORS
330
234
102
}
330
234
100
AcDbVisualStyle
  2
Thicken
 70
    13
 71
     2
 72
     2
 73
     0
 90
        0
 40
-0.6
 41
-30.0
 62
     5
 63
     7
 74
     1
 91
        4
 64
     7
 65
   257
 75
     1
175
     1
 42
1.0
 92
       12
 66
     7
 43
1.0
 76
     1
 77
     6
 78
     2
 67
     7
 79
     5
170
     0
171
     0
290
     0
174
     0
 93
        1
 44
0.0
173
     0
291
     1
 45
0.0
1001
ACAD
1000
AcDbSavedByObjectVersion
1070
     0
  0
VISUALSTYLE
  5
336
102
{ACAD_XDICTIONARY
360
3B8
102
}
102
{ACAD_REACTORS
330
234
102
}
330
234
100
AcDbVisualStyle
  2
Wireframe
 70
     5
 71
     0
 72
     2
 73
     0
 90
        0
 40
-0.6
 41
-30.0
 62
     5
 63
     7
 74
     1
 91
        4
 64
     7
 65
   257
 75
     1
175
     1
 42
1.0
 92
        0
 66
   257
 43
1.0
 76
     1
 77
     6
 78
     2
 67
     7
 79
     3
170
     0
171
     0
290
     0
174
     0
 93
        1
 44
0.0
173
     0
291
     0
 45
0.0
1001
ACAD
1000
AcDbSavedByObjectVersion
1070
     0
  0
VISUALSTYLE
  5
33A
102
{ACAD_XDICTIONARY
360
3C0
102
}
102
{ACAD_REACTORS
330
234
102
}
330
234
100
AcDbVisualStyle
  2
X-Ray
 70
    25
 71
     2
 72
     2
 73
     1
 90
        1
 40
0.5
 41
-30.0
 62
     5
 63
     7
 74
     1
 91
        0
 64
     7
 65
   257
 75
     1
175
     1
 42
1.0
 92
        8
 66
     7
 43
1.0
 76
     1
 77
     6
 78
     2
 67
     7
 79
     3
170
     0
171
     0
290
     0
174
     0
 93
       13
 44
0.0
173
     0
291
     0
 45
0.0
1001
ACAD
1000
AcDbSavedByObjectVersion
1070
     0
  0
DICTIONARYVAR
  5
32C
102
{ACAD_REACTORS
330
327
102
}
330
327
100
DictionaryVariables
280
     0
  1
1:1
  0
DICTIONARYVAR
  5
329
102
{ACAD_REACTORS
330
327
102
}
330
327
100
DictionaryVariables
280
     0
  1
STANDARD
  0
DICTIONARYVAR
  5
328
102
{ACAD_REACTORS
330
327
102
}
330
327
100
DictionaryVariables
280
     0
  1
STANDARD
  0
DICTIONARYVAR
  5
333
102
{ACAD_REACTORS
330
327
102
}
330
327
100
DictionaryVariables
280
     0
  1
2
  0
DICTIONARYVAR
  5
32A
102
{ACAD_REACTORS
330
327
102
}
330
327
100
DictionaryVariables
280
     0
  1
0
  0
DICTIONARYVAR
  5
332
102
{ACAD_REACTORS
330
327
102
}
330
327
100
DictionaryVariables
280
     0
  1
1
  0
DICTIONARYVAR
  5
331
102
{ACAD_REACTORS
330
327
102
}
330
327
100
DictionaryVariables
280
     0
  1
0
  0
DICTIONARYVAR
  5
32E
102
{ACAD_REACTORS
330
327
102
}
330
327
100
DictionaryVariables
280
     0
  1
0
  0
DICTIONARYVAR
  5
32F
102
{ACAD_REACTORS
330
327
102
}
330
327
100
DictionaryVariables
280
     0
  1
0
  0
DICTIONARYVAR
  5
32D
102
{ACAD_REACTORS
330
327
102
}
330
327
100
DictionaryVariables
280
     0
  1
2
  0
DICTIONARYVAR
  5
32B
102
{ACAD_REACTORS
330
327
102
}
330
327
100
DictionaryVariables
280
     0
  1
1
  0
DICTIONARYVAR
  5
330
102
{ACAD_REACTORS
330
327
102
}
330
327
100
DictionaryVariables
280
     0
  1
127
  0
DICTIONARYVAR
  5
378
102
{ACAD_REACTORS
330
327
102
}
330
327
100
DictionaryVariables
280
     0
  1
2
  0
XRECORD
  5
2E4
102
{ACAD_REACTORS
330
2E2
102
}
330
2E2
100
AcDbXrecord
280
     1
330
61
330
69
330
71
  0
XRECORD
  5
2B5
102
{ACAD_REACTORS
330
2B4
102
}
330
2B4
100
AcDbXrecord
280
     1
 91
        1
  0
ACAD_PROXY_OBJECT
  5
2B2
102
{ACAD_REACTORS
330
2B1
102
}
330
2B1
100
AcDbProxyObject
 90
      499
 91
      506
 95
   983063
 70
     0
 93
       88
310
4050844454641554C5400E66
 94
        0
1001
ACAD
1000
AcRTDxfName
1000
ACDBQSCATEGORY
  0
XRECORD
  5
2E0
102
{ACAD_REACTORS
330
2DE
102
}
330
2DE
100
AcDbXrecord
280
     1
  9
X155d
  0
XRECORD
  5
2DF
102
{ACAD_REACTORS
330
2DE
102
}
330
2DE
100
AcDbXrecord
280
     1
  2
TOP
  3
P-0000
280
     1
310
6465736372697A696F6E6500544F5000444154410033302F31322F313000554D004E520052455600300044495345474E41544F5245004D2E43617075616E6F005343414C4100313A310000
 10
0.0
 20
0.0
 30
0.0
  0
XRECORD
  5
2BC
102
{ACAD_REACTORS
330
2BB
102
}
330
2BB
100
AcDbXrecord
280
     1
 90
      202
 91
      144
  0
DICTIONARY
  5
3A8
330
280
100
AcDbDictionary
280
     1
281
     1
  3
ACAD_XREC_ROUNDTRIP
360
3A9
  0
DICTIONARY
  5
3AA
330
284
100
AcDbDictionary
280
     1
281
     1
  3
ACAD_XREC_ROUNDTRIP
360
3AB
  0
DICTIONARY
  5
225
330
224
100
AcDbDictionary
280
     1
281
     1
  3
ACAD_XREC_ROUNDTRIP
360
37F
  3
BUMPTILE
360
227
  3
DIFFUSETILE
360
226
  3
OPACITYTILE
360
22A
  3
REFLECTIONTILE
360
229
  3
REFRACTIONTILE
360
22B
  3
SPECULARTILE
360
228
  0
DICTIONARY
  5
21D
330
21C
100
AcDbDictionary
280
     1
281
     1
  3
ACAD_XREC_ROUNDTRIP
360
37E
  3
BUMPTILE
360
21F
  3
DIFFUSETILE
360
21E
  3
OPACITYTILE
360
222
  3
REFLECTIONTILE
360
221
  3
REFRACTIONTILE
360
223
  3
SPECULARTILE
360
220
  0
DICTIONARY
  5
22D
330
22C
100
AcDbDictionary
280
     1
281
     1
  3
ACAD_XREC_ROUNDTRIP
360
380
  3
BUMPTILE
360
22F
  3
DIFFUSETILE
360
22E
  3
OPACITYTILE
360
232
  3
REFLECTIONTILE
360
231
  3
REFRACTIONTILE
360
233
  3
SPECULARTILE
360
230
  0
DICTIONARY
  5
3AC
330
2D1
100
AcDbDictionary
280
     1
281
     1
  3
ACAD_XREC_ROUNDTRIP
360
3AD
  0
DICTIONARY
  5
3AE
330
2D2
100
AcDbDictionary
280
     1
281
     1
  3
ACAD_XREC_ROUNDTRIP
360
3AF
  0
DICTIONARY
  5
3B0
330
2D3
100
AcDbDictionary
280
     1
281
     1
  3
ACAD_XREC_ROUNDTRIP
360
3B1
  0
DICTIONARY
  5
3B2
330
2D4
100
AcDbDictionary
280
     1
281
     1
  3
ACAD_XREC_ROUNDTRIP
360
3B3
  0
DICTIONARY
  5
3B4
330
2D5
100
AcDbDictionary
280
     1
281
     1
  3
ACAD_XREC_ROUNDTRIP
360
3B5
  0
DICTIONARY
  5
2D7
330
2D6
100
AcDbDictionary
280
     1
281
     1
  3
ACAD_ROUNDTRIP_2008_TABLESTYLE_CELLSTYLEMAP
360
37A
  3
ACAD_XREC_ROUNDTRIP
360
3B6
  0
DICTIONARY
  5
2D9
330
2D8
100
AcDbDictionary
280
     1
281
     1
  3
ACAD_ROUNDTRIP_2008_TABLESTYLE_CELLSTYLEMAP
360
37B
  3
ACAD_XREC_ROUNDTRIP
360
3B7
  0
DICTIONARY
  5
2E5
330
27A
100
AcDbDictionary
280
     1
281
     1
  3
ACAD_ROUNDTRIP_2008_TABLESTYLE_CELLSTYLEMAP
360
379
  3
ACAD_XREC_ROUNDTRIP
360
3A7
  0
DICTIONARY
  5
38B
330
23A
100
AcDbDictionary
280
     1
281
     1
  3
ACAD_XREC_ROUNDTRIP
360
38C
  0
DICTIONARY
  5
38F
330
23C
100
AcDbDictionary
280
     1
281
     1
  3
ACAD_XREC_ROUNDTRIP
360
390
  0
DICTIONARY
  5
38D
330
23B
100
AcDbDictionary
280
     1
281
     1
  3
ACAD_XREC_ROUNDTRIP
360
38E
  0
DICTIONARY
  5
389
330
239
100
AcDbDictionary
280
     1
281
     1
  3
ACAD_XREC_ROUNDTRIP
360
38A
  0
DICTIONARY
  5
397
330
240
100
AcDbDictionary
280
     1
281
     1
  3
ACAD_XREC_ROUNDTRIP
360
398
  0
DICTIONARY
  5
39F
330
244
100
AcDbDictionary
280
     1
281
     1
  3
ACAD_XREC_ROUNDTRIP
360
3A0
  0
DICTIONARY
  5
391
330
23D
100
AcDbDictionary
280
     1
281
     1
  3
ACAD_XREC_ROUNDTRIP
360
392
  0
DICTIONARY
  5
395
330
23F
100
AcDbDictionary
280
     1
281
     1
  3
ACAD_XREC_ROUNDTRIP
360
396
  0
DICTIONARY
  5
3A5
330
247
100
AcDbDictionary
280
     1
281
     1
  3
ACAD_XREC_ROUNDTRIP
360
3A6
  0
DICTIONARY
  5
39D
330
243
100
AcDbDictionary
280
     1
281
     1
  3
ACAD_XREC_ROUNDTRIP
360
39E
  0
DICTIONARY
  5
381
330
235
100
AcDbDictionary
280
     1
281
     1
  3
ACAD_XREC_ROUNDTRIP
360
382
  0
DICTIONARY
  5
383
330
236
100
AcDbDictionary
280
     1
281
     1
  3
ACAD_XREC_ROUNDTRIP
360
384
  0
DICTIONARY
  5
385
330
237
100
AcDbDictionary
280
     1
281
     1
  3
ACAD_XREC_ROUNDTRIP
360
386
  0
DICTIONARY
  5
387
330
238
100
AcDbDictionary
280
     1
281
     1
  3
ACAD_XREC_ROUNDTRIP
360
388
  0
DICTIONARY
  5
3BA
330
337
100
AcDbDictionary
280
     1
281
     1
  3
ACAD_XREC_ROUNDTRIP
360
3BB
  0
DICTIONARY
  5
3A1
330
245
100
AcDbDictionary
280
     1
281
     1
  3
ACAD_XREC_ROUNDTRIP
360
3A2
  0
DICTIONARY
  5
39B
330
242
100
AcDbDictionary
280
     1
281
     1
  3
ACAD_XREC_ROUNDTRIP
360
39C
  0
DICTIONARY
  5
3A3
330
246
100
AcDbDictionary
280
     1
281
     1
  3
ACAD_XREC_ROUNDTRIP
360
3A4
  0
DICTIONARY
  5
393
330
23E
100
AcDbDictionary
280
     1
281
     1
  3
ACAD_XREC_ROUNDTRIP
360
394
  0
DICTIONARY
  5
3C4
330
33C
100
AcDbDictionary
280
     1
281
     1
  3
ACAD_XREC_ROUNDTRIP
360
3C5
  0
DICTIONARY
  5
3C2
330
33B
100
AcDbDictionary
280
     1
281
     1
  3
ACAD_XREC_ROUNDTRIP
360
3C3
  0
DICTIONARY
  5
3BC
330
338
100
AcDbDictionary
280
     1
281
     1
  3
ACAD_XREC_ROUNDTRIP
360
3BD
  0
DICTIONARY
  5
3BE
330
339
100
AcDbDictionary
280
     1
281
     1
  3
ACAD_XREC_ROUNDTRIP
360
3BF
  0
DICTIONARY
  5
399
330
241
100
AcDbDictionary
280
     1
281
     1
  3
ACAD_XREC_ROUNDTRIP
360
39A
  0
DICTIONARY
  5
3B8
330
336
100
AcDbDictionary
280
     1
281
     1
  3
ACAD_XREC_ROUNDTRIP
360
3B9
  0
DICTIONARY
  5
3C0
330
33A
100
AcDbDictionary
280
     1
281
     1
  3
ACAD_XREC_ROUNDTRIP
360
3C1
  0
XRECORD
  5
3A9
102
{ACAD_REACTORS
330
3A8
102
}
330
3A8
100
AcDbXrecord
280
     1
102
SHADEPLOT
 70
     0
102
SHADEPLOTRESLEVEL
 70
     2
102
SHADEPLOTCUSTOMDPI
 70
   300
  0
XRECORD
  5
3AB
102
{ACAD_REACTORS
330
3AA
102
}
330
3AA
100
AcDbXrecord
280
     1
102
SHADEPLOT
 70
     0
102
SHADEPLOTRESLEVEL
 70
     2
102
SHADEPLOTCUSTOMDPI
 70
   300
  0
XRECORD
  5
37F
102
{ACAD_REACTORS
330
225
102
}
330
225
100
AcDbXrecord
280
     1
102
MATERIAL
148
0.0
149
0.0
149
0.0
 93
        0
 94
      127
282
     0
 72
     0
 77
     0
171
     0
175
     0
179
     0
273
     0
  0
XRECORD
  5
227
102
{ACAD_REACTORS
330
225
102
}
330
225
100
AcDbXrecord
280
     1
270
     1
271
     1
  0
XRECORD
  5
226
102
{ACAD_REACTORS
330
225
102
}
330
225
100
AcDbXrecord
280
     1
270
     1
271
     1
  0
XRECORD
  5
22A
102
{ACAD_REACTORS
330
225
102
}
330
225
100
AcDbXrecord
280
     1
270
     1
271
     1
  0
XRECORD
  5
229
102
{ACAD_REACTORS
330
225
102
}
330
225
100
AcDbXrecord
280
     1
270
     1
271
     1
  0
XRECORD
  5
22B
102
{ACAD_REACTORS
330
225
102
}
330
225
100
AcDbXrecord
280
     1
270
     1
271
     1
  0
XRECORD
  5
228
102
{ACAD_REACTORS
330
225
102
}
330
225
100
AcDbXrecord
280
     1
270
     1
271
     1
  0
XRECORD
  5
37E
102
{ACAD_REACTORS
330
21D
102
}
330
21D
100
AcDbXrecord
280
     1
102
MATERIAL
148
0.0
149
0.0
149
0.0
 93
        0
 94
      127
282
     0
 72
     0
 77
     0
171
     0
175
     0
179
     0
273
     0
  0
XRECORD
  5
21F
102
{ACAD_REACTORS
330
21D
102
}
330
21D
100
AcDbXrecord
280
     1
270
     1
271
     1
  0
XRECORD
  5
21E
102
{ACAD_REACTORS
330
21D
102
}
330
21D
100
AcDbXrecord
280
     1
270
     1
271
     1
  0
XRECORD
  5
222
102
{ACAD_REACTORS
330
21D
102
}
330
21D
100
AcDbXrecord
280
     1
270
     1
271
     1
  0
XRECORD
  5
221
102
{ACAD_REACTORS
330
21D
102
}
330
21D
100
AcDbXrecord
280
     1
270
     1
271
     1
  0
XRECORD
  5
223
102
{ACAD_REACTORS
330
21D
102
}
330
21D
100
AcDbXrecord
280
     1
270
     1
271
     1
  0
XRECORD
  5
220
102
{ACAD_REACTORS
330
21D
102
}
330
21D
100
AcDbXrecord
280
     1
270
     1
271
     1
  0
XRECORD
  5
380
102
{ACAD_REACTORS
330
22D
102
}
330
22D
100
AcDbXrecord
280
     1
102
MATERIAL
148
0.0
149
0.0
149
0.0
 93
        0
 94
      127
282
     0
 72
     0
 77
     0
171
     0
175
     0
179
     0
273
     0
  0
XRECORD
  5
22F
102
{ACAD_REACTORS
330
22D
102
}
330
22D
100
AcDbXrecord
280
     1
270
     1
271
     1
  0
XRECORD
  5
22E
102
{ACAD_REACTORS
330
22D
102
}
330
22D
100
AcDbXrecord
280
     1
270
     1
271
     1
  0
XRECORD
  5
232
102
{ACAD_REACTORS
330
22D
102
}
330
22D
100
AcDbXrecord
280
     1
270
     1
271
     1
  0
XRECORD
  5
231
102
{ACAD_REACTORS
330
22D
102
}
330
22D
100
AcDbXrecord
280
     1
270
     1
271
     1
  0
XRECORD
  5
233
102
{ACAD_REACTORS
330
22D
102
}
330
22D
100
AcDbXrecord
280
     1
270
     1
271
     1
  0
XRECORD
  5
230
102
{ACAD_REACTORS
330
22D
102
}
330
22D
100
AcDbXrecord
280
     1
270
     1
271
     1
  0
XRECORD
  5
3AD
102
{ACAD_REACTORS
330
3AC
102
}
330
3AC
100
AcDbXrecord
280
     1
102
SHADEPLOT
 70
     0
102
SHADEPLOTRESLEVEL
 70
     2
102
SHADEPLOTCUSTOMDPI
 70
   300
  0
XRECORD
  5
3AF
102
{ACAD_REACTORS
330
3AE
102
}
330
3AE
100
AcDbXrecord
280
     1
102
SHADEPLOT
 70
     0
102
SHADEPLOTRESLEVEL
 70
     2
102
SHADEPLOTCUSTOMDPI
 70
   300
  0
XRECORD
  5
3B1
102
{ACAD_REACTORS
330
3B0
102
}
330
3B0
100
AcDbXrecord
280
     1
102
SHADEPLOT
 70
     0
102
SHADEPLOTRESLEVEL
 70
     2
102
SHADEPLOTCUSTOMDPI
 70
   300
  0
XRECORD
  5
3B3
102
{ACAD_REACTORS
330
3B2
102
}
330
3B2
100
AcDbXrecord
280
     1
102
SHADEPLOT
 70
     0
102
SHADEPLOTRESLEVEL
 70
     2
102
SHADEPLOTCUSTOMDPI
 70
   300
  0
XRECORD
  5
3B5
102
{ACAD_REACTORS
330
3B4
102
}
330
3B4
100
AcDbXrecord
280
     1
102
SHADEPLOT
 70
     0
102
SHADEPLOTRESLEVEL
 70
     2
102
SHADEPLOTCUSTOMDPI
 70
   300
  0
CELLSTYLEMAP
  5
37A
102
{ACAD_REACTORS
330
2D7
102
}
330
2D7
100
AcDbCellStyleMap
 90
        3
300
CELLSTYLE
  1
TABLEFORMAT_BEGIN
 90
        5
170
     1
 91
        0
 92
    32768
 62
   257
 93
        1
300
CONTENTFORMAT
  1
CONTENTFORMAT_BEGIN
 90
        0
 91
        0
 92
      512
 93
        0
300

 40
0.0
140
1.0
 94
        5
 62
     1
340
2C3
144
6.0
309
CONTENTFORMAT_END
171
     1
301
MARGIN
  1
CELLMARGIN_BEGIN
 40
1.5
 40
1.5
 40
1.5
 40
1.5
 40
0.18
 40
0.18
309
CELLMARGIN_END
 94
        6
 95
        1
302
GRIDFORMAT
  1
GRIDFORMAT_BEGIN
 90
        0
 91
        1
 62
     0
 92
       -2
340
0
 93
        0
 40
0.045
309
GRIDFORMAT_END
 95
        2
302
GRIDFORMAT
  1
GRIDFORMAT_BEGIN
 90
        0
 91
        1
 62
     0
 92
       -2
340
0
 93
        0
 40
0.045
309
GRIDFORMAT_END
 95
        4
302
GRIDFORMAT
  1
GRIDFORMAT_BEGIN
 90
        0
 91
        1
 62
     0
 92
       -2
340
0
 93
        0
 40
0.045
309
GRIDFORMAT_END
 95
        8
302
GRIDFORMAT
  1
GRIDFORMAT_BEGIN
 90
        0
 91
        1
 62
     0
 92
       -2
340
0
 93
        0
 40
0.045
309
GRIDFORMAT_END
 95
       16
302
GRIDFORMAT
  1
GRIDFORMAT_BEGIN
 90
        0
 91
        1
 62
     0
 92
       -2
340
0
 93
        0
 40
0.045
309
GRIDFORMAT_END
 95
       32
302
GRIDFORMAT
  1
GRIDFORMAT_BEGIN
 90
        0
 91
        1
 62
     0
 92
       -2
340
0
 93
        0
 40
0.045
309
GRIDFORMAT_END
309
TABLEFORMAT_END
  1
CELLSTYLE_BEGIN
 90
        1
 91
        1
300
_TITLE
309
CELLSTYLE_END
300
CELLSTYLE
  1
TABLEFORMAT_BEGIN
 90
        5
170
     1
 91
        0
 92
        0
 62
   257
 93
        1
300
CONTENTFORMAT
  1
CONTENTFORMAT_BEGIN
 90
        0
 91
        0
 92
      512
 93
        0
300

 40
0.0
140
1.0
 94
        5
 62
     3
340
2C3
144
3.5
309
CONTENTFORMAT_END
171
     1
301
MARGIN
  1
CELLMARGIN_BEGIN
 40
1.5
 40
1.5
 40
1.5
 40
1.5
 40
0.18
 40
0.18
309
CELLMARGIN_END
 94
        6
 95
        1
302
GRIDFORMAT
  1
GRIDFORMAT_BEGIN
 90
        0
 91
        1
 62
     0
 92
       -2
340
0
 93
        0
 40
0.045
309
GRIDFORMAT_END
 95
        2
302
GRIDFORMAT
  1
GRIDFORMAT_BEGIN
 90
        0
 91
        1
 62
     0
 92
       -2
340
0
 93
        0
 40
0.045
309
GRIDFORMAT_END
 95
        4
302
GRIDFORMAT
  1
GRIDFORMAT_BEGIN
 90
        0
 91
        1
 62
     0
 92
       -2
340
0
 93
        0
 40
0.045
309
GRIDFORMAT_END
 95
        8
302
GRIDFORMAT
  1
GRIDFORMAT_BEGIN
 90
        0
 91
        1
 62
     0
 92
       -2
340
0
 93
        0
 40
0.045
309
GRIDFORMAT_END
 95
       16
302
GRIDFORMAT
  1
GRIDFORMAT_BEGIN
 90
        0
 91
        1
 62
     0
 92
       -2
340
0
 93
        0
 40
0.045
309
GRIDFORMAT_END
 95
       32
302
GRIDFORMAT
  1
GRIDFORMAT_BEGIN
 90
        0
 91
        1
 62
     0
 92
       -2
340
0
 93
        0
 40
0.045
309
GRIDFORMAT_END
309
TABLEFORMAT_END
  1
CELLSTYLE_BEGIN
 90
        2
 91
        1
300
_HEADER
309
CELLSTYLE_END
300
CELLSTYLE
  1
TABLEFORMAT_BEGIN
 90
        5
170
     1
 91
        0
 92
        0
 62
   257
 93
        1
300
CONTENTFORMAT
  1
CONTENTFORMAT_BEGIN
 90
        0
 91
        0
 92
      512
 93
        0
300

 40
0.0
140
1.0
 94
        5
 62
     7
340
2C3
144
3.0
309
CONTENTFORMAT_END
171
     1
301
MARGIN
  1
CELLMARGIN_BEGIN
 40
1.5
 40
1.5
 40
1.5
 40
1.5
 40
0.18
 40
0.18
309
CELLMARGIN_END
 94
        6
 95
        1
302
GRIDFORMAT
  1
GRIDFORMAT_BEGIN
 90
        0
 91
        1
 62
     0
 92
       -2
340
0
 93
        0
 40
0.045
309
GRIDFORMAT_END
 95
        2
302
GRIDFORMAT
  1
GRIDFORMAT_BEGIN
 90
        0
 91
        1
 62
     0
 92
       -2
340
0
 93
        0
 40
0.045
309
GRIDFORMAT_END
 95
        4
302
GRIDFORMAT
  1
GRIDFORMAT_BEGIN
 90
        0
 91
        1
 62
     0
 92
       -2
340
0
 93
        0
 40
0.045
309
GRIDFORMAT_END
 95
        8
302
GRIDFORMAT
  1
GRIDFORMAT_BEGIN
 90
        0
 91
        1
 62
     0
 92
       -2
340
0
 93
        0
 40
0.045
309
GRIDFORMAT_END
 95
       16
302
GRIDFORMAT
  1
GRIDFORMAT_BEGIN
 90
        0
 91
        1
 62
     0
 92
       -2
340
0
 93
        0
 40
0.045
309
GRIDFORMAT_END
 95
       32
302
GRIDFORMAT
  1
GRIDFORMAT_BEGIN
 90
        0
 91
        1
 62
     0
 92
       -2
340
0
 93
        0
 40
0.045
309
GRIDFORMAT_END
309
TABLEFORMAT_END
  1
CELLSTYLE_BEGIN
 90
        3
 91
        2
300
_DATA
309
CELLSTYLE_END
  0
XRECORD
  5
3B6
102
{ACAD_REACTORS
330
2D7
102
}
330
2D7
100
AcDbXrecord
280
     1
102
ACAD_ROUNDTRIP_PRE2007_TABLESTYLE
 90
      512
 91
        0
  1

 92
      512
 93
        0
  2

 94
      512
 95
        0
  3

  0
CELLSTYLEMAP
  5
37B
102
{ACAD_REACTORS
330
2D9
102
}
330
2D9
100
AcDbCellStyleMap
 90
        3
300
CELLSTYLE
  1
TABLEFORMAT_BEGIN
 90
        5
170
     1
 91
        0
 92
    32768
 62
   257
 93
        1
300
CONTENTFORMAT
  1
CONTENTFORMAT_BEGIN
 90
        0
 91
        0
 92
      512
 93
        0
300

 40
0.0
140
1.0
 94
        5
 62
     1
340
2C3
144
6.0
309
CONTENTFORMAT_END
171
     1
301
MARGIN
  1
CELLMARGIN_BEGIN
 40
1.5
 40
1.5
 40
1.5
 40
1.5
 40
0.18
 40
0.18
309
CELLMARGIN_END
 94
        6
 95
        1
302
GRIDFORMAT
  1
GRIDFORMAT_BEGIN
 90
        0
 91
        1
 62
     0
 92
       -2
340
0
 93
        0
 40
0.045
309
GRIDFORMAT_END
 95
        2
302
GRIDFORMAT
  1
GRIDFORMAT_BEGIN
 90
        0
 91
        1
 62
     0
 92
       -2
340
0
 93
        0
 40
0.045
309
GRIDFORMAT_END
 95
        4
302
GRIDFORMAT
  1
GRIDFORMAT_BEGIN
 90
        0
 91
        1
 62
     0
 92
       -2
340
0
 93
        0
 40
0.045
309
GRIDFORMAT_END
 95
        8
302
GRIDFORMAT
  1
GRIDFORMAT_BEGIN
 90
        0
 91
        1
 62
     0
 92
       -2
340
0
 93
        0
 40
0.045
309
GRIDFORMAT_END
 95
       16
302
GRIDFORMAT
  1
GRIDFORMAT_BEGIN
 90
        0
 91
        1
 62
     0
 92
       -2
340
0
 93
        0
 40
0.045
309
GRIDFORMAT_END
 95
       32
302
GRIDFORMAT
  1
GRIDFORMAT_BEGIN
 90
        0
 91
        1
 62
     0
 92
       -2
340
0
 93
        0
 40
0.045
309
GRIDFORMAT_END
309
TABLEFORMAT_END
  1
CELLSTYLE_BEGIN
 90
        1
 91
        1
300
_TITLE
309
CELLSTYLE_END
300
CELLSTYLE
  1
TABLEFORMAT_BEGIN
 90
        5
170
     1
 91
        0
 92
        0
 62
   257
 93
        1
300
CONTENTFORMAT
  1
CONTENTFORMAT_BEGIN
 90
        0
 91
        0
 92
      512
 93
        0
300

 40
0.0
140
1.0
 94
        5
 62
     3
340
2C3
144
5.0
309
CONTENTFORMAT_END
171
     1
301
MARGIN
  1
CELLMARGIN_BEGIN
 40
1.5
 40
1.5
 40
1.5
 40
1.5
 40
0.18
 40
0.18
309
CELLMARGIN_END
 94
        6
 95
        1
302
GRIDFORMAT
  1
GRIDFORMAT_BEGIN
 90
        0
 91
        1
 62
     0
 92
       -2
340
0
 93
        0
 40
0.045
309
GRIDFORMAT_END
 95
        2
302
GRIDFORMAT
  1
GRIDFORMAT_BEGIN
 90
        0
 91
        1
 62
     0
 92
       -2
340
0
 93
        0
 40
0.045
309
GRIDFORMAT_END
 95
        4
302
GRIDFORMAT
  1
GRIDFORMAT_BEGIN
 90
        0
 91
        1
 62
     0
 92
       -2
340
0
 93
        0
 40
0.045
309
GRIDFORMAT_END
 95
        8
302
GRIDFORMAT
  1
GRIDFORMAT_BEGIN
 90
        0
 91
        1
 62
     0
 92
       -2
340
0
 93
        0
 40
0.045
309
GRIDFORMAT_END
 95
       16
302
GRIDFORMAT
  1
GRIDFORMAT_BEGIN
 90
        0
 91
        1
 62
     0
 92
       -2
340
0
 93
        0
 40
0.045
309
GRIDFORMAT_END
 95
       32
302
GRIDFORMAT
  1
GRIDFORMAT_BEGIN
 90
        0
 91
        1
 62
     0
 92
       -2
340
0
 93
        0
 40
0.045
309
GRIDFORMAT_END
309
TABLEFORMAT_END
  1
CELLSTYLE_BEGIN
 90
        2
 91
        1
300
_HEADER
309
CELLSTYLE_END
300
CELLSTYLE
  1
TABLEFORMAT_BEGIN
 90
        5
170
     1
 91
        0
 92
        0
 62
   257
 93
        1
300
CONTENTFORMAT
  1
CONTENTFORMAT_BEGIN
 90
        0
 91
        0
 92
      512
 93
        0
300

 40
0.0
140
1.0
 94
        5
 62
     7
340
2C3
144
4.5
309
CONTENTFORMAT_END
171
     1
301
MARGIN
  1
CELLMARGIN_BEGIN
 40
1.5
 40
1.5
 40
1.5
 40
1.5
 40
0.18
 40
0.18
309
CELLMARGIN_END
 94
        6
 95
        1
302
GRIDFORMAT
  1
GRIDFORMAT_BEGIN
 90
        0
 91
        1
 62
     0
 92
       -2
340
0
 93
        0
 40
0.045
309
GRIDFORMAT_END
 95
        2
302
GRIDFORMAT
  1
GRIDFORMAT_BEGIN
 90
        0
 91
        1
 62
     0
 92
       -2
340
0
 93
        0
 40
0.045
309
GRIDFORMAT_END
 95
        4
302
GRIDFORMAT
  1
GRIDFORMAT_BEGIN
 90
        0
 91
        1
 62
     0
 92
       -2
340
0
 93
        0
 40
0.045
309
GRIDFORMAT_END
 95
        8
302
GRIDFORMAT
  1
GRIDFORMAT_BEGIN
 90
        0
 91
        1
 62
     0
 92
       -2
340
0
 93
        0
 40
0.045
309
GRIDFORMAT_END
 95
       16
302
GRIDFORMAT
  1
GRIDFORMAT_BEGIN
 90
        0
 91
        1
 62
     0
 92
       -2
340
0
 93
        0
 40
0.045
309
GRIDFORMAT_END
 95
       32
302
GRIDFORMAT
  1
GRIDFORMAT_BEGIN
 90
        0
 91
        1
 62
     0
 92
       -2
340
0
 93
        0
 40
0.045
309
GRIDFORMAT_END
309
TABLEFORMAT_END
  1
CELLSTYLE_BEGIN
 90
        3
 91
        2
300
_DATA
309
CELLSTYLE_END
  0
XRECORD
  5
3B7
102
{ACAD_REACTORS
330
2D9
102
}
330
2D9
100
AcDbXrecord
280
     1
102
ACAD_ROUNDTRIP_PRE2007_TABLESTYLE
 90
      512
 91
        0
  1

 92
      512
 93
        0
  2

 94
      512
 95
        0
  3

  0
CELLSTYLEMAP
  5
379
102
{ACAD_REACTORS
330
2E5
102
}
330
2E5
100
AcDbCellStyleMap
 90
        3
300
CELLSTYLE
  1
TABLEFORMAT_BEGIN
 90
        5
170
     1
 91
        0
 92
    32768
 62
   257
 93
        1
300
CONTENTFORMAT
  1
CONTENTFORMAT_BEGIN
 90
        0
 91
        0
 92
      512
 93
        0
300

 40
0.0
140
1.0
 94
        5
 62
     0
340
26B
144
0.25
309
CONTENTFORMAT_END
171
     0
 94
        0
309
TABLEFORMAT_END
  1
CELLSTYLE_BEGIN
 90
        1
 91
        1
300
_TITLE
309
CELLSTYLE_END
300
CELLSTYLE
  1
TABLEFORMAT_BEGIN
 90
        5
170
     1
 91
        0
 92
        0
 62
   257
 93
        1
300
CONTENTFORMAT
  1
CONTENTFORMAT_BEGIN
 90
        0
 91
        0
 92
      512
 93
        0
300

 40
0.0
140
1.0
 94
        5
 62
     0
340
26B
144
0.18
309
CONTENTFORMAT_END
171
     0
 94
        0
309
TABLEFORMAT_END
  1
CELLSTYLE_BEGIN
 90
        2
 91
        1
300
_HEADER
309
CELLSTYLE_END
300
CELLSTYLE
  1
TABLEFORMAT_BEGIN
 90
        5
170
     1
 91
        0
 92
        0
 62
   257
 93
        1
300
CONTENTFORMAT
  1
CONTENTFORMAT_BEGIN
 90
        0
 91
        0
 92
      512
 93
        0
300

 40
0.0
140
1.0
 94
        2
 62
     0
340
26B
144
0.18
309
CONTENTFORMAT_END
171
     0
 94
        0
309
TABLEFORMAT_END
  1
CELLSTYLE_BEGIN
 90
        3
 91
        2
300
_DATA
309
CELLSTYLE_END
  0
XRECORD
  5
3A7
102
{ACAD_REACTORS
330
2E5
102
}
330
2E5
100
AcDbXrecord
280
     1
102
ACAD_ROUNDTRIP_PRE2007_TABLESTYLE
 90
      512
 91
        0
  1

 92
      512
 93
        0
  2

 94
      512
 95
        0
  3

  0
XRECORD
  5
38C
102
{ACAD_REACTORS
330
38B
102
}
330
38B
100
AcDbXrecord
280
     1
102
RTVSPropertyOp0
 70
     1
102
RTVSPropertyOp1
 70
     1
102
RTVSPropertyOp2
 70
     1
102
RTVSPropertyOp3
 70
     1
102
RTVSPropertyOp4
 70
     1
102
RTVSPropertyOp5
 70
     1
102
RTVSPropertyOp6
 70
     1
102
RTVSPropertyOp7
 70
     1
102
RTVSPropertyOp8
 70
     1
102
RTVSPropertyOp9
 70
     1
102
RTVSPropertyOp10
 70
     1
102
RTVSPropertyOp11
 70
     1
102
RTVSPropertyOp12
 70
     1
102
RTVSPropertyOp13
 70
     1
102
RTVSPropertyOp14
 70
     1
102
RTVSPropertyOp15
 70
     1
102
RTVSPropertyOp16
 70
     1
102
RTVSPropertyOp17
 70
     1
102
RTVSPropertyOp18
 70
     1
102
RTVSPropertyOp19
 70
     1
102
RTVSPropertyOp20
 70
     1
102
RTVSPropertyOp21
 70
     1
102
RTVSPropertyOp22
 70
     1
102
RTVSPropertyOp23
 70
     1
102
RTVSPropertyOp24
 70
     1
102
RTVSPropertyOp25
 70
     1
102
RTVSPropertyOp26
 70
     1
102
RTVSPropertyOp27
 70
     1
102
RTVSPropertyOp28
 70
     1
102
RTVSPropertyOp29
 70
     1
102
RTVSPropertyOp30
 70
     1
102
RTVSPropertyOp31
 70
     1
102
RTVSPropertyOp32
 70
     1
  0
XRECORD
  5
390
102
{ACAD_REACTORS
330
38F
102
}
330
38F
100
AcDbXrecord
280
     1
102
RTVSPropertyOp0
 70
     1
102
RTVSPropertyOp1
 70
     1
102
RTVSPropertyOp2
 70
     1
102
RTVSPropertyOp3
 70
     1
102
RTVSPropertyOp4
 70
     1
102
RTVSPropertyOp5
 70
     1
102
RTVSPropertyOp6
 70
     1
102
RTVSPropertyOp7
 70
     1
102
RTVSPropertyOp8
 70
     1
102
RTVSPropertyOp9
 70
     1
102
RTVSPropertyOp10
 70
     1
102
RTVSPropertyOp11
 70
     1
102
RTVSPropertyOp12
 70
     1
102
RTVSPropertyOp13
 70
     1
102
RTVSPropertyOp14
 70
     1
102
RTVSPropertyOp15
 70
     1
102
RTVSPropertyOp16
 70
     1
102
RTVSPropertyOp17
 70
     1
102
RTVSPropertyOp18
 70
     1
102
RTVSPropertyOp19
 70
     1
102
RTVSPropertyOp20
 70
     1
102
RTVSPropertyOp21
 70
     1
102
RTVSPropertyOp22
 70
     1
102
RTVSPropertyOp23
 70
     1
102
RTVSPropertyOp24
 70
     1
102
RTVSPropertyOp25
 70
     1
102
RTVSPropertyOp26
 70
     1
102
RTVSPropertyOp27
 70
     1
102
RTVSPropertyOp28
 70
     1
102
RTVSPropertyOp29
 70
     1
102
RTVSPropertyOp30
 70
     1
102
RTVSPropertyOp31
 70
     1
102
RTVSPropertyOp32
 70
     1
  0
XRECORD
  5
38E
102
{ACAD_REACTORS
330
38D
102
}
330
38D
100
AcDbXrecord
280
     1
102
RTVSPropertyOp0
 70
     1
102
RTVSPropertyOp1
 70
     1
102
RTVSPropertyOp2
 70
     1
102
RTVSPropertyOp3
 70
     1
102
RTVSPropertyOp4
 70
     1
102
RTVSPropertyOp5
 70
     1
102
RTVSPropertyOp6
 70
     1
102
RTVSPropertyOp7
 70
     1
102
RTVSPropertyOp8
 70
     1
102
RTVSPropertyOp9
 70
     1
102
RTVSPropertyOp10
 70
     1
102
RTVSPropertyOp11
 70
     1
102
RTVSPropertyOp12
 70
     1
102
RTVSPropertyOp13
 70
     1
102
RTVSPropertyOp14
 70
     1
102
RTVSPropertyOp15
 70
     1
102
RTVSPropertyOp16
 70
     1
102
RTVSPropertyOp17
 70
     1
102
RTVSPropertyOp18
 70
     1
102
RTVSPropertyOp19
 70
     1
102
RTVSPropertyOp20
 70
     1
102
RTVSPropertyOp21
 70
     1
102
RTVSPropertyOp22
 70
     1
102
RTVSPropertyOp23
 70
     1
102
RTVSPropertyOp24
 70
     1
102
RTVSPropertyOp25
 70
     1
102
RTVSPropertyOp26
 70
     1
102
RTVSPropertyOp27
 70
     1
102
RTVSPropertyOp28
 70
     1
102
RTVSPropertyOp29
 70
     1
102
RTVSPropertyOp30
 70
     1
102
RTVSPropertyOp31
 70
     1
102
RTVSPropertyOp32
 70
     1
  0
XRECORD
  5
38A
102
{ACAD_REACTORS
330
389
102
}
330
389
100
AcDbXrecord
280
     1
102
RTVSPropertyOp0
 70
     1
102
RTVSPropertyOp1
 70
     1
102
RTVSPropertyOp2
 70
     1
102
RTVSPropertyOp3
 70
     1
102
RTVSPropertyOp4
 70
     1
102
RTVSPropertyOp5
 70
     1
102
RTVSPropertyOp6
 70
     1
102
RTVSPropertyOp7
 70
     1
102
RTVSPropertyOp8
 70
     1
102
RTVSPropertyOp9
 70
     1
102
RTVSPropertyOp10
 70
     1
102
RTVSPropertyOp11
 70
     1
102
RTVSPropertyOp12
 70
     1
102
RTVSPropertyOp13
 70
     1
102
RTVSPropertyOp14
 70
     1
102
RTVSPropertyOp15
 70
     1
102
RTVSPropertyOp16
 70
     1
102
RTVSPropertyOp17
 70
     1
102
RTVSPropertyOp18
 70
     1
102
RTVSPropertyOp19
 70
     1
102
RTVSPropertyOp20
 70
     1
102
RTVSPropertyOp21
 70
     1
102
RTVSPropertyOp22
 70
     1
102
RTVSPropertyOp23
 70
     1
102
RTVSPropertyOp24
 70
     1
102
RTVSPropertyOp25
 70
     1
102
RTVSPropertyOp26
 70
     1
102
RTVSPropertyOp27
 70
     1
102
RTVSPropertyOp28
 70
     1
102
RTVSPropertyOp29
 70
     1
102
RTVSPropertyOp30
 70
     1
102
RTVSPropertyOp31
 70
     1
102
RTVSPropertyOp32
 70
     1
  0
XRECORD
  5
398
102
{ACAD_REACTORS
330
397
102
}
330
397
100
AcDbXrecord
280
     1
102
RTVSPropertyOp0
 70
     1
102
RTVSPropertyOp1
 70
     1
102
RTVSPropertyOp2
 70
     1
102
RTVSPropertyOp3
 70
     1
102
RTVSPropertyOp4
 70
     1
102
RTVSPropertyOp5
 70
     1
102
RTVSPropertyOp6
 70
     1
102
RTVSPropertyOp7
 70
     1
102
RTVSPropertyOp8
 70
     1
102
RTVSPropertyOp9
 70
     1
102
RTVSPropertyOp10
 70
     1
102
RTVSPropertyOp11
 70
     1
102
RTVSPropertyOp12
 70
     1
102
RTVSPropertyOp13
 70
     1
102
RTVSPropertyOp14
 70
     1
102
RTVSPropertyOp15
 70
     1
102
RTVSPropertyOp16
 70
     1
102
RTVSPropertyOp17
 70
     1
102
RTVSPropertyOp18
 70
     1
102
RTVSPropertyOp19
 70
     1
102
RTVSPropertyOp20
 70
     1
102
RTVSPropertyOp21
 70
     1
102
RTVSPropertyOp22
 70
     1
102
RTVSPropertyOp23
 70
     1
102
RTVSPropertyOp24
 70
     1
102
RTVSPropertyOp25
 70
     1
102
RTVSPropertyOp26
 70
     1
102
RTVSPropertyOp27
 70
     1
102
RTVSPropertyOp28
 70
     1
102
RTVSPropertyOp29
 70
     1
102
RTVSPropertyOp30
 70
     1
102
RTVSPropertyOp31
 70
     1
102
RTVSPropertyOp32
 70
     1
  0
XRECORD
  5
3A0
102
{ACAD_REACTORS
330
39F
102
}
330
39F
100
AcDbXrecord
280
     1
102
RTVSPropertyOp0
 70
     1
102
RTVSPropertyOp1
 70
     1
102
RTVSPropertyOp2
 70
     1
102
RTVSPropertyOp3
 70
     1
102
RTVSPropertyOp4
 70
     1
102
RTVSPropertyOp5
 70
     1
102
RTVSPropertyOp6
 70
     1
102
RTVSPropertyOp7
 70
     1
102
RTVSPropertyOp8
 70
     1
102
RTVSPropertyOp9
 70
     1
102
RTVSPropertyOp10
 70
     1
102
RTVSPropertyOp11
 70
     1
102
RTVSPropertyOp12
 70
     1
102
RTVSPropertyOp13
 70
     1
102
RTVSPropertyOp14
 70
     1
102
RTVSPropertyOp15
 70
     1
102
RTVSPropertyOp16
 70
     1
102
RTVSPropertyOp17
 70
     1
102
RTVSPropertyOp18
 70
     1
102
RTVSPropertyOp19
 70
     1
102
RTVSPropertyOp20
 70
     1
102
RTVSPropertyOp21
 70
     1
102
RTVSPropertyOp22
 70
     1
102
RTVSPropertyOp23
 70
     1
102
RTVSPropertyOp24
 70
     1
102
RTVSPropertyOp25
 70
     1
102
RTVSPropertyOp26
 70
     1
102
RTVSPropertyOp27
 70
     1
102
RTVSPropertyOp28
 70
     1
102
RTVSPropertyOp29
 70
     1
102
RTVSPropertyOp30
 70
     1
102
RTVSPropertyOp31
 70
     1
102
RTVSPropertyOp32
 70
     1
  0
XRECORD
  5
392
102
{ACAD_REACTORS
330
391
102
}
330
391
100
AcDbXrecord
280
     1
102
RTVSPropertyOp0
 70
     1
102
RTVSPropertyOp1
 70
     1
102
RTVSPropertyOp2
 70
     1
102
RTVSPropertyOp3
 70
     1
102
RTVSPropertyOp4
 70
     1
102
RTVSPropertyOp5
 70
     1
102
RTVSPropertyOp6
 70
     1
102
RTVSPropertyOp7
 70
     1
102
RTVSPropertyOp8
 70
     1
102
RTVSPropertyOp9
 70
     1
102
RTVSPropertyOp10
 70
     1
102
RTVSPropertyOp11
 70
     1
102
RTVSPropertyOp12
 70
     1
102
RTVSPropertyOp13
 70
     1
102
RTVSPropertyOp14
 70
     1
102
RTVSPropertyOp15
 70
     1
102
RTVSPropertyOp16
 70
     1
102
RTVSPropertyOp17
 70
     1
102
RTVSPropertyOp18
 70
     1
102
RTVSPropertyOp19
 70
     1
102
RTVSPropertyOp20
 70
     1
102
RTVSPropertyOp21
 70
     1
102
RTVSPropertyOp22
 70
     1
102
RTVSPropertyOp23
 70
     1
102
RTVSPropertyOp24
 70
     1
102
RTVSPropertyOp25
 70
     1
102
RTVSPropertyOp26
 70
     1
102
RTVSPropertyOp27
 70
     1
102
RTVSPropertyOp28
 70
     1
102
RTVSPropertyOp29
 70
     1
102
RTVSPropertyOp30
 70
     1
102
RTVSPropertyOp31
 70
     1
102
RTVSPropertyOp32
 70
     1
  0
XRECORD
  5
396
102
{ACAD_REACTORS
330
395
102
}
330
395
100
AcDbXrecord
280
     1
102
RTVSPropertyOp0
 70
     1
102
RTVSPropertyOp1
 70
     1
102
RTVSPropertyOp2
 70
     1
102
RTVSPropertyOp3
 70
     1
102
RTVSPropertyOp4
 70
     1
102
RTVSPropertyOp5
 70
     1
102
RTVSPropertyOp6
 70
     1
102
RTVSPropertyOp7
 70
     1
102
RTVSPropertyOp8
 70
     1
102
RTVSPropertyOp9
 70
     1
102
RTVSPropertyOp10
 70
     1
102
RTVSPropertyOp11
 70
     1
102
RTVSPropertyOp12
 70
     1
102
RTVSPropertyOp13
 70
     1
102
RTVSPropertyOp14
 70
     1
102
RTVSPropertyOp15
 70
     1
102
RTVSPropertyOp16
 70
     1
102
RTVSPropertyOp17
 70
     1
102
RTVSPropertyOp18
 70
     1
102
RTVSPropertyOp19
 70
     1
102
RTVSPropertyOp20
 70
     1
102
RTVSPropertyOp21
 70
     1
102
RTVSPropertyOp22
 70
     1
102
RTVSPropertyOp23
 70
     1
102
RTVSPropertyOp24
 70
     1
102
RTVSPropertyOp25
 70
     1
102
RTVSPropertyOp26
 70
     1
102
RTVSPropertyOp27
 70
     1
102
RTVSPropertyOp28
 70
     1
102
RTVSPropertyOp29
 70
     1
102
RTVSPropertyOp30
 70
     1
102
RTVSPropertyOp31
 70
     1
102
RTVSPropertyOp32
 70
     1
  0
XRECORD
  5
3A6
102
{ACAD_REACTORS
330
3A5
102
}
330
3A5
100
AcDbXrecord
280
     1
102
RTVSPropertyOp0
 70
     0
102
RTVSPropertyOp1
 70
     0
102
RTVSPropertyOp2
 70
     0
102
RTVSPropertyOp3
 70
     0
102
RTVSPropertyOp4
 70
     0
102
RTVSPropertyOp5
 70
     0
102
RTVSPropertyOp6
 70
     0
102
RTVSPropertyOp7
 70
     0
102
RTVSPropertyOp8
 70
     0
102
RTVSPropertyOp9
 70
     0
102
RTVSPropertyOp10
 70
     0
102
RTVSPropertyOp11
 70
     0
102
RTVSPropertyOp12
 70
     0
102
RTVSPropertyOp13
 70
     0
102
RTVSPropertyOp14
 70
     2
102
RTVSPropertyOp15
 70
     0
102
RTVSPropertyOp16
 70
     0
102
RTVSPropertyOp17
 70
     0
102
RTVSPropertyOp18
 70
     0
102
RTVSPropertyOp19
 70
     0
102
RTVSPropertyOp20
 70
     0
102
RTVSPropertyOp21
 70
     0
102
RTVSPropertyOp22
 70
     0
102
RTVSPropertyOp23
 70
     0
102
RTVSPropertyOp24
 70
     0
102
RTVSPropertyOp25
 70
     0
102
RTVSPropertyOp26
 70
     0
102
RTVSPropertyOp27
 70
     0
102
RTVSPropertyOp28
 70
     1
102
RTVSPropertyOp29
 70
     1
102
RTVSPropertyOp30
 70
     1
102
RTVSPropertyOp31
 70
     1
102
RTVSPropertyOp32
 70
     1
  0
XRECORD
  5
39E
102
{ACAD_REACTORS
330
39D
102
}
330
39D
100
AcDbXrecord
280
     1
102
RTVSPropertyOp0
 70
     1
102
RTVSPropertyOp1
 70
     1
102
RTVSPropertyOp2
 70
     1
102
RTVSPropertyOp3
 70
     1
102
RTVSPropertyOp4
 70
     1
102
RTVSPropertyOp5
 70
     1
102
RTVSPropertyOp6
 70
     1
102
RTVSPropertyOp7
 70
     1
102
RTVSPropertyOp8
 70
     1
102
RTVSPropertyOp9
 70
     1
102
RTVSPropertyOp10
 70
     1
102
RTVSPropertyOp11
 70
     1
102
RTVSPropertyOp12
 70
     1
102
RTVSPropertyOp13
 70
     1
102
RTVSPropertyOp14
 70
     1
102
RTVSPropertyOp15
 70
     1
102
RTVSPropertyOp16
 70
     1
102
RTVSPropertyOp17
 70
     1
102
RTVSPropertyOp18
 70
     1
102
RTVSPropertyOp19
 70
     1
102
RTVSPropertyOp20
 70
     1
102
RTVSPropertyOp21
 70
     1
102
RTVSPropertyOp22
 70
     1
102
RTVSPropertyOp23
 70
     1
102
RTVSPropertyOp24
 70
     1
102
RTVSPropertyOp25
 70
     1
102
RTVSPropertyOp26
 70
     1
102
RTVSPropertyOp27
 70
     1
102
RTVSPropertyOp28
 70
     1
102
RTVSPropertyOp29
 70
     1
102
RTVSPropertyOp30
 70
     1
102
RTVSPropertyOp31
 70
     1
102
RTVSPropertyOp32
 70
     1
  0
XRECORD
  5
382
102
{ACAD_REACTORS
330
381
102
}
330
381
100
AcDbXrecord
280
     1
102
RTVSPropertyOp0
 70
     1
102
RTVSPropertyOp1
 70
     1
102
RTVSPropertyOp2
 70
     1
102
RTVSPropertyOp3
 70
     1
102
RTVSPropertyOp4
 70
     1
102
RTVSPropertyOp5
 70
     1
102
RTVSPropertyOp6
 70
     1
102
RTVSPropertyOp7
 70
     1
102
RTVSPropertyOp8
 70
     1
102
RTVSPropertyOp9
 70
     1
102
RTVSPropertyOp10
 70
     1
102
RTVSPropertyOp11
 70
     1
102
RTVSPropertyOp12
 70
     1
102
RTVSPropertyOp13
 70
     1
102
RTVSPropertyOp14
 70
     1
102
RTVSPropertyOp15
 70
     1
102
RTVSPropertyOp16
 70
     1
102
RTVSPropertyOp17
 70
     1
102
RTVSPropertyOp18
 70
     1
102
RTVSPropertyOp19
 70
     1
102
RTVSPropertyOp20
 70
     1
102
RTVSPropertyOp21
 70
     1
102
RTVSPropertyOp22
 70
     1
102
RTVSPropertyOp23
 70
     1
102
RTVSPropertyOp24
 70
     1
102
RTVSPropertyOp25
 70
     1
102
RTVSPropertyOp26
 70
     1
102
RTVSPropertyOp27
 70
     1
102
RTVSPropertyOp28
 70
     1
102
RTVSPropertyOp29
 70
     1
102
RTVSPropertyOp30
 70
     1
102
RTVSPropertyOp31
 70
     1
102
RTVSPropertyOp32
 70
     1
  0
XRECORD
  5
384
102
{ACAD_REACTORS
330
383
102
}
330
383
100
AcDbXrecord
280
     1
102
RTVSPropertyOp0
 70
     1
102
RTVSPropertyOp1
 70
     1
102
RTVSPropertyOp2
 70
     1
102
RTVSPropertyOp3
 70
     1
102
RTVSPropertyOp4
 70
     1
102
RTVSPropertyOp5
 70
     1
102
RTVSPropertyOp6
 70
     1
102
RTVSPropertyOp7
 70
     1
102
RTVSPropertyOp8
 70
     1
102
RTVSPropertyOp9
 70
     1
102
RTVSPropertyOp10
 70
     1
102
RTVSPropertyOp11
 70
     1
102
RTVSPropertyOp12
 70
     1
102
RTVSPropertyOp13
 70
     1
102
RTVSPropertyOp14
 70
     1
102
RTVSPropertyOp15
 70
     1
102
RTVSPropertyOp16
 70
     1
102
RTVSPropertyOp17
 70
     1
102
RTVSPropertyOp18
 70
     1
102
RTVSPropertyOp19
 70
     1
102
RTVSPropertyOp20
 70
     1
102
RTVSPropertyOp21
 70
     1
102
RTVSPropertyOp22
 70
     1
102
RTVSPropertyOp23
 70
     1
102
RTVSPropertyOp24
 70
     1
102
RTVSPropertyOp25
 70
     1
102
RTVSPropertyOp26
 70
     1
102
RTVSPropertyOp27
 70
     1
102
RTVSPropertyOp28
 70
     1
102
RTVSPropertyOp29
 70
     1
102
RTVSPropertyOp30
 70
     1
102
RTVSPropertyOp31
 70
     1
102
RTVSPropertyOp32
 70
     1
  0
XRECORD
  5
386
102
{ACAD_REACTORS
330
385
102
}
330
385
100
AcDbXrecord
280
     1
102
RTVSPropertyOp0
 70
     1
102
RTVSPropertyOp1
 70
     1
102
RTVSPropertyOp2
 70
     1
102
RTVSPropertyOp3
 70
     1
102
RTVSPropertyOp4
 70
     1
102
RTVSPropertyOp5
 70
     1
102
RTVSPropertyOp6
 70
     1
102
RTVSPropertyOp7
 70
     1
102
RTVSPropertyOp8
 70
     1
102
RTVSPropertyOp9
 70
     1
102
RTVSPropertyOp10
 70
     1
102
RTVSPropertyOp11
 70
     1
102
RTVSPropertyOp12
 70
     1
102
RTVSPropertyOp13
 70
     1
102
RTVSPropertyOp14
 70
     1
102
RTVSPropertyOp15
 70
     1
102
RTVSPropertyOp16
 70
     1
102
RTVSPropertyOp17
 70
     1
102
RTVSPropertyOp18
 70
     1
102
RTVSPropertyOp19
 70
     1
102
RTVSPropertyOp20
 70
     1
102
RTVSPropertyOp21
 70
     1
102
RTVSPropertyOp22
 70
     1
102
RTVSPropertyOp23
 70
     1
102
RTVSPropertyOp24
 70
     1
102
RTVSPropertyOp25
 70
     1
102
RTVSPropertyOp26
 70
     1
102
RTVSPropertyOp27
 70
     1
102
RTVSPropertyOp28
 70
     1
102
RTVSPropertyOp29
 70
     1
102
RTVSPropertyOp30
 70
     1
102
RTVSPropertyOp31
 70
     1
102
RTVSPropertyOp32
 70
     1
  0
XRECORD
  5
388
102
{ACAD_REACTORS
330
387
102
}
330
387
100
AcDbXrecord
280
     1
102
RTVSPropertyOp0
 70
     1
102
RTVSPropertyOp1
 70
     1
102
RTVSPropertyOp2
 70
     1
102
RTVSPropertyOp3
 70
     1
102
RTVSPropertyOp4
 70
     1
102
RTVSPropertyOp5
 70
     1
102
RTVSPropertyOp6
 70
     1
102
RTVSPropertyOp7
 70
     1
102
RTVSPropertyOp8
 70
     1
102
RTVSPropertyOp9
 70
     1
102
RTVSPropertyOp10
 70
     1
102
RTVSPropertyOp11
 70
     1
102
RTVSPropertyOp12
 70
     1
102
RTVSPropertyOp13
 70
     1
102
RTVSPropertyOp14
 70
     1
102
RTVSPropertyOp15
 70
     1
102
RTVSPropertyOp16
 70
     1
102
RTVSPropertyOp17
 70
     1
102
RTVSPropertyOp18
 70
     1
102
RTVSPropertyOp19
 70
     1
102
RTVSPropertyOp20
 70
     1
102
RTVSPropertyOp21
 70
     1
102
RTVSPropertyOp22
 70
     1
102
RTVSPropertyOp23
 70
     1
102
RTVSPropertyOp24
 70
     1
102
RTVSPropertyOp25
 70
     1
102
RTVSPropertyOp26
 70
     1
102
RTVSPropertyOp27
 70
     1
102
RTVSPropertyOp28
 70
     1
102
RTVSPropertyOp29
 70
     1
102
RTVSPropertyOp30
 70
     1
102
RTVSPropertyOp31
 70
     1
102
RTVSPropertyOp32
 70
     1
  0
XRECORD
  5
3BB
102
{ACAD_REACTORS
330
3BA
102
}
330
3BA
100
AcDbXrecord
280
     1
102
RTVSPropertyOp0
 70
     1
102
RTVSPropertyOp1
 70
     1
102
RTVSPropertyOp2
 70
     1
102
RTVSPropertyOp3
 70
     1
102
RTVSPropertyOp4
 70
     1
102
RTVSPropertyOp5
 70
     1
102
RTVSPropertyOp6
 70
     1
102
RTVSPropertyOp7
 70
     1
102
RTVSPropertyOp8
 70
     1
102
RTVSPropertyOp9
 70
     1
102
RTVSPropertyOp10
 70
     1
102
RTVSPropertyOp11
 70
     1
102
RTVSPropertyOp12
 70
     1
102
RTVSPropertyOp13
 70
     1
102
RTVSPropertyOp14
 70
     1
102
RTVSPropertyOp15
 70
     1
102
RTVSPropertyOp16
 70
     1
102
RTVSPropertyOp17
 70
     1
102
RTVSPropertyOp18
 70
     1
102
RTVSPropertyOp19
 70
     1
102
RTVSPropertyOp20
 70
     1
102
RTVSPropertyOp21
 70
     1
102
RTVSPropertyOp22
 70
     1
102
RTVSPropertyOp23
 70
     1
102
RTVSPropertyOp24
 70
     1
102
RTVSPropertyOp25
 70
     1
102
RTVSPropertyOp26
 70
     1
102
RTVSPropertyOp27
 70
     1
102
RTVSPropertyOp28
 70
     1
102
RTVSPropertyOp29
 70
     1
102
RTVSPropertyOp30
 70
     1
102
RTVSPropertyOp31
 70
     1
102
RTVSPropertyOp32
 70
     1
  0
XRECORD
  5
3A2
102
{ACAD_REACTORS
330
3A1
102
}
330
3A1
100
AcDbXrecord
280
     1
102
RTVSPropertyOp0
 70
     0
102
RTVSPropertyOp1
 70
     0
102
RTVSPropertyOp2
 70
     0
102
RTVSPropertyOp3
 70
     0
102
RTVSPropertyOp4
 70
     0
102
RTVSPropertyOp5
 70
     0
102
RTVSPropertyOp6
 70
     0
102
RTVSPropertyOp7
 70
     0
102
RTVSPropertyOp8
 70
     0
102
RTVSPropertyOp9
 70
     0
102
RTVSPropertyOp10
 70
     0
102
RTVSPropertyOp11
 70
     0
102
RTVSPropertyOp12
 70
     0
102
RTVSPropertyOp13
 70
     0
102
RTVSPropertyOp14
 70
     2
102
RTVSPropertyOp15
 70
     0
102
RTVSPropertyOp16
 70
     0
102
RTVSPropertyOp17
 70
     0
102
RTVSPropertyOp18
 70
     0
102
RTVSPropertyOp19
 70
     0
102
RTVSPropertyOp20
 70
     0
102
RTVSPropertyOp21
 70
     0
102
RTVSPropertyOp22
 70
     0
102
RTVSPropertyOp23
 70
     0
102
RTVSPropertyOp24
 70
     0
102
RTVSPropertyOp25
 70
     0
102
RTVSPropertyOp26
 70
     0
102
RTVSPropertyOp27
 70
     0
102
RTVSPropertyOp28
 70
     1
102
RTVSPropertyOp29
 70
     1
102
RTVSPropertyOp30
 70
     1
102
RTVSPropertyOp31
 70
     1
102
RTVSPropertyOp32
 70
     1
  0
XRECORD
  5
39C
102
{ACAD_REACTORS
330
39B
102
}
330
39B
100
AcDbXrecord
280
     1
102
RTVSPropertyOp0
 70
     1
102
RTVSPropertyOp1
 70
     1
102
RTVSPropertyOp2
 70
     1
102
RTVSPropertyOp3
 70
     1
102
RTVSPropertyOp4
 70
     1
102
RTVSPropertyOp5
 70
     1
102
RTVSPropertyOp6
 70
     1
102
RTVSPropertyOp7
 70
     1
102
RTVSPropertyOp8
 70
     1
102
RTVSPropertyOp9
 70
     1
102
RTVSPropertyOp10
 70
     1
102
RTVSPropertyOp11
 70
     1
102
RTVSPropertyOp12
 70
     1
102
RTVSPropertyOp13
 70
     1
102
RTVSPropertyOp14
 70
     1
102
RTVSPropertyOp15
 70
     1
102
RTVSPropertyOp16
 70
     1
102
RTVSPropertyOp17
 70
     1
102
RTVSPropertyOp18
 70
     1
102
RTVSPropertyOp19
 70
     1
102
RTVSPropertyOp20
 70
     1
102
RTVSPropertyOp21
 70
     1
102
RTVSPropertyOp22
 70
     1
102
RTVSPropertyOp23
 70
     1
102
RTVSPropertyOp24
 70
     1
102
RTVSPropertyOp25
 70
     1
102
RTVSPropertyOp26
 70
     1
102
RTVSPropertyOp27
 70
     1
102
RTVSPropertyOp28
 70
     1
102
RTVSPropertyOp29
 70
     1
102
RTVSPropertyOp30
 70
     1
102
RTVSPropertyOp31
 70
     1
102
RTVSPropertyOp32
 70
     1
  0
XRECORD
  5
3A4
102
{ACAD_REACTORS
330
3A3
102
}
330
3A3
100
AcDbXrecord
280
     1
102
RTVSPropertyOp0
 70
     0
102
RTVSPropertyOp1
 70
     0
102
RTVSPropertyOp2
 70
     0
102
RTVSPropertyOp3
 70
     0
102
RTVSPropertyOp4
 70
     0
102
RTVSPropertyOp5
 70
     0
102
RTVSPropertyOp6
 70
     0
102
RTVSPropertyOp7
 70
     0
102
RTVSPropertyOp8
 70
     0
102
RTVSPropertyOp9
 70
     0
102
RTVSPropertyOp10
 70
     0
102
RTVSPropertyOp11
 70
     0
102
RTVSPropertyOp12
 70
     0
102
RTVSPropertyOp13
 70
     0
102
RTVSPropertyOp14
 70
     2
102
RTVSPropertyOp15
 70
     0
102
RTVSPropertyOp16
 70
     0
102
RTVSPropertyOp17
 70
     0
102
RTVSPropertyOp18
 70
     0
102
RTVSPropertyOp19
 70
     0
102
RTVSPropertyOp20
 70
     0
102
RTVSPropertyOp21
 70
     0
102
RTVSPropertyOp22
 70
     0
102
RTVSPropertyOp23
 70
     0
102
RTVSPropertyOp24
 70
     0
102
RTVSPropertyOp25
 70
     0
102
RTVSPropertyOp26
 70
     0
102
RTVSPropertyOp27
 70
     0
102
RTVSPropertyOp28
 70
     1
102
RTVSPropertyOp29
 70
     1
102
RTVSPropertyOp30
 70
     1
102
RTVSPropertyOp31
 70
     1
102
RTVSPropertyOp32
 70
     1
  0
XRECORD
  5
394
102
{ACAD_REACTORS
330
393
102
}
330
393
100
AcDbXrecord
280
     1
102
RTVSPropertyOp0
 70
     1
102
RTVSPropertyOp1
 70
     1
102
RTVSPropertyOp2
 70
     1
102
RTVSPropertyOp3
 70
     1
102
RTVSPropertyOp4
 70
     1
102
RTVSPropertyOp5
 70
     1
102
RTVSPropertyOp6
 70
     1
102
RTVSPropertyOp7
 70
     1
102
RTVSPropertyOp8
 70
     1
102
RTVSPropertyOp9
 70
     1
102
RTVSPropertyOp10
 70
     1
102
RTVSPropertyOp11
 70
     1
102
RTVSPropertyOp12
 70
     1
102
RTVSPropertyOp13
 70
     1
102
RTVSPropertyOp14
 70
     1
102
RTVSPropertyOp15
 70
     1
102
RTVSPropertyOp16
 70
     1
102
RTVSPropertyOp17
 70
     1
102
RTVSPropertyOp18
 70
     1
102
RTVSPropertyOp19
 70
     1
102
RTVSPropertyOp20
 70
     1
102
RTVSPropertyOp21
 70
     1
102
RTVSPropertyOp22
 70
     1
102
RTVSPropertyOp23
 70
     1
102
RTVSPropertyOp24
 70
     1
102
RTVSPropertyOp25
 70
     1
102
RTVSPropertyOp26
 70
     1
102
RTVSPropertyOp27
 70
     1
102
RTVSPropertyOp28
 70
     1
102
RTVSPropertyOp29
 70
     1
102
RTVSPropertyOp30
 70
     1
102
RTVSPropertyOp31
 70
     1
102
RTVSPropertyOp32
 70
     1
  0
XRECORD
  5
3C5
102
{ACAD_REACTORS
330
3C4
102
}
330
3C4
100
AcDbXrecord
280
     1
102
RTVSPropertyOp0
 70
     1
102
RTVSPropertyOp1
 70
     1
102
RTVSPropertyOp2
 70
     1
102
RTVSPropertyOp3
 70
     1
102
RTVSPropertyOp4
 70
     1
102
RTVSPropertyOp5
 70
     1
102
RTVSPropertyOp6
 70
     1
102
RTVSPropertyOp7
 70
     1
102
RTVSPropertyOp8
 70
     1
102
RTVSPropertyOp9
 70
     1
102
RTVSPropertyOp10
 70
     1
102
RTVSPropertyOp11
 70
     1
102
RTVSPropertyOp12
 70
     1
102
RTVSPropertyOp13
 70
     1
102
RTVSPropertyOp14
 70
     1
102
RTVSPropertyOp15
 70
     1
102
RTVSPropertyOp16
 70
     1
102
RTVSPropertyOp17
 70
     1
102
RTVSPropertyOp18
 70
     1
102
RTVSPropertyOp19
 70
     1
102
RTVSPropertyOp20
 70
     1
102
RTVSPropertyOp21
 70
     1
102
RTVSPropertyOp22
 70
     1
102
RTVSPropertyOp23
 70
     1
102
RTVSPropertyOp24
 70
     1
102
RTVSPropertyOp25
 70
     1
102
RTVSPropertyOp26
 70
     1
102
RTVSPropertyOp27
 70
     1
102
RTVSPropertyOp28
 70
     1
102
RTVSPropertyOp29
 70
     1
102
RTVSPropertyOp30
 70
     1
102
RTVSPropertyOp31
 70
     1
102
RTVSPropertyOp32
 70
     1
  0
XRECORD
  5
3C3
102
{ACAD_REACTORS
330
3C2
102
}
330
3C2
100
AcDbXrecord
280
     1
102
RTVSPropertyOp0
 70
     1
102
RTVSPropertyOp1
 70
     1
102
RTVSPropertyOp2
 70
     1
102
RTVSPropertyOp3
 70
     1
102
RTVSPropertyOp4
 70
     1
102
RTVSPropertyOp5
 70
     1
102
RTVSPropertyOp6
 70
     1
102
RTVSPropertyOp7
 70
     1
102
RTVSPropertyOp8
 70
     1
102
RTVSPropertyOp9
 70
     1
102
RTVSPropertyOp10
 70
     1
102
RTVSPropertyOp11
 70
     1
102
RTVSPropertyOp12
 70
     1
102
RTVSPropertyOp13
 70
     1
102
RTVSPropertyOp14
 70
     1
102
RTVSPropertyOp15
 70
     1
102
RTVSPropertyOp16
 70
     1
102
RTVSPropertyOp17
 70
     1
102
RTVSPropertyOp18
 70
     1
102
RTVSPropertyOp19
 70
     1
102
RTVSPropertyOp20
 70
     1
102
RTVSPropertyOp21
 70
     1
102
RTVSPropertyOp22
 70
     1
102
RTVSPropertyOp23
 70
     1
102
RTVSPropertyOp24
 70
     1
102
RTVSPropertyOp25
 70
     1
102
RTVSPropertyOp26
 70
     1
102
RTVSPropertyOp27
 70
     1
102
RTVSPropertyOp28
 70
     1
102
RTVSPropertyOp29
 70
     1
102
RTVSPropertyOp30
 70
     1
102
RTVSPropertyOp31
 70
     1
102
RTVSPropertyOp32
 70
     1
  0
XRECORD
  5
3BD
102
{ACAD_REACTORS
330
3BC
102
}
330
3BC
100
AcDbXrecord
280
     1
102
RTVSPropertyOp0
 70
     1
102
RTVSPropertyOp1
 70
     1
102
RTVSPropertyOp2
 70
     1
102
RTVSPropertyOp3
 70
     1
102
RTVSPropertyOp4
 70
     1
102
RTVSPropertyOp5
 70
     1
102
RTVSPropertyOp6
 70
     1
102
RTVSPropertyOp7
 70
     1
102
RTVSPropertyOp8
 70
     1
102
RTVSPropertyOp9
 70
     1
102
RTVSPropertyOp10
 70
     1
102
RTVSPropertyOp11
 70
     1
102
RTVSPropertyOp12
 70
     1
102
RTVSPropertyOp13
 70
     1
102
RTVSPropertyOp14
 70
     1
102
RTVSPropertyOp15
 70
     1
102
RTVSPropertyOp16
 70
     1
102
RTVSPropertyOp17
 70
     1
102
RTVSPropertyOp18
 70
     1
102
RTVSPropertyOp19
 70
     1
102
RTVSPropertyOp20
 70
     1
102
RTVSPropertyOp21
 70
     1
102
RTVSPropertyOp22
 70
     1
102
RTVSPropertyOp23
 70
     1
102
RTVSPropertyOp24
 70
     1
102
RTVSPropertyOp25
 70
     1
102
RTVSPropertyOp26
 70
     1
102
RTVSPropertyOp27
 70
     1
102
RTVSPropertyOp28
 70
     1
102
RTVSPropertyOp29
 70
     1
102
RTVSPropertyOp30
 70
     1
102
RTVSPropertyOp31
 70
     1
102
RTVSPropertyOp32
 70
     1
  0
XRECORD
  5
3BF
102
{ACAD_REACTORS
330
3BE
102
}
330
3BE
100
AcDbXrecord
280
     1
102
RTVSPropertyOp0
 70
     1
102
RTVSPropertyOp1
 70
     1
102
RTVSPropertyOp2
 70
     1
102
RTVSPropertyOp3
 70
     1
102
RTVSPropertyOp4
 70
     1
102
RTVSPropertyOp5
 70
     1
102
RTVSPropertyOp6
 70
     1
102
RTVSPropertyOp7
 70
     1
102
RTVSPropertyOp8
 70
     1
102
RTVSPropertyOp9
 70
     1
102
RTVSPropertyOp10
 70
     1
102
RTVSPropertyOp11
 70
     1
102
RTVSPropertyOp12
 70
     1
102
RTVSPropertyOp13
 70
     1
102
RTVSPropertyOp14
 70
     1
102
RTVSPropertyOp15
 70
     1
102
RTVSPropertyOp16
 70
     1
102
RTVSPropertyOp17
 70
     1
102
RTVSPropertyOp18
 70
     1
102
RTVSPropertyOp19
 70
     1
102
RTVSPropertyOp20
 70
     1
102
RTVSPropertyOp21
 70
     1
102
RTVSPropertyOp22
 70
     1
102
RTVSPropertyOp23
 70
     1
102
RTVSPropertyOp24
 70
     1
102
RTVSPropertyOp25
 70
     1
102
RTVSPropertyOp26
 70
     1
102
RTVSPropertyOp27
 70
     1
102
RTVSPropertyOp28
 70
     1
102
RTVSPropertyOp29
 70
     1
102
RTVSPropertyOp30
 70
     1
102
RTVSPropertyOp31
 70
     1
102
RTVSPropertyOp32
 70
     1
  0
XRECORD
  5
39A
102
{ACAD_REACTORS
330
399
102
}
330
399
100
AcDbXrecord
280
     1
102
RTVSPropertyOp0
 70
     1
102
RTVSPropertyOp1
 70
     1
102
RTVSPropertyOp2
 70
     1
102
RTVSPropertyOp3
 70
     1
102
RTVSPropertyOp4
 70
     1
102
RTVSPropertyOp5
 70
     1
102
RTVSPropertyOp6
 70
     1
102
RTVSPropertyOp7
 70
     1
102
RTVSPropertyOp8
 70
     1
102
RTVSPropertyOp9
 70
     1
102
RTVSPropertyOp10
 70
     1
102
RTVSPropertyOp11
 70
     1
102
RTVSPropertyOp12
 70
     1
102
RTVSPropertyOp13
 70
     1
102
RTVSPropertyOp14
 70
     1
102
RTVSPropertyOp15
 70
     1
102
RTVSPropertyOp16
 70
     1
102
RTVSPropertyOp17
 70
     1
102
RTVSPropertyOp18
 70
     1
102
RTVSPropertyOp19
 70
     1
102
RTVSPropertyOp20
 70
     1
102
RTVSPropertyOp21
 70
     1
102
RTVSPropertyOp22
 70
     1
102
RTVSPropertyOp23
 70
     1
102
RTVSPropertyOp24
 70
     1
102
RTVSPropertyOp25
 70
     1
102
RTVSPropertyOp26
 70
     1
102
RTVSPropertyOp27
 70
     1
102
RTVSPropertyOp28
 70
     1
102
RTVSPropertyOp29
 70
     1
102
RTVSPropertyOp30
 70
     1
102
RTVSPropertyOp31
 70
     1
102
RTVSPropertyOp32
 70
     1
  0
XRECORD
  5
3B9
102
{ACAD_REACTORS
330
3B8
102
}
330
3B8
100
AcDbXrecord
280
     1
102
RTVSPropertyOp0
 70
     1
102
RTVSPropertyOp1
 70
     1
102
RTVSPropertyOp2
 70
     1
102
RTVSPropertyOp3
 70
     1
102
RTVSPropertyOp4
 70
     1
102
RTVSPropertyOp5
 70
     1
102
RTVSPropertyOp6
 70
     1
102
RTVSPropertyOp7
 70
     1
102
RTVSPropertyOp8
 70
     1
102
RTVSPropertyOp9
 70
     1
102
RTVSPropertyOp10
 70
     1
102
RTVSPropertyOp11
 70
     1
102
RTVSPropertyOp12
 70
     1
102
RTVSPropertyOp13
 70
     1
102
RTVSPropertyOp14
 70
     1
102
RTVSPropertyOp15
 70
     1
102
RTVSPropertyOp16
 70
     1
102
RTVSPropertyOp17
 70
     1
102
RTVSPropertyOp18
 70
     1
102
RTVSPropertyOp19
 70
     1
102
RTVSPropertyOp20
 70
     1
102
RTVSPropertyOp21
 70
     1
102
RTVSPropertyOp22
 70
     1
102
RTVSPropertyOp23
 70
     1
102
RTVSPropertyOp24
 70
     1
102
RTVSPropertyOp25
 70
     1
102
RTVSPropertyOp26
 70
     1
102
RTVSPropertyOp27
 70
     1
102
RTVSPropertyOp28
 70
     1
102
RTVSPropertyOp29
 70
     1
102
RTVSPropertyOp30
 70
     1
102
RTVSPropertyOp31
 70
     1
102
RTVSPropertyOp32
 70
     1
  0
XRECORD
  5
3C1
102
{ACAD_REACTORS
330
3C0
102
}
330
3C0
100
AcDbXrecord
280
     1
102
RTVSPropertyOp0
 70
     1
102
RTVSPropertyOp1
 70
     1
102
RTVSPropertyOp2
 70
     1
102
RTVSPropertyOp3
 70
     1
102
RTVSPropertyOp4
 70
     1
102
RTVSPropertyOp5
 70
     1
102
RTVSPropertyOp6
 70
     1
102
RTVSPropertyOp7
 70
     1
102
RTVSPropertyOp8
 70
     1
102
RTVSPropertyOp9
 70
     1
102
RTVSPropertyOp10
 70
     1
102
RTVSPropertyOp11
 70
     1
102
RTVSPropertyOp12
 70
     1
102
RTVSPropertyOp13
 70
     1
102
RTVSPropertyOp14
 70
     1
102
RTVSPropertyOp15
 70
     1
102
RTVSPropertyOp16
 70
     1
102
RTVSPropertyOp17
 70
     1
102
RTVSPropertyOp18
 70
     1
102
RTVSPropertyOp19
 70
     1
102
RTVSPropertyOp20
 70
     1
102
RTVSPropertyOp21
 70
     1
102
RTVSPropertyOp22
 70
     1
102
RTVSPropertyOp23
 70
     1
102
RTVSPropertyOp24
 70
     1
102
RTVSPropertyOp25
 70
     1
102
RTVSPropertyOp26
 70
     1
102
RTVSPropertyOp27
 70
     1
102
RTVSPropertyOp28
 70
     1
102
RTVSPropertyOp29
 70
     1
102
RTVSPropertyOp30
 70
     1
102
RTVSPropertyOp31
 70
     1
102
RTVSPropertyOp32
 70
     1
  0
ENDSEC
  0
EOF
