  0
SECTION
  2
HEADER
  9
$ACADVER
  1
AC1018
  9
$ACADMAINTVER
 70
     0
  9
$DWGCODEPAGE
  3
ANSI_1252
  9
$INSBASE
 10
0.0
 20
0.0
 30
0.0
  9
$EXTMIN
 10
1.000E+20
 20
1.000E+20
 30
1.000E+20
  9
$EXTMAX
 10
-1.000E+20
 20
-1.000E+20
 30
-1.000E+20
  9
$LIMMIN
 10
0.0
 20
0.0
  9
$LIMMAX
 10
420.0
 20
297.0
  9
$ORTHOMODE
 70
     0
  9
$REGENMODE
 70
     1
  9
$FILLMODE
 70
     1
  9
$QTEXTMODE
 70
     0
  9
$MIRRTEXT
 70
     1
  9
$LTSCALE
 40
1.0
  9
$ATTMODE
 70
     1
  9
$TEXTSIZE
 40
2.5
  9
$TRACEWID
 40
1.0
  9
$TEXTSTYLE
  7
Standard
  9
$CLAYER
  8
0
  9
$CELTYPE
  6
ByLayer
  9
$CECOLOR
 62
   256
  9
$CELTSCALE
 40
1.0
  9
$DISPSILH
 70
     0
  9
$DIMSCALE
 40
1.0
  9
$DIMASZ
 40
2.5
  9
$DIMEXO
 40
0.625
  9
$DIMDLI
 40
3.75
  9
$DIMRND
 40
0.0
  9
$DIMDLE
 40
0.0
  9
$DIMEXE
 40
1.25
  9
$DIMTP
 40
0.0
  9
$DIMTM
 40
0.0
  9
$DIMTXT
 40
2.5
  9
$DIMCEN
 40
2.5
  9
$DIMTSZ
 40
0.0
  9
$DIMTOL
 70
     0
  9
$DIMLIM
 70
     0
  9
$DIMTIH
 70
     0
  9
$DIMTOH
 70
     0
  9
$DIMSE1
 70
     0
  9
$DIMSE2
 70
     0
  9
$DIMTAD
 70
     1
  9
$DIMZIN
 70
     8
  9
$DIMBLK
  1

  9
$DIMASO
 70
     1
  9
$DIMSHO
 70
     1
  9
$DIMPOST
  1

  9
$DIMAPOST
  1

  9
$DIMALT
 70
     0
  9
$DIMALTD
 70
     3
  9
$DIMALTF
 40
0.039
  9
$DIMLFAC
 40
1.0
  9
$DIMTOFL
 70
     1
  9
$DIMTVP
 40
0.0
  9
$DIMTIX
 70
     0
  9
$DIMSOXD
 70
     0
  9
$DIMSAH
 70
     0
  9
$DIMBLK1
  1

  9
$DIMBLK2
  1

  9
$DIMSTYLE
  2
ISO-25
  9
$DIMCLRD
 70
     0
  9
$DIMCLRE
 70
     0
  9
$DIMCLRT
 70
     0
  9
$DIMTFAC
 40
1.0
  9
$DIMGAP
 40
0.625
  9
$DIMJUST
 70
     0
  9
$DIMSD1
 70
     0
  9
$DIMSD2
 70
     0
  9
$DIMTOLJ
 70
     0
  9
$DIMTZIN
 70
     8
  9
$DIMALTZ
 70
     0
  9
$DIMALTTZ
 70
     0
  9
$DIMUPT
 70
     0
  9
$DIMDEC
 70
     2
  9
$DIMTDEC
 70
     2
  9
$DIMALTU
 70
     2
  9
$DIMALTTD
 70
     3
  9
$DIMTXSTY
  7
Standard
  9
$DIMAUNIT
 70
     0
  9
$DIMADEC
 70
     0
  9
$DIMALTRND
 40
0.0
  9
$DIMAZIN
 70
     0
  9
$DIMDSEP
 70
    44
  9
$DIMATFIT
 70
     3
  9
$DIMFRAC
 70
     0
  9
$DIMLDRBLK
  1

  9
$DIMLUNIT
 70
     2
  9
$DIMLWD
 70
    -2
  9
$DIMLWE
 70
    -2
  9
$DIMTMOVE
 70
     0
  9
$LUNITS
 70
     2
  9
$LUPREC
 70
     4
  9
$SKETCHINC
 40
1.0
  9
$FILLETRAD
 40
10.0
  9
$AUNITS
 70
     0
  9
$AUPREC
 70
     0
  9
$MENU
  1
.
  9
$ELEVATION
 40
0.0
  9
$PELEVATION
 40
0.0
  9
$THICKNESS
 40
0.0
  9
$LIMCHECK
 70
     0
  9
$CHAMFERA
 40
10.0
  9
$CHAMFERB
 40
10.0
  9
$CHAMFERC
 40
20.0
  9
$CHAMFERD
 40
0.0
  9
$SKPOLY
 70
     0
  9
$TDCREATE
 40
2455813.768684109
  9
$TDUCREATE
 40
2455813.685350775
  9
$TDUPDATE
 40
2455813.76868412
  9
$TDUUPDATE
 40
2455813.685350787
  9
$TDINDWG
 40
0.0000000116
  9
$TDUSRTIMER
 40
0.0000000116
  9
$USRTIMER
 70
     1
  9
$ANGBASE
 50
0.0
  9
$ANGDIR
 70
     0
  9
$PDMODE
 70
     0
  9
$PDSIZE
 40
0.0
  9
$PLINEWID
 40
0.0
  9
$SPLFRAME
 70
     0
  9
$SPLINETYPE
 70
     6
  9
$SPLINESEGS
 70
     8
  9
$HANDSEED
  5
E7
  9
$SURFTAB1
 70
     6
  9
$SURFTAB2
 70
     6
  9
$SURFTYPE
 70
     6
  9
$SURFU
 70
     6
  9
$SURFV
 70
     6
  9
$UCSBASE
  2

  9
$UCSNAME
  2

  9
$UCSORG
 10
0.0
 20
0.0
 30
0.0
  9
$UCSXDIR
 10
1.0
 20
0.0
 30
0.0
  9
$UCSYDIR
 10
0.0
 20
1.0
 30
0.0
  9
$UCSORTHOREF
  2

  9
$UCSORTHOVIEW
 70
     0
  9
$UCSORGTOP
 10
0.0
 20
0.0
 30
0.0
  9
$UCSORGBOTTOM
 10
0.0
 20
0.0
 30
0.0
  9
$UCSORGLEFT
 10
0.0
 20
0.0
 30
0.0
  9
$UCSORGRIGHT
 10
0.0
 20
0.0
 30
0.0
  9
$UCSORGFRONT
 10
0.0
 20
0.0
 30
0.0
  9
$UCSORGBACK
 10
0.0
 20
0.0
 30
0.0
  9
$PUCSBASE
  2

  9
$PUCSNAME
  2

  9
$PUCSORG
 10
0.0
 20
0.0
 30
0.0
  9
$PUCSXDIR
 10
1.0
 20
0.0
 30
0.0
  9
$PUCSYDIR
 10
0.0
 20
1.0
 30
0.0
  9
$PUCSORTHOREF
  2

  9
$PUCSORTHOVIEW
 70
     0
  9
$PUCSORGTOP
 10
0.0
 20
0.0
 30
0.0
  9
$PUCSORGBOTTOM
 10
0.0
 20
0.0
 30
0.0
  9
$PUCSORGLEFT
 10
0.0
 20
0.0
 30
0.0
  9
$PUCSORGRIGHT
 10
0.0
 20
0.0
 30
0.0
  9
$PUCSORGFRONT
 10
0.0
 20
0.0
 30
0.0
  9
$PUCSORGBACK
 10
0.0
 20
0.0
 30
0.0
  9
$USERI1
 70
     0
  9
$USERI2
 70
     0
  9
$USERI3
 70
     0
  9
$USERI4
 70
     0
  9
$USERI5
 70
     0
  9
$USERR1
 40
0.0
  9
$USERR2
 40
0.0
  9
$USERR3
 40
0.0
  9
$USERR4
 40
0.0
  9
$USERR5
 40
0.0
  9
$WORLDVIEW
 70
     1
  9
$SHADEDGE
 70
     3
  9
$SHADEDIF
 70
    70
  9
$TILEMODE
 70
     1
  9
$MAXACTVP
 70
    64
  9
$PINSBASE
 10
0.0
 20
0.0
 30
0.0
  9
$PLIMCHECK
 70
     0
  9
$PEXTMIN
 10
1.000E+20
 20
1.000E+20
 30
1.000E+20
  9
$PEXTMAX
 10
-1.000E+20
 20
-1.000E+20
 30
-1.000E+20
  9
$PLIMMIN
 10
0.0
 20
0.0
  9
$PLIMMAX
 10
420.0
 20
297.0
  9
$UNITMODE
 70
     0
  9
$VISRETAIN
 70
     1
  9
$PLINEGEN
 70
     0
  9
$PSLTSCALE
 70
     1
  9
$TREEDEPTH
 70
  3020
  9
$CMLSTYLE
  2
Standard
  9
$CMLJUST
 70
     0
  9
$CMLSCALE
 40
20.0
  9
$PROXYGRAPHICS
 70
     1
  9
$MEASUREMENT
 70
     1
  9
$CELWEIGHT
370
    -1
  9
$ENDCAPS
280
     0
  9
$JOINSTYLE
280
     0
  9
$LWDISPLAY
290
     0
  9
$INSUNITS
 70
     4
  9
$HYPERLINKBASE
  1

  9
$STYLESHEET
  1

  9
$XEDIT
290
     1
  9
$CEPSNTYPE
380
     0
  9
$PSTYLEMODE
290
     1
  9
$FINGERPRINTGUID
  2
{C3B21604-21B2-4444-B7CC-59996A52F6C3}
  9
$VERSIONGUID
  2
{FAEB1C32-E019-11D5-929B-00C0DF256EC4}
  9
$EXTNAMES
290
     1
  9
$PSVPSCALE
 40
0.0
  9
$OLESTARTUP
290
     0
  9
$SORTENTS
280
   127
  9
$INDEXCTL
280
     0
  9
$HIDETEXT
280
     1
  9
$XCLIPFRAME
290
     0
  9
$HALOGAP
280
     0
  9
$OBSCOLOR
 70
   257
  9
$OBSLTYPE
280
     0
  9
$INTERSECTIONDISPLAY
280
     0
  9
$INTERSECTIONCOLOR
 70
   257
  9
$DIMASSOC
280
     2
  9
$PROJECTNAME
  1

  0
ENDSEC
  0
SECTION
  2
CLASSES
  0
CLASS
  1
ACDBDICTIONARYWDFLT
  2
AcDbDictionaryWithDefault
  3
ObjectDBX Classes
 90
        0
 91
        4
280
     0
281
     0
  0
CLASS
  1
VISUALSTYLE
  2
AcDbVisualStyle
  3
ObjectDBX Classes
 90
     4095
 91
        4
280
     0
281
     0
  0
ENDSEC
  0
SECTION
  2
TABLES
  0
TABLE
  2
VPORT
  5
8
330
0
100
AcDbSymbolTable
 70
     1
  0
VPORT
  5
29
330
8
100
AcDbSymbolTableRecord
100
AcDbViewportTableRecord
  2
*Active
 70
     0
 10
0.0
 20
0.0
 11
1.0
 21
1.0
 12
344.187
 22
148.5
 13
0.0
 23
0.0
 14
10.0
 24
10.0
 15
10.0
 25
10.0
 16
0.0
 26
0.0
 36
1.0
 17
0.0
 27
0.0
 37
0.0
 40
297.0
 41
1.973
 42
50.0
 43
0.0
 44
0.0
 50
0.0
 51
0.0
 71
     0
 72
   100
 73
     1
 74
     3
 75
     0
 76
     0
 77
     0
 78
     0
281
     0
 65
     1
110
0.0
120
0.0
130
0.0
111
1.0
121
0.0
131
0.0
112
0.0
122
1.0
132
0.0
 79
     0
146
0.0
  0
ENDTAB
  0
TABLE
  2
LTYPE
  5
5
330
0
100
AcDbSymbolTable
 70
     1
  0
LTYPE
  5
14
330
5
100
AcDbSymbolTableRecord
100
AcDbLinetypeTableRecord
  2
ByBlock
 70
     0
  3

 72
    65
 73
     0
 40
0.0
  0
LTYPE
  5
15
330
5
100
AcDbSymbolTableRecord
100
AcDbLinetypeTableRecord
  2
ByLayer
 70
     0
  3

 72
    65
 73
     0
 40
0.0
  0
LTYPE
  5
16
330
5
100
AcDbSymbolTableRecord
100
AcDbLinetypeTableRecord
  2
Continuous
 70
     0
  3
Solid line
 72
    65
 73
     0
 40
0.0
  0
ENDTAB
  0
TABLE
  2
LAYER
  5
2
330
0
100
AcDbSymbolTable
 70
     1
  0
LAYER
  5
10
330
2
100
AcDbSymbolTableRecord
100
AcDbLayerTableRecord
  2
0
 70
     0
 62
    72
  6
Continuous
370
     0
390
F
  0
ENDTAB
  0
TABLE
  2
STYLE
  5
3
330
0
100
AcDbSymbolTable
 70
     3
  0
STYLE
  5
11
330
3
100
AcDbSymbolTableRecord
100
AcDbTextStyleTableRecord
  2
Standard
 70
     0
 40
0.0
 41
1.0
 50
0.0
 71
     0
 42
2.5
  3
txt
  4

  0
STYLE
  5
3B
330
3
100
AcDbSymbolTableRecord
100
AcDbTextStyleTableRecord
  2
Default
 70
     0
 40
0.0
 41
1.0
 50
0.0
 71
     0
 42
0.2
  3

  4

1001
ACAD
1000
txt
1071
        0
  0
STYLE
  5
3C
330
3
100
AcDbSymbolTableRecord
100
AcDbTextStyleTableRecord
  2
ISO
 70
     0
 40
0.0
 41
1.0
 50
0.0
 71
     0
 42
0.2
  3

  4

1001
ACAD
1000
txt
1071
        0
  0
ENDTAB
  0
TABLE
  2
VIEW
  5
6
330
0
100
AcDbSymbolTable
 70
     0
  0
ENDTAB
  0
TABLE
  2
UCS
  5
7
330
0
100
AcDbSymbolTable
 70
     0
  0
ENDTAB
  0
TABLE
  2
APPID
  5
9
330
0
100
AcDbSymbolTable
 70
     1
  0
APPID
  5
12
330
9
100
AcDbSymbolTableRecord
100
AcDbRegAppTableRecord
  2
ACAD
 70
     0
  0
ENDTAB
  0
TABLE
  2
DIMSTYLE
  5
A
330
0
100
AcDbSymbolTable
 70
     3
100
AcDbDimStyleTable
  0
DIMSTYLE
105
27
330
A
100
AcDbSymbolTableRecord
100
AcDbDimStyleTableRecord
  2
ISO-25
 70
     0
 41
2.5
 42
0.625
 43
3.75
 44
1.25
 73
     0
 74
     0
 77
     1
 78
     8
140
2.5
141
2.5
143
0.039
147
0.625
171
     3
172
     1
271
     2
272
     2
274
     3
278
    44
283
     0
284
     8
340
11
  0
DIMSTYLE
105
3D
330
A
100
AcDbSymbolTableRecord
100
AcDbDimStyleTableRecord
  2
Default
 70
     0
  3
<>
 41
4.375
 42
1.05
 44
2.1
 73
     0
 74
     0
 77
     1
 78
     8
140
3.5
146
0.4
147
1.75
178
    12
271
     2
272
     3
284
     8
340
3B
341
3E
342
3E
  0
DIMSTYLE
105
45
330
A
100
AcDbSymbolTableRecord
100
AcDbDimStyleTableRecord
  2
ISO
 70
     0
  3
<>
 41
4.375
 42
1.05
 44
2.1
 73
     0
 74
     0
 77
     1
 78
     8
140
3.5
146
0.4
147
1.75
178
    12
271
     2
272
     3
284
     8
340
3C
341
3E
342
3E
  0
ENDTAB
  0
TABLE
  2
BLOCK_RECORD
  5
1
330
0
100
AcDbSymbolTable
 70
     5
  0
BLOCK_RECORD
  5
1F
330
1
100
AcDbSymbolTableRecord
100
AcDbBlockTableRecord
  2
*Model_Space
340
22
  0
BLOCK_RECORD
  5
1B
330
1
100
AcDbSymbolTableRecord
100
AcDbBlockTableRecord
  2
*Paper_Space
340
1E
  0
BLOCK_RECORD
  5
23
330
1
100
AcDbSymbolTableRecord
100
AcDbBlockTableRecord
  2
*Paper_Space0
340
26
  0
BLOCK_RECORD
  5
3E
330
1
100
AcDbSymbolTableRecord
100
AcDbBlockTableRecord
  2
_CLOSED
340
0
  0
BLOCK_RECORD
  5
46
330
1
100
AcDbSymbolTableRecord
100
AcDbBlockTableRecord
  2
a
340
0
102
{BLKREFS
331
62
102
}
  0
BLOCK_RECORD
  5
63
330
1
100
AcDbSymbolTableRecord
100
AcDbBlockTableRecord
  2
b
340
0
102
{BLKREFS
331
9B
102
}
  0
BLOCK_RECORD
  5
9C
330
1
100
AcDbSymbolTableRecord
100
AcDbBlockTableRecord
  2
c
340
0
102
{BLKREFS
331
E4
102
}
  0
ENDTAB
  0
ENDSEC
  0
SECTION
  2
BLOCKS
  0
BLOCK
  5
20
330
1F
100
AcDbEntity
  8
0
100
AcDbBlockBegin
  2
*Model_Space
 70
     0
 10
0.0
 20
0.0
 30
0.0
  3
*Model_Space
  1

  0
ENDBLK
  5
21
330
1F
100
AcDbEntity
  8
0
100
AcDbBlockEnd
  0
BLOCK
  5
1C
330
1B
100
AcDbEntity
 67
     1
  8
0
100
AcDbBlockBegin
  2
*Paper_Space
 70
     0
 10
0.0
 20
0.0
 30
0.0
  3
*Paper_Space
  1

  0
ENDBLK
  5
1D
330
1B
100
AcDbEntity
 67
     1
  8
0
100
AcDbBlockEnd
  0
BLOCK
  5
24
330
23
100
AcDbEntity
  8
0
100
AcDbBlockBegin
  2
*Paper_Space0
 70
     0
 10
0.0
 20
0.0
 30
0.0
  3
*Paper_Space0
  1

  0
ENDBLK
  5
25
330
23
100
AcDbEntity
  8
0
100
AcDbBlockEnd
  0
BLOCK
  5
3F
330
3E
100
AcDbEntity
  8
0
100
AcDbBlockBegin
  2
_CLOSED
 70
     0
 10
0.0
 20
0.0
 30
0.0
  3
_CLOSED
  1

  0
LINE
  5
41
330
3E
100
AcDbEntity
  8
0
  6
ByBlock
 62
     0
370
    -2
100
AcDbLine
 10
-1.0
 20
0.167
 30
0.0
 11
0.0
 21
0.0
 31
0.0
  0
LINE
  5
42
330
3E
100
AcDbEntity
  8
0
  6
ByBlock
 62
     0
370
    -2
100
AcDbLine
 10
0.0
 20
0.0
 30
0.0
 11
-1.0
 21
-0.167
 31
0.0
  0
LINE
  5
43
330
3E
100
AcDbEntity
  8
0
  6
ByBlock
 62
     0
370
    -2
100
AcDbLine
 10
-1.0
 20
0.167
 30
0.0
 11
-1.0
 21
-0.167
 31
0.0
  0
LINE
  5
44
330
3E
100
AcDbEntity
  8
0
  6
ByBlock
 62
     0
370
    -2
100
AcDbLine
 10
0.0
 20
0.0
 30
0.0
 11
-1.0
 21
0.0
 31
0.0
  0
ENDBLK
  5
40
330
3E
100
AcDbEntity
  8
0
100
AcDbBlockEnd
  0
BLOCK
  5
60
330
46
100
AcDbEntity
  8
0
100
AcDbBlockBegin
  2
a
 70
     0
 10
10.547
 20
6.006
 30
0.0
  3
a
  1

  0
CIRCLE
  5
47
330
46
100
AcDbEntity
  8
0
  6
Continuous
 62
     0
370
     0
100
AcDbCircle
 10
26.147
 20
21.606
 30
0.0
 40
13.0
  0
SPLINE
  5
48
330
46
100
AcDbEntity
  8
0
  6
Continuous
 62
     0
370
    30
100
AcDbSpline
210
0.0
220
0.0
230
1.0
 70
     8
 71
     3
 72
    15
 73
    11
 74
     0
 42
0.0
 43
0.0
 40
0.0
 40
0.0
 40
0.0
 40
0.0
 40
0.6619996057529709
 40
1.268341474061093
 40
1.732847607160499
 40
2.16196413708554
 40
2.526235038615164
 40
2.982164439674535
 40
3.531264570004079
 40
3.875554419605522
 40
3.875554419605522
 40
3.875554419605522
 40
3.875554419605522
 10
39.84105424601472
 20
21.60628986358643
 30
0.0
 10
39.84105424601472
 20
21.38598787799636
 30
0.0
 10
39.87899552296845
 20
20.96260952706174
 30
0.0
 10
40.02724698324897
 20
20.40739082655291
 30
0.0
 10
40.21611255263913
 20
19.96401276953841
 30
0.0
 10
40.40279828706755
 20
19.63527709888194
 30
0.0
 10
40.59241312387225
 20
19.36268222638552
 30
0.0
 10
40.77846375859116
 20
19.1383679745611
 30
0.0
 10
40.89580589904347
 20
19.01690991885705
 30
0.0
 10
40.91798118562883
 20
18.99472611200049
 30
0.0
 10
40.91798118562883
 20
18.99472611200049
 30
0.0
  0
SPLINE
  5
49
330
46
100
AcDbEntity
  8
0
  6
Continuous
 62
     0
370
    30
100
AcDbSpline
210
0.0
220
0.0
230
1.0
 70
     8
 71
     3
 72
    15
 73
    11
 74
     0
 42
0.0
 43
0.0
 40
0.0
 40
0.0
 40
0.0
 40
0.0
 40
0.3442898496014666
 40
0.8933899799310185
 40
1.34931938099038
 40
1.713590282519995
 40
2.142706812445005
 40
2.607212945544449
 40
3.213554813852568
 40
3.87555441960553
 40
3.87555441960553
 40
3.87555441960553
 40
3.87555441960553
 10
40.91798118562883
 20
24.21785361517236
 30
0.0
 10
40.91798118562883
 20
24.21785361517236
 30
0.0
 10
40.89580589904348
 20
24.1956698083158
 30
0.0
 10
40.77846375859119
 20
24.07421175261176
 30
0.0
 10
40.59241312387222
 20
23.84989750078731
 30
0.0
 10
40.40279828706754
 20
23.57730262829091
 30
0.0
 10
40.21611255263915
 20
23.24856695763444
 30
0.0
 10
40.02724698324896
 20
22.80518890061992
 30
0.0
 10
39.87899552296844
 20
22.24997020011112
 30
0.0
 10
39.84105424601472
 20
21.82659184917648
 30
0.0
 10
39.84105424601472
 20
21.60628986358643
 30
0.0
  0
ARC
  5
4A
330
46
100
AcDbEntity
  8
0
  6
Continuous
 62
     0
370
    30
100
AcDbCircle
 10
26.147
 20
21.606
 30
0.0
 40
15.0
100
AcDbArc
 50
10.027
 51
22.701
  0
ARC
  5
4B
330
46
100
AcDbEntity
  8
0
  6
Continuous
 62
     0
370
    30
100
AcDbCircle
 10
26.147
 20
21.606
 30
0.0
 40
15.0
100
AcDbArc
 50
42.754
 51
55.428
  0
ARC
  5
4C
330
46
100
AcDbEntity
  8
0
  6
Continuous
 62
     0
370
    30
100
AcDbCircle
 10
26.147
 20
21.606
 30
0.0
 40
15.0
100
AcDbArc
 50
75.481
 51
88.155
  0
ARC
  5
4D
330
46
100
AcDbEntity
  8
0
  6
Continuous
 62
     0
370
    30
100
AcDbCircle
 10
26.147
 20
21.606
 30
0.0
 40
15.0
100
AcDbArc
 50
108.208
 51
120.883
  0
ARC
  5
4E
330
46
100
AcDbEntity
  8
0
  6
Continuous
 62
     0
370
    30
100
AcDbCircle
 10
26.147
 20
21.606
 30
0.0
 40
15.0
100
AcDbArc
 50
140.936
 51
153.61
  0
ARC
  5
4F
330
46
100
AcDbEntity
  8
0
  6
Continuous
 62
     0
370
    30
100
AcDbCircle
 10
26.147
 20
21.606
 30
0.0
 40
15.0
100
AcDbArc
 50
173.663
 51
186.337
  0
ARC
  5
50
330
46
100
AcDbEntity
  8
0
  6
Continuous
 62
     0
370
    30
100
AcDbCircle
 10
26.147
 20
21.606
 30
0.0
 40
15.0
100
AcDbArc
 50
206.39
 51
219.064
  0
ARC
  5
51
330
46
100
AcDbEntity
  8
0
  6
Continuous
 62
     0
370
    30
100
AcDbCircle
 10
26.147
 20
21.606
 30
0.0
 40
15.0
100
AcDbArc
 50
239.117
 51
251.792
  0
ARC
  5
52
330
46
100
AcDbEntity
  8
0
  6
Continuous
 62
     0
370
    30
100
AcDbCircle
 10
26.147
 20
21.606
 30
0.0
 40
15.0
100
AcDbArc
 50
271.845
 51
284.519
  0
ARC
  5
53
330
46
100
AcDbEntity
  8
0
  6
Continuous
 62
     0
370
    30
100
AcDbCircle
 10
26.147
 20
21.606
 30
0.0
 40
15.0
100
AcDbArc
 50
304.572
 51
317.246
  0
ARC
  5
54
330
46
100
AcDbEntity
  8
0
  6
Continuous
 62
     0
370
    30
100
AcDbCircle
 10
26.147
 20
21.606
 30
0.0
 40
15.0
100
AcDbArc
 50
337.299
 51
349.973
  0
SPLINE
  5
55
330
46
100
AcDbEntity
  8
0
  6
Continuous
 62
     0
370
    30
100
AcDbSpline
210
0.0
220
0.0
230
1.0
 70
     8
 71
     3
 72
    23
 73
    19
 74
     0
 42
0.0
 43
0.0
 40
0.0
 40
0.0
 40
0.0
 40
0.0
 40
0.3272101300962191
 40
0.8865758289736697
 40
1.33536734587492
 40
1.673984426771012
 40
2.200227040267084
 40
2.764908836031083
 40
3.278203970736751
 40
3.95756555125876
 40
4.647581944190122
 40
5.183530552735045
 40
5.661164851905375
 40
6.205228636610077
 40
6.482725803799315
 40
6.930127592519493
 40
7.416761489628878
 40
7.751108947127835
 40
7.751108947127835
 40
7.751108947127835
 40
7.751108947127835
 10
39.98506962276929
 20
15.81752110735748
 30
0.0
 10
39.98506962276929
 20
15.81752110735748
 30
0.0
 10
39.95619103750725
 20
15.81120759168569
 30
0.0
 10
39.79633928342764
 20
15.77385191630975
 30
0.0
 10
39.5251652717356
 20
15.68827779883252
 30
0.0
 10
39.20567377989022
 20
15.55825133851742
 30
0.0
 10
38.82287326086544
 20
15.35727915372006
 30
0.0
 10
38.399904813934
 20
15.05239678993512
 30
0.0
 10
37.98068752649721
 20
14.64663384550559
 30
0.0
 10
37.60360951445894
 20
14.14126006341821
 30
0.0
 10
37.32299838323596
 20
13.56855383345841
 30
0.0
 10
37.16171523349591
 20
13.02905913878296
 30
0.0
 10
37.08406939559428
 20
12.53679585176662
 30
0.0
 10
37.07438231902572
 20
12.15437145711036
 30
0.0
 10
37.09380822033552
 20
11.83696705705704
 30
0.0
 10
37.12620839646902
 20
11.5961503377503
 30
0.0
 10
37.15527676034728
 20
11.45092563799255
 30
0.0
 10
37.16123369977963
 20
11.42354664288645
 30
0.0
 10
37.16123369977963
 20
11.42354664288645
 30
0.0
  0
SPLINE
  5
56
330
46
100
AcDbEntity
  8
0
  6
Continuous
 62
     0
370
    30
100
AcDbSpline
210
0.0
220
0.0
230
1.0
 70
     8
 71
     3
 72
    23
 73
    19
 74
     0
 42
0.0
 43
0.0
 40
0.0
 40
0.0
 40
0.0
 40
0.0
 40
0.3272101300963995
 40
0.8865758289743673
 40
1.335367345875587
 40
1.673984426771709
 40
2.200227040488937
 40
2.764908836384631
 40
3.278203970734932
 40
3.957565552277428
 40
4.647581945507446
 40
5.18353055423835
 40
5.661164853430665
 40
6.205228637951895
 40
6.482725805034244
 40
6.930127593660354
 40
7.416761490746727
 40
7.751108947122744
 40
7.751108947122744
 40
7.751108947122744
 40
7.751108947122744
 10
34.65869184077076
 20
9.255081778159763
 30
0.0
 10
34.65869184077076
 20
9.255081778159763
 30
0.0
 10
34.63098428462187
 20
9.265383452739279
 30
0.0
 10
34.47631242890213
 20
9.320380241855332
 30
0.0
 10
34.20192147272502
 20
9.394998452562717
 30
0.0
 10
33.8628505146571
 20
9.458343374792939
 30
0.0
 10
33.43216445920802
 20
9.49623239986198
 30
0.0
 10
32.91150890859078
 20
9.468423041091732
 30
0.0
 10
32.33946887429971
 20
9.353719507493885
 30
0.0
 10
31.74902496956372
 20
9.132435792385209
 30
0.0
 10
31.20333149941969
 20
8.80235448409534
 30
0.0
 10
30.77597862720268
 20
8.435698919917066
 30
0.0
 10
30.44452116605547
 20
8.063559199825022
 30
0.0
 10
30.22961764156226
 20
7.747080555884551
 30
0.0
 10
30.07435797557747
 20
7.469560548059512
 30
0.0
 10
29.97141939039258
 20
7.249455774701005
 30
0.0
 10
29.91735885397672
 20
7.111569439355691
 30
0.0
 10
29.90756794806946
 20
7.085316198519109
 30
0.0
 10
29.90756794806946
 20
7.085316198519109
 30
0.0
  0
SPLINE
  5
57
330
46
100
AcDbEntity
  8
0
  6
Continuous
 62
     0
370
    30
100
AcDbSpline
210
0.0
220
0.0
230
1.0
 70
     8
 71
     3
 72
    23
 73
    19
 74
     0
 42
0.0
 43
0.0
 40
0.0
 40
0.0
 40
0.0
 40
0.0
 40
0.3272101300961545
 40
0.8865758289734058
 40
1.335367345874672
 40
1.673984426770709
 40
2.200227040487702
 40
2.764908836382976
 40
3.278203970732141
 40
3.957565552273474
 40
4.647581945502379
 40
5.18353055423253
 40
5.661164853424742
 40
6.205228637946656
 40
6.482725805029453
 40
6.930127593655943
 40
7.416761490742394
 40
7.751108947122765
 40
7.751108947122765
 40
7.751108947122765
 40
7.751108947122765
 10
26.62993515103076
 20
6.614063746618918
 30
0.0
 10
26.62993515103076
 20
6.614063746618918
 30
0.0
 10
26.6121955773003
 20
6.637709902558996
 30
0.0
 10
26.51181084127178
 20
6.767598064210745
 30
0.0
 10
26.32132013044503
 20
6.978717848431664
 30
0.0
 10
26.07032233962636
 20
7.21532258798991
 30
0.0
 10
25.728490527425
 20
7.480043325269392
 30
0.0
 10
25.27545233162225
 20
7.738136246456506
 30
0.0
 10
24.73220821968565
 20
7.950909685345529
 30
0.0
 10
24.11586019026315
 20
8.083972053570811
 30
0.0
 10
23.47833820232194
 20
8.101314150630046
 30
0.0
 10
22.92059712486228
 20
8.023908268111128
 30
0.0
 10
22.44056344221025
 20
7.890043846623968
 30
0.0
 10
22.08867382024427
 20
7.739990686499652
 30
0.0
 10
21.80802243383636
 20
7.59046571222116
 30
0.0
 10
21.60242736078951
 20
7.460954594881919
 30
0.0
 10
21.48240176248449
 20
7.374184560742627
 30
0.0
 10
21.45997155471321
 20
7.35739229251358
 30
0.0
 10
21.45997155471321
 20
7.35739229251358
 30
0.0
  0
SPLINE
  5
58
330
46
100
AcDbEntity
  8
0
  6
Continuous
 62
     0
370
    30
100
AcDbSpline
210
0.0
220
0.0
230
1.0
 70
     8
 71
     3
 72
    23
 73
    19
 74
     0
 42
0.0
 43
0.0
 40
0.0
 40
0.0
 40
0.0
 40
0.0
 40
0.3272101300962095
 40
0.8865758289736005
 40
1.335367345874837
 40
1.673984426771006
 40
2.200227040488035
 40
2.764908836383357
 40
3.278203970732847
 40
3.95756555227458
 40
4.647581945503808
 40
5.183530554234145
 40
5.661164853426398
 40
6.205228637948132
 40
6.482725805030789
 40
6.93012759365716
 40
7.416761490743558
 40
7.751108947122744
 40
7.751108947122744
 40
7.751108947122744
 40
7.751108947122744
 10
18.44787307405781
 20
8.73297157720745
 30
0.0
 10
18.44787307405781
 20
8.73297157720745
 30
0.0
 10
18.44573367206323
 20
8.762454727072893
 30
0.0
 10
18.43150750013015
 20
8.925995687681969
 30
0.0
 10
18.38539648939783
 20
9.206588005627474
 30
0.0
 10
18.30216189094742
 20
9.541332229473312
 30
0.0
 10
18.15771350709906
 20
9.948837715304322
 30
0.0
 10
17.91612909226257
 20
10.41089023756919
 30
0.0
 10
17.57415706983971
 20
10.88358658548274
 30
0.0
 10
17.12759106016406
 20
11.3287486753034
 30
0.0
 10
16.60064928108105
 20
11.68800818442762
 30
0.0
 10
16.08959884966193
 20
11.92442780434288
 30
0.0
 10
15.61339624799191
 20
12.07133968944139
 30
0.0
 10
15.23624299719519
 20
12.13535283124798
 30
0.0
 10
14.91930472256195
 20
12.16129601335722
 30
0.0
 10
14.67632814468104
 20
12.1634974167115
 30
0.0
 10
14.52844476388948
 20
12.15539255653114
 30
0.0
 10
14.50049668673765
 20
12.1533926874244
 30
0.0
 10
14.50049668673765
 20
12.1533926874244
 30
0.0
  0
SPLINE
  5
59
330
46
100
AcDbEntity
  8
0
  6
Continuous
 62
     0
370
    30
100
AcDbSpline
210
0.0
220
0.0
230
1.0
 70
     8
 71
     3
 72
    23
 73
    19
 74
     0
 42
0.0
 43
0.0
 40
0.0
 40
0.0
 40
0.0
 40
0.0
 40
0.3272101300962114
 40
0.8865758289736192
 40
1.335367345874823
 40
1.673984426770887
 40
2.200227040487908
 40
2.764908836383246
 40
3.27820397073267
 40
3.957565552274225
 40
4.647581945503352
 40
5.183530554233617
 40
5.661164853425863
 40
6.205228637947648
 40
6.482725805030367
 40
6.930127593656789
 40
7.416761490743237
 40
7.751108947122802
 40
7.751108947122802
 40
7.751108947122802
 40
7.751108947122802
 10
12.71025250760273
 20
14.9390670052008
 30
0.0
 10
12.71025250760273
 20
14.9390670052008
 30
0.0
 10
12.72439252236109
 20
14.96502645722727
 30
0.0
 10
12.80084162359486
 20
15.11029711732544
 30
0.0
 10
12.91375023305972
 20
15.37127589061839
 30
0.0
 10
13.02470522387804
 20
15.69788067287032
 30
0.0
 10
13.12350160963121
 20
16.11879079479756
 30
0.0
 10
13.17007232051773
 20
16.63810450702821
 30
0.0
 10
13.13794608846939
 20
17.22064601341641
 30
0.0
 10
13.00294365132837
 20
17.8365720066794
 30
0.0
 10
12.75388237277018
 20
18.4236865721282
 30
0.0
 10
12.45177748845757
 20
18.89887013561597
 30
0.0
 10
12.1305969291129
 20
19.27991484181145
 30
0.0
 10
11.84792354177559
 20
19.53767056532068
 30
0.0
 10
11.5953240417338
 20
19.73084512680376
 30
0.0
 10
11.39210930570519
 20
19.86406012084093
 30
0.0
 10
11.26332007093387
 20
19.9371936704604
 30
0.0
 10
11.23872744142531
 20
19.95062114478685
 30
0.0
 10
11.23872744142531
 20
19.95062114478685
 30
0.0
  0
SPLINE
  5
5A
330
46
100
AcDbEntity
  8
0
  6
Continuous
 62
     0
370
    30
100
AcDbSpline
210
0.0
220
0.0
230
1.0
 70
     8
 71
     3
 72
    23
 73
    19
 74
     0
 42
0.0
 43
0.0
 40
0.0
 40
0.0
 40
0.0
 40
0.0
 40
0.3272101300961311
 40
0.8865758289732865
 40
1.335367345874512
 40
1.673984426770601
 40
2.200227040487602
 40
2.764908836382852
 40
3.278203970732006
 40
3.957565552273351
 40
4.647581945502254
 40
5.183530554232356
 40
5.661164853424577
 40
6.205228637946531
 40
6.482725805029308
 40
6.930127593655801
 40
7.416761490742269
 40
7.751108947122748
 40
7.751108947122748
 40
7.751108947122748
 40
7.751108947122748
 10
11.23872744142533
 20
23.261958582386
 30
0.0
 10
11.23872744142533
 20
23.261958582386
 30
0.0
 10
11.26465751815932
 20
23.27615239397585
 30
0.0
 10
11.40750984308173
 20
23.35703034541532
 30
0.0
 10
11.64359038701267
 20
23.51553665752304
 30
0.0
 10
11.91350754148542
 20
23.73030728749518
 30
0.0
 10
12.22418154242527
 20
24.03098605581562
 30
0.0
 10
12.54412150738128
 20
24.44268252367397
 30
0.0
 10
12.83204091738955
 20
24.95011637630002
 30
0.0
 10
13.05146437269373
 20
25.54125412206922
 30
0.0
 10
13.15935879081968
 20
26.16981901766567
 30
0.0
 10
13.16211561981179
 20
26.73289910080507
 30
0.0
 10
13.0979296610312
 20
27.22709762621363
 30
0.0
 10
12.99948294035828
 20
27.59676031042643
 30
0.0
 10
12.89142077138857
 20
27.8958346929189
 30
0.0
 10
12.79248712005467
 20
28.1177684582845
 30
0.0
 10
12.72368170336223
 20
28.24892103243693
 30
0.0
 10
12.71025250760273
 20
28.27351272197205
 30
0.0
 10
12.71025250760273
 20
28.27351272197205
 30
0.0
  0
SPLINE
  5
5B
330
46
100
AcDbEntity
  8
0
  6
Continuous
 62
     0
370
    30
100
AcDbSpline
210
0.0
220
0.0
230
1.0
 70
     8
 71
     3
 72
    23
 73
    19
 74
     0
 42
0.0
 43
0.0
 40
0.0
 40
0.0
 40
0.0
 40
0.0
 40
0.3272101300961909
 40
0.8865758289735146
 40
1.335367345874737
 40
1.673984426770882
 40
2.20022704048789
 40
2.764908836383184
 40
3.278203970732492
 40
3.95756555227403
 40
4.647581945503124
 40
5.183530554233342
 40
5.661164853425578
 40
6.205228637947413
 40
6.482725805030114
 40
6.930127593656555
 40
7.416761490743007
 40
7.751108947122761
 40
7.751108947122761
 40
7.751108947122761
 40
7.751108947122761
 10
14.50049668673765
 20
31.05918703974847
 30
0.0
 10
14.50049668673765
 20
31.05918703974847
 30
0.0
 10
14.52998420929751
 20
31.05710877601061
 30
0.0
 10
14.69388515409203
 20
31.04791584066572
 30
0.0
 10
14.97818372785652
 20
31.05362505744621
 30
0.0
 10
15.32136625658211
 20
31.08837337761923
 30
0.0
 10
15.74528107252792
 20
31.17335740788582
 30
0.0
 10
16.23701161326761
 20
31.34672591173535
 30
0.0
 10
16.75356428699621
 20
31.61794544774708
 30
0.0
 10
17.2577482380585
 20
31.99661288852086
 30
0.0
 10
17.68834263745886
 20
32.46706320114075
 30
0.0
 10
17.99508590602929
 20
32.93926585606891
 30
0.0
 10
18.20827313620906
 20
33.38971366071314
 30
0.0
 10
18.32530922042287
 20
33.75391801530336
 30
0.0
 10
18.39609335764231
 20
34.06393821552207
 30
0.0
 10
18.43285152626999
 20
34.30412834982124
 30
0.0
 10
18.44587516130072
 20
34.4516599328926
 30
0.0
 10
18.44787307405781
 20
34.4796081499654
 30
0.0
 10
18.44787307405781
 20
34.4796081499654
 30
0.0
  0
SPLINE
  5
5C
330
46
100
AcDbEntity
  8
0
  6
Continuous
 62
     0
370
    30
100
AcDbSpline
210
0.0
220
0.0
230
1.0
 70
     8
 71
     3
 72
    23
 73
    19
 74
     0
 42
0.0
 43
0.0
 40
0.0
 40
0.0
 40
0.0
 40
0.0
 40
0.3272101300961894
 40
0.8865758289735305
 40
1.335367345874754
 40
1.673984426770833
 40
2.200227040487855
 40
2.764908836383166
 40
3.278203970732478
 40
3.957565552274055
 40
4.647581945503122
 40
5.183530554233364
 40
5.661164853425577
 40
6.205228637947424
 40
6.482725805030148
 40
6.930127593656583
 40
7.416761490743025
 40
7.751108947122786
 40
7.751108947122786
 40
7.751108947122786
 40
7.751108947122786
 10
21.45997155471322
 20
35.85518743465927
 30
0.0
 10
21.45997155471322
 20
35.85518743465927
 30
0.0
 10
21.48365444303499
 20
35.83749692964616
 30
0.0
 10
21.61656661579812
 20
35.74115179953469
 30
0.0
 10
21.85882043098357
 20
35.59225128499949
 30
0.0
 10
22.16631030590347
 20
35.43594494923835
 30
0.0
 10
22.56887597803134
 20
35.27825241230985
 30
0.0
 10
23.07627612227184
 20
35.15824967714154
 30
0.0
 10
23.65746023559876
 20
35.10714461020069
 30
0.0
 10
24.28632984035045
 20
35.1531175090695
 30
0.0
 10
24.90291354165041
 20
35.3160885884989
 30
0.0
 10
25.41625442937251
 20
35.54749280870055
 30
0.0
 10
25.83912940923969
 20
35.81117589731809
 30
0.0
 10
26.1344901685398
 20
36.05428961304845
 30
0.0
 10
26.36164714851807
 20
36.27682640792227
 30
0.0
 10
26.52242667828881
 20
36.45901424061762
 30
0.0
 10
26.6131444529409
 20
36.5760845973913
 30
0.0
 10
26.62993515103076
 20
36.59851598055393
 30
0.0
 10
26.62993515103076
 20
36.59851598055393
 30
0.0
  0
SPLINE
  5
5D
330
46
100
AcDbEntity
  8
0
  6
Continuous
 62
     0
370
    30
100
AcDbSpline
210
0.0
220
0.0
230
1.0
 70
     8
 71
     3
 72
    23
 73
    19
 74
     0
 42
0.0
 43
0.0
 40
0.0
 40
0.0
 40
0.0
 40
0.0
 40
0.3272101300963069
 40
0.8865758289739937
 40
1.335367345875213
 40
1.673984426771359
 40
2.200227040488468
 40
2.764908836383981
 40
3.278203970733891
 40
3.957565552275955
 40
4.647581945505533
 40
5.183530554236162
 40
5.661164853428453
 40
6.205228637949959
 40
6.482725805032471
 40
6.930127593658721
 40
7.416761490745118
 40
7.751108947122773
 40
7.751108947122773
 40
7.751108947122773
 40
7.751108947122773
 10
29.90756794806946
 20
36.12726352865374
 30
0.0
 10
29.90756794806946
 20
36.12726352865374
 30
0.0
 10
29.91792705244632
 20
36.09957739271185
 30
0.0
 10
29.97765177743828
 20
35.94666896590195
 30
0.0
 10
30.10094695940712
 20
35.69043358133506
 30
0.0
 10
30.27511831785398
 20
35.39269874683602
 30
0.0
 10
30.52852308965659
 20
35.04239590898496
 30
0.0
 10
30.89049687671995
 20
34.66712195531574
 30
0.0
 10
31.35179058011499
 20
34.3099177830848
 30
0.0
 10
31.90568418242839
 20
34.0086000694867
 30
0.0
 10
32.51249621703793
 20
33.81234974950561
 30
0.0
 10
33.06945261915374
 20
33.72948633009119
 30
0.0
 10
33.56775553049218
 20
33.72268718514199
 30
0.0
 10
33.94766601071981
 20
33.76752337502776
 30
0.0
 10
34.25907509732775
 20
33.83192290455412
 30
0.0
 10
34.49282962355264
 20
33.8982650860425
 30
0.0
 10
34.63243928535445
 20
33.94770520542228
 30
0.0
 10
34.65869184077077
 20
33.95749794901309
 30
0.0
 10
34.65869184077077
 20
33.95749794901309
 30
0.0
  0
SPLINE
  5
5E
330
46
100
AcDbEntity
  8
0
  6
Continuous
 62
     0
370
    30
100
AcDbSpline
210
0.0
220
0.0
230
1.0
 70
     8
 71
     3
 72
    23
 73
    19
 74
     0
 42
0.0
 43
0.0
 40
0.0
 40
0.0
 40
0.0
 40
0.0
 40
0.3272101300962408
 40
0.8865758289736941
 40
1.335367345874867
 40
1.673984426770998
 40
2.200227040267196
 40
2.764908836386041
 40
3.278203970735518
 40
3.957565551257574
 40
4.647581944188985
 40
5.183530552733911
 40
5.661164851904252
 40
6.205228636608926
 40
6.482725803798155
 40
6.930127592518332
 40
7.416761489627715
 40
7.751108947126452
 40
7.751108947126452
 40
7.751108947126452
 40
7.751108947126452
 10
37.16123369977961
 20
31.78903308428642
 30
0.0
 10
37.16123369977961
 20
31.78903308428642
 30
0.0
 10
37.15498007776577
 20
31.76014146995664
 30
0.0
 10
37.12255517679647
 20
31.59921709156021
 30
0.0
 10
37.08774637643506
 20
31.31699976109238
 30
0.0
 10
37.07330104274173
 20
30.9723651341628
 30
0.0
 10
37.0970906896259
 20
30.54067067135776
 30
0.0
 10
37.19871399969482
 20
30.02927232785416
 30
0.0
 10
37.3936598015851
 20
29.479378851398
 30
0.0
 10
37.69672009605662
 20
28.92643677074196
 30
0.0
 10
38.10110193004081
 20
28.43327314156653
 30
0.0
 10
38.52484412389552
 20
28.06245063264784
 30
0.0
 10
38.94036731314252
 20
27.78732793441033
 30
0.0
 10
39.28420862128723
 20
27.61965142474372
 30
0.0
 10
39.58099963008721
 20
27.50546729313876
 30
0.0
 10
39.81351374257464
 20
27.43490064942304
 30
0.0
 10
39.95769021074844
 20
27.4010136427213
 30
0.0
 10
39.98506962276927
 20
27.39505861981539
 30
0.0
 10
39.98506962276927
 20
27.39505861981539
 30
0.0
  0
CIRCLE
  5
5F
330
46
100
AcDbEntity
  8
0
  6
Continuous
 62
     0
370
    30
100
AcDbCircle
 10
26.147
 20
21.606
 30
0.0
 40
5.580343384734768
  0
ENDBLK
  5
61
330
46
100
AcDbEntity
  8
0
100
AcDbBlockEnd
  0
BLOCK
  5
99
330
63
100
AcDbEntity
  8
0
100
AcDbBlockBegin
  2
b
 70
     0
 10
-46.964
 20
-10.063
 30
0.0
  3
b
  1

  0
LINE
  5
64
330
63
100
AcDbEntity
  8
0
  6
Continuous
 62
     0
370
    30
100
AcDbLine
 10
28.647
 20
50.524
 30
0.0
 11
23.647
 21
50.524
 31
0.0
  0
LINE
  5
65
330
63
100
AcDbEntity
  8
0
  6
Continuous
 62
     0
370
    30
100
AcDbLine
 10
28.647
 20
70.524
 30
0.0
 11
28.647
 21
50.524
 31
0.0
  0
LINE
  5
66
330
63
100
AcDbEntity
  8
0
  6
Continuous
 62
     0
370
    30
100
AcDbLine
 10
23.647
 20
70.524
 30
0.0
 11
23.647
 21
50.524
 31
0.0
  0
LINE
  5
67
330
63
100
AcDbEntity
  8
0
  6
Continuous
 62
     0
370
     0
100
AcDbLine
 10
24.138
 20
70.524
 30
0.0
 11
24.138
 21
50.524
 31
0.0
  0
LINE
  5
68
330
63
100
AcDbEntity
  8
0
  6
Continuous
 62
     0
370
     0
100
AcDbLine
 10
28.157
 20
70.524
 30
0.0
 11
28.157
 21
50.524
 31
0.0
  0
LINE
  5
69
330
63
100
AcDbEntity
  8
0
  6
Continuous
 62
     0
370
    30
100
AcDbLine
 10
13.147
 20
90.524
 30
0.0
 11
39.147
 21
90.524
 31
0.0
  0
LINE
  5
6A
330
63
100
AcDbEntity
  8
0
  6
Continuous
 62
     0
370
    30
100
AcDbLine
 10
13.147
 20
78.024
 30
0.0
 11
39.147
 21
78.024
 31
0.0
  0
ARC
  5
6B
330
63
100
AcDbEntity
  8
0
  6
Continuous
 62
     0
370
    30
100
AcDbCircle
 10
39.147
 20
88.524
 30
0.0
 40
2.0
100
AcDbArc
 50
69.697
 51
90.0
  0
ARC
  5
6C
330
63
100
AcDbEntity
  8
0
  6
Continuous
 62
     0
370
    30
100
AcDbCircle
 10
39.147
 20
80.024
 30
0.0
 40
2.0
100
AcDbArc
 50
270.0
 51
290.303
  0
LINE
  5
6D
330
63
100
AcDbEntity
  8
0
  6
Continuous
 62
     0
370
    30
100
AcDbLine
 10
40.918
 20
80.024
 30
0.0
 11
40.918
 21
88.524
 31
0.0
  0
SPLINE
  5
6E
330
63
100
AcDbEntity
  8
0
  6
Continuous
 62
     0
370
    30
100
AcDbSpline
210
0.0
220
0.0
230
1.0
 70
     8
 71
     3
 72
    15
 73
    11
 74
     0
 42
0.0
 43
0.0
 40
0.0
 40
0.0
 40
0.0
 40
0.0
 40
0.6619996057529709
 40
1.268341474061093
 40
1.732847607160499
 40
2.16196413708554
 40
2.526235038615164
 40
2.982164439674535
 40
3.531264570004079
 40
3.875554419605522
 40
3.875554419605522
 40
3.875554419605522
 40
3.875554419605522
 10
39.84105424601472
 20
90.39942257484569
 30
0.0
 10
39.84105424601472
 20
90.39942258447542
 30
0.0
 10
39.87899552296845
 20
90.3826596137132
 30
0.0
 10
40.02724698324897
 20
90.30062164224938
 30
0.0
 10
40.21611255263913
 20
90.1587645396641
 30
0.0
 10
40.40279828706755
 20
89.97194870056728
 30
0.0
 10
40.59241312387225
 20
89.71699605791903
 30
0.0
 10
40.77846375859116
 20
89.36005655807881
 30
0.0
 10
40.89580589904347
 20
88.9364532628498
 30
0.0
 10
40.91798118562883
 20
88.63824277171392
 30
0.0
 10
40.91798118562883
 20
88.5236855694775
 30
0.0
  0
SPLINE
  5
6F
330
63
100
AcDbEntity
  8
0
  6
Continuous
 62
     0
370
    30
100
AcDbSpline
210
0.0
220
0.0
230
1.0
 70
     8
 71
     3
 72
    15
 73
    11
 74
     0
 42
0.0
 43
0.0
 40
0.0
 40
0.0
 40
0.0
 40
0.0
 40
0.6619996057529707
 40
1.268341474061092
 40
1.732847607160499
 40
2.16196413708554
 40
2.526235038615155
 40
2.982164439674542
 40
3.531264570004058
 40
3.875554419605522
 40
3.875554419605522
 40
3.875554419605522
 40
3.875554419605522
 10
39.84105424601472
 20
78.14794833579916
 30
0.0
 10
39.84105424601472
 20
78.14794834542886
 30
0.0
 10
39.87899552296847
 20
78.16471135320398
 30
0.0
 10
40.02724698324897
 20
78.24674937320654
 30
0.0
 10
40.21611255263913
 20
78.38860651455317
 30
0.0
 10
40.40279828706755
 20
78.57542238238898
 30
0.0
 10
40.59241312387223
 20
78.83037504886823
 30
0.0
 10
40.77846375859116
 20
79.18731456831861
 30
0.0
 10
40.89580589904347
 20
79.61091787416584
 30
0.0
 10
40.91798118562883
 20
79.90912836724107
 30
0.0
 10
40.91798118562883
 20
80.0236855694775
 30
0.0
  0
LINE
  5
70
330
63
100
AcDbEntity
  8
0
  6
Continuous
 62
     0
370
     0
100
AcDbLine
 10
11.147
 20
80.024
 30
0.0
 11
11.239
 21
80.024
 31
0.0
  0
LINE
  5
71
330
63
100
AcDbEntity
  8
0
  6
Continuous
 62
     0
370
     0
100
AcDbLine
 10
12.71
 20
80.024
 30
0.0
 11
14.5
 21
80.024
 31
0.0
  0
LINE
  5
72
330
63
100
AcDbEntity
  8
0
  6
Continuous
 62
     0
370
     0
100
AcDbLine
 10
18.448
 20
80.024
 30
0.0
 11
21.46
 21
80.024
 31
0.0
  0
LINE
  5
73
330
63
100
AcDbEntity
  8
0
  6
Continuous
 62
     0
370
     0
100
AcDbLine
 10
26.63
 20
80.024
 30
0.0
 11
29.908
 21
80.024
 31
0.0
  0
LINE
  5
74
330
63
100
AcDbEntity
  8
0
  6
Continuous
 62
     0
370
     0
100
AcDbLine
 10
34.659
 20
80.024
 30
0.0
 11
37.161
 21
80.024
 31
0.0
  0
LINE
  5
75
330
63
100
AcDbEntity
  8
0
  6
Continuous
 62
     0
370
     0
100
AcDbLine
 10
39.985
 20
80.024
 30
0.0
 11
40.918
 21
80.024
 31
0.0
  0
LINE
  5
76
330
63
100
AcDbEntity
  8
0
  6
Continuous
 62
     0
370
     0
100
AcDbLine
 10
11.147
 20
88.524
 30
0.0
 11
11.239
 21
88.524
 31
0.0
  0
LINE
  5
77
330
63
100
AcDbEntity
  8
0
  6
Continuous
 62
     0
370
     0
100
AcDbLine
 10
12.71
 20
88.524
 30
0.0
 11
14.5
 21
88.524
 31
0.0
  0
LINE
  5
78
330
63
100
AcDbEntity
  8
0
  6
Continuous
 62
     0
370
     0
100
AcDbLine
 10
18.448
 20
88.524
 30
0.0
 11
21.46
 21
88.524
 31
0.0
  0
LINE
  5
79
330
63
100
AcDbEntity
  8
0
  6
Continuous
 62
     0
370
     0
100
AcDbLine
 10
26.63
 20
88.524
 30
0.0
 11
29.908
 21
88.524
 31
0.0
  0
LINE
  5
7A
330
63
100
AcDbEntity
  8
0
  6
Continuous
 62
     0
370
     0
100
AcDbLine
 10
34.659
 20
88.524
 30
0.0
 11
37.161
 21
88.524
 31
0.0
  0
LINE
  5
7B
330
63
100
AcDbEntity
  8
0
  6
Continuous
 62
     0
370
     0
100
AcDbLine
 10
39.985
 20
88.524
 30
0.0
 11
40.918
 21
88.524
 31
0.0
  0
LINE
  5
7C
330
63
100
AcDbEntity
  8
0
  6
Continuous
 62
     0
370
    30
100
AcDbLine
 10
39.985
 20
88.524
 30
0.0
 11
39.985
 21
80.024
 31
0.0
  0
LINE
  5
7D
330
63
100
AcDbEntity
  8
0
  6
Continuous
 62
     0
370
    30
100
AcDbLine
 10
37.161
 20
80.024
 30
0.0
 11
37.161
 21
88.524
 31
0.0
  0
LINE
  5
7E
330
63
100
AcDbEntity
  8
0
  6
Continuous
 62
     0
370
    30
100
AcDbLine
 10
34.659
 20
88.524
 30
0.0
 11
34.659
 21
80.024
 31
0.0
  0
LINE
  5
7F
330
63
100
AcDbEntity
  8
0
  6
Continuous
 62
     0
370
    30
100
AcDbLine
 10
29.908
 20
80.024
 30
0.0
 11
29.908
 21
88.524
 31
0.0
  0
LINE
  5
80
330
63
100
AcDbEntity
  8
0
  6
Continuous
 62
     0
370
    30
100
AcDbLine
 10
26.63
 20
88.524
 30
0.0
 11
26.63
 21
80.024
 31
0.0
  0
LINE
  5
81
330
63
100
AcDbEntity
  8
0
  6
Continuous
 62
     0
370
    30
100
AcDbLine
 10
21.46
 20
80.024
 30
0.0
 11
21.46
 21
88.524
 31
0.0
  0
LINE
  5
82
330
63
100
AcDbEntity
  8
0
  6
Continuous
 62
     0
370
    30
100
AcDbLine
 10
18.448
 20
88.524
 30
0.0
 11
18.448
 21
80.024
 31
0.0
  0
LINE
  5
83
330
63
100
AcDbEntity
  8
0
  6
Continuous
 62
     0
370
    30
100
AcDbLine
 10
14.5
 20
80.024
 30
0.0
 11
14.5
 21
88.524
 31
0.0
  0
LINE
  5
84
330
63
100
AcDbEntity
  8
0
  6
Continuous
 62
     0
370
    30
100
AcDbLine
 10
12.71
 20
88.524
 30
0.0
 11
12.71
 21
80.024
 31
0.0
  0
LINE
  5
85
330
63
100
AcDbEntity
  8
0
  6
Continuous
 62
     0
370
    30
100
AcDbLine
 10
11.239
 20
80.024
 30
0.0
 11
11.239
 21
88.524
 31
0.0
  0
SPLINE
  5
86
330
63
100
AcDbEntity
  8
0
  6
Continuous
 62
     0
370
    30
100
AcDbSpline
210
0.0
220
0.0
230
1.0
 70
     8
 71
     3
 72
    23
 73
    19
 74
     0
 42
0.0
 43
0.0
 40
0.0
 40
0.0
 40
0.0
 40
0.0
 40
0.3272101300962191
 40
0.8865758289736697
 40
1.33536734587492
 40
1.673984426771012
 40
2.200227040267084
 40
2.764908836031083
 40
3.278203970736751
 40
3.95756555125876
 40
4.647581944190122
 40
5.183530552735045
 40
5.661164851905375
 40
6.205228636610077
 40
6.482725803799315
 40
6.930127592519493
 40
7.416761489628878
 40
7.751108947127835
 40
7.751108947127835
 40
7.751108947127835
 40
7.751108947127835
 10
39.98506962276929
 20
88.52368570835753
 30
0.0
 10
39.98506962276929
 20
88.63257889636785
 30
0.0
 10
39.95619103750725
 20
88.92847420035483
 30
0.0
 10
39.79633928342764
 20
89.34914856988729
 30
0.0
 10
39.5251652717356
 20
89.70186951156685
 30
0.0
 10
39.20567377989022
 20
89.97498710298206
 30
0.0
 10
38.82287326086544
 20
90.18482963285206
 30
0.0
 10
38.399904813934
 20
90.3177048973923
 30
0.0
 10
37.98068752649721
 20
90.38935062856666
 30
0.0
 10
37.60360951445894
 20
90.40829755800104
 30
0.0
 10
37.32299838323596
 20
90.37549457000065
 30
0.0
 10
37.16171523349591
 20
90.28484752179367
 30
0.0
 10
37.08406939559428
 20
90.13012764589024
 30
0.0
 10
37.07438231902572
 20
89.91823291372413
 30
0.0
 10
37.09380822033552
 20
89.63709363581626
 30
0.0
 10
37.12620839646902
 20
89.30989949086353
 30
0.0
 10
37.15527676034728
 20
88.90895391637883
 30
0.0
 10
37.16123369977963
 20
88.63494662479721
 30
0.0
 10
37.16123369977963
 20
88.52368590042425
 30
0.0
  0
SPLINE
  5
87
330
63
100
AcDbEntity
  8
0
  6
Continuous
 62
     0
370
    30
100
AcDbSpline
210
0.0
220
0.0
230
1.0
 70
     8
 71
     3
 72
    23
 73
    19
 74
     0
 42
0.0
 43
0.0
 40
0.0
 40
0.0
 40
0.0
 40
0.0
 40
0.3272101300963995
 40
0.8865758289743673
 40
1.335367345875587
 40
1.673984426771709
 40
2.200227040488937
 40
2.764908836384631
 40
3.278203970734932
 40
3.957565552277428
 40
4.647581945507446
 40
5.18353055423835
 40
5.661164853430665
 40
6.205228637951895
 40
6.482725805034244
 40
6.930127593660354
 40
7.416761490746727
 40
7.751108947122744
 40
7.751108947122744
 40
7.751108947122744
 40
7.751108947122744
 10
34.65869184077076
 20
88.52368599521088
 30
0.0
 10
34.65869184077076
 20
88.63257918322125
 30
0.0
 10
34.63098428462187
 20
88.92847448648183
 30
0.0
 10
34.47631242890213
 20
89.34914885197989
 30
0.0
 10
34.20192147272502
 20
89.70186978665032
 30
0.0
 10
33.8628505146571
 20
89.97498736968069
 30
0.0
 10
33.43216445920802
 20
90.18482988901496
 30
0.0
 10
32.91150890859078
 20
90.31770514142616
 30
0.0
 10
32.33946887429971
 20
90.38935085999955
 30
0.0
 10
31.74902496956372
 20
90.40829777694464
 30
0.0
 10
31.20333149941969
 20
90.37549477822768
 30
0.0
 10
30.77597862720268
 20
90.28484772226295
 30
0.0
 10
30.44452116605547
 20
90.13012784085129
 30
0.0
 10
30.22961764156226
 20
89.91823310558345
 30
0.0
 10
30.07435797557747
 20
89.63709382578901
 30
0.0
 10
29.97141939039258
 20
89.30989967981807
 30
0.0
 10
29.91735885397672
 20
88.90895410530098
 30
0.0
 10
29.90756794806946
 20
88.63494681405493
 30
0.0
 10
29.90756794806946
 20
88.52368609005433
 30
0.0
  0
SPLINE
  5
88
330
63
100
AcDbEntity
  8
0
  6
Continuous
 62
     0
370
    30
100
AcDbSpline
210
0.0
220
0.0
230
1.0
 70
     8
 71
     3
 72
    23
 73
    19
 74
     0
 42
0.0
 43
0.0
 40
0.0
 40
0.0
 40
0.0
 40
0.0
 40
0.3272101300961545
 40
0.8865758289734058
 40
1.335367345874672
 40
1.673984426770709
 40
2.200227040487702
 40
2.764908836382976
 40
3.278203970732141
 40
3.957565552273474
 40
4.647581945502379
 40
5.18353055423253
 40
5.661164853424742
 40
6.205228637946656
 40
6.482725805029453
 40
6.930127593655943
 40
7.416761490742394
 40
7.751108947122765
 40
7.751108947122765
 40
7.751108947122765
 40
7.751108947122765
 10
26.62993515103076
 20
88.52368611065344
 30
0.0
 10
26.62993515103076
 20
88.63257929866376
 30
0.0
 10
26.6121955773003
 20
88.9284746013407
 30
0.0
 10
26.51181084127178
 20
89.34914896356489
 30
0.0
 10
26.32132013044503
 20
89.7018698922686
 30
0.0
 10
26.07032233962636
 20
89.97498746772567
 30
0.0
 10
25.728490527425
 20
90.18482997714494
 30
0.0
 10
25.27545233162225
 20
90.31770521705903
 30
0.0
 10
24.73220821968565
 20
90.38935092131808
 30
0.0
 10
24.11586019026315
 20
90.40829782277447
 30
0.0
 10
23.47833820232194
 20
90.37549480887157
 30
0.0
 10
22.92059712486228
 20
90.2848477402641
 30
0.0
 10
22.44056344221025
 20
90.1301278484381
 30
0.0
 10
22.08867382024427
 20
89.91823310589643
 30
0.0
 10
21.80802243383636
 20
89.63709382050772
 30
0.0
 10
21.60242736078951
 20
89.30989967057718
 30
0.0
 10
21.48240176248449
 20
88.90895409382463
 30
0.0
 10
21.45997155471321
 20
88.63494680216357
 30
0.0
 10
21.45997155471321
 20
88.52368607816152
 30
0.0
  0
SPLINE
  5
89
330
63
100
AcDbEntity
  8
0
  6
Continuous
 62
     0
370
    30
100
AcDbSpline
210
0.0
220
0.0
230
1.0
 70
     8
 71
     3
 72
    23
 73
    19
 74
     0
 42
0.0
 43
0.0
 40
0.0
 40
0.0
 40
0.0
 40
0.0
 40
0.3272101300962095
 40
0.8865758289736005
 40
1.335367345874837
 40
1.673984426771006
 40
2.200227040488035
 40
2.764908836383357
 40
3.278203970732847
 40
3.95756555227458
 40
4.647581945503808
 40
5.183530554234145
 40
5.661164853426398
 40
6.205228637948132
 40
6.482725805030789
 40
6.93012759365716
 40
7.416761490743558
 40
7.751108947122744
 40
7.751108947122744
 40
7.751108947122744
 40
7.751108947122744
 10
18.44787307405781
 20
88.52368601803303
 30
0.0
 10
18.44787307405781
 20
88.63257920604335
 30
0.0
 10
18.44573367206323
 20
88.9284745084652
 30
0.0
 10
18.43150750013015
 20
89.34914886921845
 30
0.0
 10
18.38539648939783
 20
89.70186979488548
 30
0.0
 10
18.30216189094742
 20
89.97498736605269
 30
0.0
 10
18.15771350709906
 20
90.18482986923061
 30
0.0
 10
17.91612909226257
 20
90.31770510022935
 30
0.0
 10
17.57415706983971
 20
90.38935079312677
 30
0.0
 10
17.12759106016406
 20
90.40829768094079
 30
0.0
 10
16.60064928108105
 20
90.37549465209202
 30
0.0
 10
16.08959884966193
 20
90.28484756976664
 30
0.0
 10
15.61339624799191
 20
90.13012766566723
 30
0.0
 10
15.23624299719519
 20
89.91823291376815
 30
0.0
 10
14.91930472256195
 20
89.63709362070935
 30
0.0
 10
14.67632814468104
 20
89.3098994650214
 30
0.0
 10
14.52844476388948
 20
88.9089538848306
 30
0.0
 10
14.50049668673765
 20
88.63494659252333
 30
0.0
 10
14.50049668673765
 20
88.52368586852168
 30
0.0
  0
SPLINE
  5
8A
330
63
100
AcDbEntity
  8
0
  6
Continuous
 62
     0
370
    30
100
AcDbSpline
210
0.0
220
0.0
230
1.0
 70
     8
 71
     3
 72
    23
 73
    19
 74
     0
 42
0.0
 43
0.0
 40
0.0
 40
0.0
 40
0.0
 40
0.0
 40
0.3272101300962114
 40
0.8865758289736192
 40
1.335367345874823
 40
1.673984426770887
 40
2.200227040487908
 40
2.764908836383246
 40
3.27820397073267
 40
3.957565552274225
 40
4.647581945503352
 40
5.183530554233617
 40
5.661164853425863
 40
6.205228637947648
 40
6.482725805030367
 40
6.930127593656789
 40
7.416761490743237
 40
7.751108947122802
 40
7.751108947122802
 40
7.751108947122802
 40
7.751108947122802
 10
12.71025250760273
 20
88.52368574675597
 30
0.0
 10
12.71025250760273
 20
88.63257893476629
 30
0.0
 10
12.72439252236109
 20
88.92847423734221
 30
0.0
 10
12.80084162359486
 20
89.34914859889409
 30
0.0
 10
12.91375023305972
 20
89.70186952541837
 30
0.0
 10
13.02470522387804
 20
89.97498709694136
 30
0.0
 10
13.12350160963121
 20
90.18482959953337
 30
0.0
 10
13.17007232051773
 20
90.3177048280291
 30
0.0
 10
13.13794608846939
 20
90.38935051612506
 30
0.0
 10
13.00294365132837
 20
90.40829739647478
 30
0.0
 10
12.75388237277018
 20
90.37549435766624
 30
0.0
 10
12.45177748845757
 20
90.28484726490422
 30
0.0
 10
12.1305969291129
 20
90.13012735057063
 30
0.0
 10
11.84792354177559
 20
89.91823259020288
 30
0.0
 10
11.5953240417338
 20
89.63709328983421
 30
0.0
 10
11.39210930570519
 20
89.30989912841946
 30
0.0
 10
11.26332007093387
 20
88.90895354467756
 30
0.0
 10
11.23872744142531
 20
88.63494625169577
 30
0.0
 10
11.23872744142531
 20
88.523685527694
 30
0.0
  0
SPLINE
  5
8B
330
63
100
AcDbEntity
  8
0
  6
Continuous
 62
     0
370
    30
100
AcDbSpline
210
0.0
220
0.0
230
1.0
 70
     8
 71
     3
 72
    23
 73
    19
 74
     0
 42
0.0
 43
0.0
 40
0.0
 40
0.0
 40
0.0
 40
0.0
 40
0.3272101300962209
 40
0.8865758289736718
 40
1.335367345874914
 40
1.673984426770991
 40
2.200227040267181
 40
2.764908836031204
 40
3.278203970736851
 40
3.957565551258889
 40
4.647581944190295
 40
5.18353055273522
 40
5.661164851905535
 40
6.205228636610255
 40
6.48272580379948
 40
6.93012759251963
 40
7.416761489628995
 40
7.75110894712783
 40
7.75110894712783
 40
7.75110894712783
 40
7.75110894712783
 10
39.98506962276929
 20
80.02368570835756
 30
0.0
 10
39.98506962276929
 20
79.91479252034725
 30
0.0
 10
39.95619103750728
 20
79.61889721691219
 30
0.0
 10
39.79633928342767
 20
79.1982228506455
 30
0.0
 10
39.5251652717356
 20
78.84550191644706
 30
0.0
 10
39.2056737798902
 20
78.57238433639907
 30
0.0
 10
38.82287326086536
 20
78.36254182409866
 30
0.0
 10
38.39990481393393
 20
78.22966658621203
 30
0.0
 10
37.98068752649712
 20
78.15802089051061
 30
0.0
 10
37.60360951445887
 20
78.13907400525744
 30
0.0
 10
37.3229983832359
 20
78.1718770433254
 30
0.0
 10
37.16171523349587
 20
78.26252413869656
 30
0.0
 10
37.08406939559426
 20
78.417244057635
 30
0.0
 10
37.0743823190257
 20
78.6291388232338
 30
0.0
 10
37.09380822033552
 20
78.91027812889001
 30
0.0
 10
37.12620839646902
 20
79.23747229489564
 30
0.0
 10
37.15527676034728
 20
79.6384178820762
 30
0.0
 10
37.16123369977963
 20
79.91242517605136
 30
0.0
 10
37.16123369977963
 20
80.02368590042428
 30
0.0
  0
SPLINE
  5
8C
330
63
100
AcDbEntity
  8
0
  6
Continuous
 62
     0
370
    30
100
AcDbSpline
210
0.0
220
0.0
230
1.0
 70
     8
 71
     3
 72
    23
 73
    19
 74
     0
 42
0.0
 43
0.0
 40
0.0
 40
0.0
 40
0.0
 40
0.0
 40
0.3272101300963995
 40
0.8865758289743684
 40
1.335367345875606
 40
1.673984426771775
 40
2.20022704048891
 40
2.764908836384567
 40
3.278203970734925
 40
3.957565552277429
 40
4.647581945507405
 40
5.183530554238329
 40
5.661164853430654
 40
6.205228637951858
 40
6.482725805034247
 40
6.930127593660371
 40
7.416761490746712
 40
7.751108947122747
 40
7.751108947122747
 40
7.751108947122747
 40
7.751108947122747
 10
34.65869184077076
 20
80.02368599521088
 30
0.0
 10
34.65869184077076
 20
79.91479280720051
 30
0.0
 10
34.63098428462187
 20
79.6188975030393
 30
0.0
 10
34.47631242890209
 20
79.19822313273329
 30
0.0
 10
34.201921472725
 20
78.84550219153954
 30
0.0
 10
33.86285051465705
 20
78.57238460297137
 30
0.0
 10
33.43216445920804
 20
78.36254208032472
 30
0.0
 10
32.91150890859079
 20
78.22966683034471
 30
0.0
 10
32.33946887429974
 20
78.15802112179904
 30
0.0
 10
31.74902496956372
 20
78.13907422419916
 30
0.0
 10
31.2033314994197
 20
78.17187725177277
 30
0.0
 10
30.7759786272027
 20
78.2625243397915
 30
0.0
 10
30.44452116605547
 20
78.41724425373667
 30
0.0
 10
30.2296176415623
 20
78.62913901667196
 30
0.0
 10
30.07435797557744
 20
78.91027832072794
 30
0.0
 10
29.97141939039261
 20
79.23747248594111
 30
0.0
 10
29.91735885397672
 20
79.63841807251256
 30
0.0
 10
29.90756794806946
 20
79.91242536605375
 30
0.0
 10
29.90756794806946
 20
80.02368609005435
 30
0.0
  0
SPLINE
  5
8D
330
63
100
AcDbEntity
  8
0
  6
Continuous
 62
     0
370
    30
100
AcDbSpline
210
0.0
220
0.0
230
1.0
 70
     8
 71
     3
 72
    23
 73
    19
 74
     0
 42
0.0
 43
0.0
 40
0.0
 40
0.0
 40
0.0
 40
0.0
 40
0.3272101300961545
 40
0.8865758289734058
 40
1.335367345874672
 40
1.673984426770709
 40
2.200227040487702
 40
2.764908836382976
 40
3.278203970732141
 40
3.957565552273474
 40
4.647581945502379
 40
5.18353055423253
 40
5.661164853424742
 40
6.205228637946656
 40
6.482725805029453
 40
6.930127593655947
 40
7.416761490742382
 40
7.751108947122765
 40
7.751108947122765
 40
7.751108947122765
 40
7.751108947122765
 10
26.62993515103076
 20
80.02368611065344
 30
0.0
 10
26.62993515103076
 20
79.91479292264313
 30
0.0
 10
26.6121955773003
 20
79.61889761789897
 30
0.0
 10
26.51181084127178
 20
79.19822324431959
 30
0.0
 10
26.32132013044503
 20
78.84550229715921
 30
0.0
 10
26.07032233962637
 20
78.57238470101748
 30
0.0
 10
25.72849052742497
 20
78.3625421684556
 30
0.0
 10
25.27545233162226
 20
78.22966690597832
 30
0.0
 10
24.73220821968565
 20
78.15802118311802
 30
0.0
 10
24.11586019026313
 20
78.13907427002894
 30
0.0
 10
23.47833820232192
 20
78.17187728241578
 30
0.0
 10
22.92059712486228
 20
78.26252435779026
 30
0.0
 10
22.44056344221025
 20
78.41724426131907
 30
0.0
 10
22.08867382024427
 20
78.6291390169788
 30
0.0
 10
21.80802243383636
 20
78.9102783154394
 30
0.0
 10
21.60242736078949
 20
79.23747247669215
 30
0.0
 10
21.4824017624845
 20
79.63841806103034
 30
0.0
 10
21.45997155471321
 20
79.91242535415947
 30
0.0
 10
21.45997155471321
 20
80.02368607816152
 30
0.0
  0
SPLINE
  5
8E
330
63
100
AcDbEntity
  8
0
  6
Continuous
 62
     0
370
    30
100
AcDbSpline
210
0.0
220
0.0
230
1.0
 70
     8
 71
     3
 72
    23
 73
    19
 74
     0
 42
0.0
 43
0.0
 40
0.0
 40
0.0
 40
0.0
 40
0.0
 40
0.3272101300962112
 40
0.8865758289736037
 40
1.335367345874837
 40
1.673984426771006
 40
2.200227040488035
 40
2.764908836383357
 40
3.278203970732847
 40
3.95756555227458
 40
4.647581945503808
 40
5.183530554234145
 40
5.661164853426398
 40
6.205228637948132
 40
6.482725805030789
 40
6.93012759365716
 40
7.416761490743558
 40
7.751108947122744
 40
7.751108947122744
 40
7.751108947122744
 40
7.751108947122744
 10
18.44787307405781
 20
80.02368601803303
 30
0.0
 10
18.44787307405781
 20
79.91479283002272
 30
0.0
 10
18.44573367206323
 20
79.61889752502333
 30
0.0
 10
18.43150750013014
 20
79.19822314997288
 30
0.0
 10
18.38539648939786
 20
78.84550219977572
 30
0.0
 10
18.30216189094742
 20
78.57238459934425
 30
0.0
 10
18.15771350709909
 20
78.36254206054107
 30
0.0
 10
17.91612909226254
 20
78.22966678914844
 30
0.0
 10
17.57415706983971
 20
78.15802105492656
 30
0.0
 10
17.12759106016406
 20
78.13907412819529
 30
0.0
 10
16.60064928108105
 20
78.17187712563651
 30
0.0
 10
16.08959884966193
 20
78.26252418729348
 30
0.0
 10
15.61339624799191
 20
78.41724407854943
 30
0.0
 10
15.23624299719519
 20
78.6291388248523
 30
0.0
 10
14.91930472256195
 20
78.91027811564308
 30
0.0
 10
14.67632814468104
 20
79.23747227113859
 30
0.0
 10
14.52844476388948
 20
79.63841785203792
 30
0.0
 10
14.50049668673765
 20
79.91242514452003
 30
0.0
 10
14.50049668673765
 20
80.02368586852168
 30
0.0
  0
SPLINE
  5
8F
330
63
100
AcDbEntity
  8
0
  6
Continuous
 62
     0
370
    30
100
AcDbSpline
210
0.0
220
0.0
230
1.0
 70
     8
 71
     3
 72
    23
 73
    19
 74
     0
 42
0.0
 43
0.0
 40
0.0
 40
0.0
 40
0.0
 40
0.0
 40
0.3272101300962131
 40
0.886575828973619
 40
1.335367345874822
 40
1.673984426770886
 40
2.200227040487892
 40
2.764908836383254
 40
3.278203970732671
 40
3.957565552274263
 40
4.647581945503408
 40
5.183530554233683
 40
5.66116485342592
 40
6.205228637947713
 40
6.482725805030418
 40
6.930127593656844
 40
7.416761490743268
 40
7.751108947122799
 40
7.751108947122799
 40
7.751108947122799
 40
7.751108947122799
 10
12.71025250760273
 20
80.023685746756
 30
0.0
 10
12.71025250760273
 20
79.91479255874569
 30
0.0
 10
12.72439252236106
 20
79.61889725390031
 30
0.0
 10
12.80084162359486
 20
79.19822287964848
 30
0.0
 10
12.91375023305972
 20
78.84550193030873
 30
0.0
 10
13.02470522387806
 20
78.572384330233
 30
0.0
 10
13.12350160963121
 20
78.36254179084386
 30
0.0
 10
13.17007232051773
 20
78.2296665169483
 30
0.0
 10
13.13794608846939
 20
78.15802077792495
 30
0.0
 10
13.00294365132837
 20
78.1390738437293
 30
0.0
 10
12.75388237277015
 20
78.17187683121062
 30
0.0
 10
12.45177748845754
 20
78.2625238824308
 30
0.0
 10
12.13059692911287
 20
78.4172437634524
 30
0.0
 10
11.84792354177554
 20
78.62913850128643
 30
0.0
 10
11.59532404173376
 20
78.91027778476729
 30
0.0
 10
11.39210930570518
 20
79.23747193453596
 30
0.0
 10
11.26332007093386
 20
79.63841751188434
 30
0.0
 10
11.23872744142531
 20
79.91242480369223
 30
0.0
 10
11.23872744142531
 20
80.023685527694
 30
0.0
  0
LINE
  5
90
330
63
100
AcDbEntity
  8
0
  6
Continuous
 62
     0
370
    30
100
AcDbLine
 10
33.547
 20
70.524
 30
0.0
 11
18.747
 21
70.524
 31
0.0
  0
LINE
  5
91
330
63
100
AcDbEntity
  8
0
  6
Continuous
 62
     0
370
     0
100
AcDbLine
 10
34.047
 20
71.024
 30
0.0
 11
18.247
 21
71.024
 31
0.0
  0
LINE
  5
92
330
63
100
AcDbEntity
  8
0
  6
Continuous
 62
     0
370
    30
100
AcDbLine
 10
34.047
 20
78.024
 30
0.0
 11
34.047
 21
71.024
 31
0.0
  0
ARC
  5
93
330
63
100
AcDbEntity
  8
0
  6
Continuous
 62
     0
370
    30
100
AcDbCircle
 10
33.547
 20
71.024
 30
0.0
 40
0.5
100
AcDbArc
 50
270.0
 51
360.0
  0
ARC
  5
94
330
63
100
AcDbEntity
  8
0
  6
Continuous
 62
     0
370
    30
100
AcDbCircle
 10
18.747
 20
71.024
 30
0.0
 40
0.5
100
AcDbArc
 50
180.0
 51
270.0
  0
LINE
  5
95
330
63
100
AcDbEntity
  8
0
  6
Continuous
 62
     0
370
    30
100
AcDbLine
 10
18.247
 20
78.024
 30
0.0
 11
18.247
 21
71.024
 31
0.0
  0
ARC
  5
96
330
63
100
AcDbEntity
  8
0
  6
Continuous
 62
     0
370
    30
100
AcDbCircle
 10
13.147
 20
80.024
 30
0.0
 40
2.0
100
AcDbArc
 50
180.0
 51
270.0
  0
ARC
  5
97
330
63
100
AcDbEntity
  8
0
  6
Continuous
 62
     0
370
    30
100
AcDbCircle
 10
13.147
 20
88.524
 30
0.0
 40
2.0
100
AcDbArc
 50
90.0
 51
180.0
  0
LINE
  5
98
330
63
100
AcDbEntity
  8
0
  6
Continuous
 62
     0
370
    30
100
AcDbLine
 10
11.147
 20
80.024
 30
0.0
 11
11.147
 21
88.524
 31
0.0
  0
ENDBLK
  5
9A
330
63
100
AcDbEntity
  8
0
100
AcDbBlockEnd
  0
BLOCK
  5
E2
330
9C
100
AcDbEntity
  8
0
100
AcDbBlockBegin
  2
c
 70
     0
 10
50.904
 20
22.74
 30
0.0
  3
c
  1

  0
ELLIPSE
  5
9D
330
9C
100
AcDbEntity
  8
0
  6
Continuous
 62
     0
370
    30
100
AcDbEllipse
 10
72.965
 20
25.72
 30
0.0
 11
2.5
 21
0.0
 31
0.0
210
0.0
220
0.0
230
-1.0
 40
0.577
 41
6.2831852985399
 42
7.068583470577035
  0
ELLIPSE
  5
9E
330
9C
100
AcDbEntity
  8
0
  6
Continuous
 62
     0
370
    30
100
AcDbEllipse
 10
72.965
 20
25.72
 30
0.0
 11
2.5
 21
0.0
 31
0.0
210
0.0
220
0.0
230
-1.0
 40
0.577
 41
0.7853981633974484
 42
3.14159264495011
  0
LINE
  5
9F
330
9C
100
AcDbEntity
  8
0
  6
Continuous
 62
     0
370
    30
100
AcDbLine
 10
70.465
 20
37.927
 30
0.0
 11
70.465
 21
25.72
 31
0.0
  0
LINE
  5
A0
330
9C
100
AcDbEntity
  8
0
  6
Continuous
 62
     0
370
    30
100
AcDbLine
 10
75.465
 20
37.927
 30
0.0
 11
75.465
 21
25.72
 31
0.0
  0
ELLIPSE
  5
A1
330
9C
100
AcDbEntity
  8
0
  6
Continuous
 62
     0
370
     0
100
AcDbEllipse
 10
72.965
 20
58.38
 30
0.0
 11
-13.0
 21
0.0
 31
0.0
210
0.0
220
0.0
230
1.0
 40
0.577
 41
0.0
 42
6.283185307179586
  0
LINE
  5
A2
330
9C
100
AcDbEntity
  8
0
  6
Continuous
 62
     0
370
    30
100
AcDbLine
 10
85.257
 20
51.783
 30
0.0
 11
85.257
 21
44.843
 31
0.0
  0
LINE
  5
A3
330
9C
100
AcDbEntity
  8
0
  6
Continuous
 62
     0
370
    30
100
AcDbLine
 10
81.563
 20
42.71
 30
0.0
 11
81.563
 21
49.651
 31
0.0
  0
SPLINE
  5
A4
330
9C
100
AcDbEntity
  8
0
  6
Continuous
 62
     0
370
    30
100
AcDbSpline
210
0.0
220
0.0
230
1.0
 70
     8
 71
     3
 72
    15
 73
    11
 74
     0
 42
0.0
 43
0.0
 40
0.0
 40
0.0
 40
0.0
 40
0.0
 40
0.6619996057529709
 40
1.268341474061093
 40
1.732847607160499
 40
2.16196413708554
 40
2.526235038615164
 40
2.982164439674535
 40
3.531264570004079
 40
3.875554419605522
 40
3.875554419605522
 40
3.875554419605522
 40
3.875554419605522
 10
82.64859490336227
 20
52.68790084246524
 30
0.0
 10
82.49281787544268
 20
52.59796293346231
 30
0.0
 10
82.22027270671009
 20
52.39594306059547
 30
0.0
 10
81.93250341142388
 20
52.0417688270386
 30
0.0
 10
81.75253590552802
 20
51.66783059233677
 30
0.0
 10
81.6520914323541
 20
51.30487617922401
 30
0.0
 10
81.59341568641335
 20
50.9080118848163
 30
0.0
 10
81.5663592232853
 20
50.44904123219516
 30
0.0
 10
81.56344883170004
 20
50.00568081379284
 30
0.0
 10
81.5634428069585
 20
49.74408344252768
 30
0.0
 10
81.56344280695848
 20
49.65054787858099
 30
0.0
  0
SPLINE
  5
A5
330
9C
100
AcDbEntity
  8
0
  6
Continuous
 62
     0
370
    30
100
AcDbSpline
210
0.0
220
0.0
230
1.0
 70
     8
 71
     3
 72
    15
 73
    11
 74
     0
 42
0.0
 43
0.0
 40
0.0
 40
0.0
 40
0.0
 40
0.0
 40
0.3442898496014666
 40
0.8933899799310185
 40
1.34931938099038
 40
1.713590282519995
 40
2.142706812445005
 40
2.607212945544449
 40
3.213554813852568
 40
3.87555441960553
 40
3.87555441960553
 40
3.87555441960553
 40
3.87555441960553
 10
85.25675168345327
 20
51.78288075262569
 30
0.0
 10
85.25675168345327
 20
51.8764163165724
 30
0.0
 10
85.22538506767322
 20
52.11990068538719
 30
0.0
 10
85.05652782962238
 20
52.46409101658105
 30
0.0
 10
84.76635603558668
 20
52.7399098495342
 30
0.0
 10
84.43952441580964
 20
52.91420136257014
 30
0.0
 10
84.07506644510542
 20
53.00874422456292
 30
0.0
 10
83.6280026895127
 20
53.02066579165398
 30
0.0
 10
83.13057416845618
 20
52.92150585457831
 30
0.0
 10
82.80437193128188
 20
52.77783875146821
 30
0.0
 10
82.64859490336227
 20
52.68790084246525
 30
0.0
  0
SPLINE
  5
A6
330
9C
100
AcDbEntity
  8
0
  6
Continuous
 62
     0
370
    30
100
AcDbSpline
210
0.0
220
0.0
230
1.0
 70
     8
 71
     3
 72
    15
 73
    11
 74
     0
 42
0.0
 43
0.0
 40
0.0
 40
0.0
 40
0.0
 40
0.0
 40
0.6619996057529707
 40
1.268341474061092
 40
1.732847607160499
 40
2.16196413708554
 40
2.526235038615155
 40
2.982164439674542
 40
3.531264570004058
 40
3.875554419605522
 40
3.875554419605522
 40
3.875554419605522
 40
3.875554419605522
 10
82.64859490336227
 20
42.68461401495964
 30
0.0
 10
82.49281787544268
 20
42.59467610595669
 30
0.0
 10
82.22027270671009
 20
42.42003007993782
 30
0.0
 10
81.93250341142385
 20
42.19982333242557
 30
0.0
 10
81.75253590552808
 20
42.05753680785462
 30
0.0
 10
81.6520914323541
 20
41.9996514059786
 30
0.0
 10
81.59341568641338
 20
42.01912305307036
 30
0.0
 10
81.56635922328533
 20
42.14303217889605
 30
0.0
 10
81.56344883170004
 20
42.39141305361186
 30
0.0
 10
81.5634428069585
 20
42.61679137674861
 30
0.0
 10
81.5634428069585
 20
42.71032694069532
 30
0.0
  0
SPLINE
  5
A7
330
9C
100
AcDbEntity
  8
0
  6
Continuous
 62
     0
370
    30
100
AcDbSpline
210
0.0
220
0.0
230
1.0
 70
     8
 71
     3
 72
    15
 73
    11
 74
     0
 42
0.0
 43
0.0
 40
0.0
 40
0.0
 40
0.0
 40
0.0
 40
0.3442898496014786
 40
0.8933899799310094
 40
1.349319380990356
 40
1.713590282519978
 40
2.142706812444998
 40
2.607212945544448
 40
3.213554813852567
 40
3.875554419605528
 40
3.875554419605528
 40
3.875554419605528
 40
3.875554419605528
 10
85.25675168345327
 20
44.84265981474002
 30
0.0
 10
85.25675168345327
 20
44.74912425079332
 30
0.0
 10
85.22538506767324
 20
44.50563292520619
 30
0.0
 10
85.05652782962238
 20
44.15808196328193
 30
0.0
 10
84.76635603558671
 20
43.85102101778821
 30
0.0
 10
84.43952441580967
 20
43.60897658932473
 30
0.0
 10
84.07506644510545
 20
43.39845044008072
 30
0.0
 10
83.6280026895127
 20
43.17872029704098
 30
0.0
 10
83.13057416845618
 20
42.94559287392065
 30
0.0
 10
82.80437193128188
 20
42.77455192396258
 30
0.0
 10
82.64859490336227
 20
42.68461401495964
 30
0.0
  0
ELLIPSE
  5
A8
330
9C
100
AcDbEntity
  8
0
  6
Continuous
 62
     0
370
     0
100
AcDbEllipse
 10
72.965
 20
49.807
 30
0.0
 11
-15.0
 21
0.0
 31
0.0
210
0.0
220
0.0
230
1.0
 40
0.577
 41
2.531190542409527
 42
2.752397102264217
  0
ELLIPSE
  5
A9
330
9C
100
AcDbEntity
  8
0
  6
Continuous
 62
     0
370
     0
100
AcDbEllipse
 10
72.965
 20
49.807
 30
0.0
 11
-15.0
 21
0.0
 31
0.0
210
0.0
220
0.0
230
1.0
 40
0.577
 41
3.102389206698582
 42
3.141592662229479
  0
ELLIPSE
  5
AA
330
9C
100
AcDbEntity
  8
0
  6
Continuous
 62
     0
370
     0
100
AcDbEllipse
 10
72.965
 20
49.807
 30
0.0
 11
-15.0
 21
0.0
 31
0.0
210
0.0
220
0.0
230
1.0
 40
0.577
 41
0.2463958852533139
 42
0.4676024451080005
  0
ELLIPSE
  5
AB
330
9C
100
AcDbEntity
  8
0
  6
Continuous
 62
     0
370
     0
100
AcDbEllipse
 10
72.965
 20
49.807
 30
0.0
 11
-15.0
 21
0.0
 31
0.0
210
0.0
220
0.0
230
1.0
 40
0.577
 41
0.8175945495423669
 42
1.038801109397055
  0
ELLIPSE
  5
AC
330
9C
100
AcDbEntity
  8
0
  6
Continuous
 62
     0
370
     0
100
AcDbEllipse
 10
72.965
 20
49.807
 30
0.0
 11
-15.0
 21
0.0
 31
0.0
210
0.0
220
0.0
230
1.0
 40
0.577
 41
1.388793213831421
 42
1.60999977368611
  0
ELLIPSE
  5
AD
330
9C
100
AcDbEntity
  8
0
  6
Continuous
 62
     0
370
     0
100
AcDbEllipse
 10
72.965
 20
49.807
 30
0.0
 11
-15.0
 21
0.0
 31
0.0
210
0.0
220
0.0
230
1.0
 40
0.577
 41
1.959991878120475
 42
2.181198437975162
  0
ELLIPSE
  5
AE
330
9C
100
AcDbEntity
  8
0
  6
Continuous
 62
     0
370
     0
100
AcDbEllipse
 10
72.965
 20
56.747
 30
0.0
 11
-15.0
 21
0.0
 31
0.0
210
0.0
220
0.0
230
1.0
 40
0.577
 41
2.531190542409527
 42
2.752397102264217
  0
ELLIPSE
  5
AF
330
9C
100
AcDbEntity
  8
0
  6
Continuous
 62
     0
370
     0
100
AcDbEllipse
 10
72.965
 20
56.747
 30
0.0
 11
-15.0
 21
0.0
 31
0.0
210
0.0
220
0.0
230
1.0
 40
0.577
 41
3.102389206698582
 42
3.141592686821327
  0
ELLIPSE
  5
B0
330
9C
100
AcDbEntity
  8
0
  6
Continuous
 62
     0
370
     0
100
AcDbEllipse
 10
72.965
 20
56.747
 30
0.0
 11
-15.0
 21
0.0
 31
0.0
210
0.0
220
0.0
230
1.0
 40
0.577
 41
0.2463958852533139
 42
0.4676024451080005
  0
ELLIPSE
  5
B1
330
9C
100
AcDbEntity
  8
0
  6
Continuous
 62
     0
370
     0
100
AcDbEllipse
 10
72.965
 20
56.747
 30
0.0
 11
-15.0
 21
0.0
 31
0.0
210
0.0
220
0.0
230
1.0
 40
0.577
 41
0.8175945495423669
 42
1.038801109397055
  0
ELLIPSE
  5
B2
330
9C
100
AcDbEntity
  8
0
  6
Continuous
 62
     0
370
     0
100
AcDbEllipse
 10
72.965
 20
56.747
 30
0.0
 11
-15.0
 21
0.0
 31
0.0
210
0.0
220
0.0
230
1.0
 40
0.577
 41
1.388793213831421
 42
1.60999977368611
  0
ELLIPSE
  5
B3
330
9C
100
AcDbEntity
  8
0
  6
Continuous
 62
     0
370
     0
100
AcDbEllipse
 10
72.965
 20
56.747
 30
0.0
 11
-15.0
 21
0.0
 31
0.0
210
0.0
220
0.0
230
1.0
 40
0.577
 41
1.959991878120475
 42
2.181198437975162
  0
LINE
  5
B4
330
9C
100
AcDbEntity
  8
0
  6
Continuous
 62
     0
370
    30
100
AcDbLine
 10
78.657
 20
48.734
 30
0.0
 11
78.657
 21
41.794
 31
0.0
  0
LINE
  5
B5
330
9C
100
AcDbEntity
  8
0
  6
Continuous
 62
     0
370
    30
100
AcDbLine
 10
73.553
 20
41.153
 30
0.0
 11
73.553
 21
48.093
 31
0.0
  0
LINE
  5
B6
330
9C
100
AcDbEntity
  8
0
  6
Continuous
 62
     0
370
    30
100
AcDbLine
 10
70.25
 20
48.23
 30
0.0
 11
70.25
 21
41.289
 31
0.0
  0
LINE
  5
B7
330
9C
100
AcDbEntity
  8
0
  6
Continuous
 62
     0
370
    30
100
AcDbLine
 10
65.357
 20
42.343
 30
0.0
 11
65.357
 21
49.284
 31
0.0
  0
LINE
  5
B8
330
9C
100
AcDbEntity
  8
0
  6
Continuous
 62
     0
370
    30
100
AcDbLine
 10
62.706
 20
50.429
 30
0.0
 11
62.706
 21
43.489
 31
0.0
  0
LINE
  5
B9
330
9C
100
AcDbEntity
  8
0
  6
Continuous
 62
     0
370
    30
100
AcDbLine
 10
59.576
 20
45.903
 30
0.0
 11
59.576
 21
52.843
 31
0.0
  0
LINE
  5
BA
330
9C
100
AcDbEntity
  8
0
  6
Continuous
 62
     0
370
    30
100
AcDbLine
 10
58.419
 20
54.635
 30
0.0
 11
58.419
 21
47.694
 31
0.0
  0
LINE
  5
BB
330
9C
100
AcDbEntity
  8
0
  6
Continuous
 62
     0
370
    30
100
AcDbLine
 10
58.046
 20
50.702
 30
0.0
 11
58.046
 21
57.642
 31
0.0
  0
LINE
  5
BC
330
9C
100
AcDbEntity
  8
0
  6
Continuous
 62
     0
370
    30
100
AcDbLine
 10
85.892
 20
61.14
 30
0.0
 11
85.892
 21
60.903
 31
0.0
  0
LINE
  5
BD
330
9C
100
AcDbEntity
  8
0
  6
Continuous
 62
     0
370
    30
100
AcDbLine
 10
87.954
 20
56.407
 30
0.0
 11
87.954
 21
49.467
 31
0.0
  0
LINE
  5
BE
330
9C
100
AcDbEntity
  8
0
  6
Continuous
 62
     0
370
    30
100
AcDbLine
 10
86.844
 20
46.521
 30
0.0
 11
86.844
 21
53.461
 31
0.0
  0
SPLINE
  5
BF
330
9C
100
AcDbEntity
  8
0
  6
Continuous
 62
     0
370
    30
100
AcDbSpline
210
0.0
220
0.0
230
1.0
 70
     8
 71
     3
 72
    23
 73
    19
 74
     0
 42
0.0
 43
0.0
 40
0.0
 40
0.0
 40
0.0
 40
0.0
 40
0.3272101300962191
 40
0.8865758289736697
 40
1.33536734587492
 40
1.673984426771012
 40
2.200227040267084
 40
2.764908836031083
 40
3.278203970736751
 40
3.95756555125876
 40
4.647581944190122
 40
5.183530552735045
 40
5.661164851905375
 40
6.205228636610077
 40
6.482725803799315
 40
6.930127592519493
 40
7.416761489628878
 40
7.751108947127835
 40
7.751108947127835
 40
7.751108947127835
 40
7.751108947127835
 10
78.65715151061028
 20
48.73431891767363
 30
0.0
 10
78.65715151061028
 20
48.82322983337039
 30
0.0
 10
78.63226693739574
 20
49.07403948824739
 30
0.0
 10
78.49282022672736
 20
49.46752748604064
 30
0.0
 10
78.24056120541616
 20
49.83129376541291
 30
0.0
 10
77.92270401317836
 20
50.1316421155789
 30
0.0
 10
77.50991437563414
 20
50.3772089231845
 30
0.0
 10
76.9952461316845
 20
50.5339095530623
 30
0.0
 10
76.41189701538696
 20
50.5979007456545
 30
0.0
 10
75.78790936769047
 20
50.56099430192353
 30
0.0
 10
75.1845228750939
 20
50.41496342922483
 30
0.0
 10
74.68899810920243
 20
50.18654618838438
 30
0.0
 10
74.28601150231282
 20
49.89095105634115
 30
0.0
 10
74.00874682202871
 20
49.56577034546072
 30
0.0
 10
73.79804420491939
 20
49.19871068024833
 30
0.0
 10
73.65067145393016
 20
48.82001744051071
 30
0.0
 10
73.56853652115194
 20
48.42149189935367
 30
0.0
 10
73.55338884031812
 20
48.18415654336451
 30
0.0
 10
73.55338884031812
 20
48.09331254232244
 30
0.0
  0
SPLINE
  5
C0
330
9C
100
AcDbEntity
  8
0
  6
Continuous
 62
     0
370
    30
100
AcDbSpline
210
0.0
220
0.0
230
1.0
 70
     8
 71
     3
 72
    23
 73
    19
 74
     0
 42
0.0
 43
0.0
 40
0.0
 40
0.0
 40
0.0
 40
0.0
 40
0.3272101300963995
 40
0.8865758289743673
 40
1.335367345875587
 40
1.673984426771709
 40
2.200227040488937
 40
2.764908836384631
 40
3.278203970734932
 40
3.957565552277428
 40
4.647581945507446
 40
5.18353055423835
 40
5.661164853430665
 40
6.205228637951895
 40
6.482725805034244
 40
6.930127593660354
 40
7.416761490746727
 40
7.751108947122744
 40
7.751108947122744
 40
7.751108947122744
 40
7.751108947122744
 10
70.25048831099673
 20
48.22969890412142
 30
0.0
 10
70.25048831099676
 20
48.31860981981825
 30
0.0
 10
70.23818049410647
 20
48.57572452707745
 30
0.0
 10
70.16769957859583
 20
49.0048005759715
 30
0.0
 10
70.0264389155779
 20
49.43527841155148
 30
0.0
 10
69.83147116588742
 20
49.82256358173504
 30
0.0
 10
69.55372172207575
 20
50.18519425823249
 30
0.0
 10
69.16589846540498
 20
50.49489006180679
 30
0.0
 10
68.68029743161449
 20
50.740095386541
 30
0.0
 10
68.10631932714591
 20
50.9062744878708
 30
0.0
 10
67.48705304252314
 20
50.96751423627373
 30
0.0
 10
66.9256042928287
 20
50.91828078416395
 30
0.0
 10
66.42808595475069
 20
50.77534405404161
 30
0.0
 10
66.05234202004962
 20
50.56086484701561
 30
0.0
 10
65.746320577939
 20
50.28140300084645
 30
0.0
 10
65.51789442849568
 20
49.96641719548396
 30
0.0
 10
65.3821674938458
 20
49.60482476072175
 30
0.0
 10
65.35668043326115
 20
49.37437802324118
 30
0.0
 10
65.35668043326115
 20
49.28353402250312
 30
0.0
  0
SPLINE
  5
C1
330
9C
100
AcDbEntity
  8
0
  6
Continuous
 62
     0
370
    30
100
AcDbSpline
210
0.0
220
0.0
230
1.0
 70
     8
 71
     3
 72
    23
 73
    19
 74
     0
 42
0.0
 43
0.0
 40
0.0
 40
0.0
 40
0.0
 40
0.0
 40
0.3272101300961545
 40
0.8865758289734058
 40
1.335367345874672
 40
1.673984426770709
 40
2.200227040487702
 40
2.764908836382976
 40
3.278203970732141
 40
3.957565552273474
 40
4.647581945502379
 40
5.18353055423253
 40
5.661164853424742
 40
6.205228637946656
 40
6.482725805029453
 40
6.930127593655943
 40
7.416761490742394
 40
7.751108947122765
 40
7.751108947122765
 40
7.751108947122765
 40
7.751108947122765
 10
62.70581825184624
 20
50.42923400079732
 30
0.0
 10
62.70581825184624
 20
50.51814491649404
 30
0.0
 10
62.7099948361803
 20
50.77663807367388
 30
0.0
 10
62.73085690850672
 20
51.21412577356776
 30
0.0
 10
62.74544386619334
 20
51.66607801144646
 30
0.0
 10
62.73526644204512
 20
52.08814048589511
 30
0.0
 10
62.68074067806327
 20
52.50710022821924
 30
0.0
 10
62.5428935524223
 20
52.90591047931719
 30
0.0
 10
62.30921549852704
 20
53.27305183216204
 30
0.0
 10
61.96748093024428
 20
53.59446743086492
 30
0.0
 10
61.52894752384611
 20
53.83503102597561
 30
0.0
 10
61.07983080139525
 20
53.95711402380812
 30
0.0
 10
60.64573928900086
 20
53.97210876543468
 30
0.0
 10
60.29081214401714
 20
53.88149681777756
 30
0.0
 10
59.98663152226965
 20
53.70547968074311
 30
0.0
 10
59.74967566263007
 20
53.4693879162524
 30
0.0
 10
59.60344906860891
 20
53.15559374781807
 30
0.0
 10
59.57571458985419
 20
52.93416940960806
 30
0.0
 10
59.57571458985416
 20
52.84332540886885
 30
0.0
  0
SPLINE
  5
C2
330
9C
100
AcDbEntity
  8
0
  6
Continuous
 62
     0
370
    30
100
AcDbSpline
210
0.0
220
0.0
230
1.0
 70
     8
 71
     3
 72
    23
 73
    19
 74
     0
 42
0.0
 43
0.0
 40
0.0
 40
0.0
 40
0.0
 40
0.0
 40
0.3272101300962095
 40
0.8865758289736005
 40
1.335367345874837
 40
1.673984426771006
 40
2.200227040488035
 40
2.764908836383357
 40
3.278203970732847
 40
3.95756555227458
 40
4.647581945503808
 40
5.183530554234145
 40
5.661164853426398
 40
6.205228637948132
 40
6.482725805030789
 40
6.93012759365716
 40
7.416761490743558
 40
7.751108947122744
 40
7.751108947122744
 40
7.751108947122744
 40
7.751108947122744
 10
58.41852076884783
 20
54.63458735567897
 30
0.0
 10
58.41852076884783
 20
54.72349827137575
 30
0.0
 10
58.43785571839032
 20
54.97800562790496
 30
0.0
 10
58.54343721799461
 20
55.39405793894177
 30
0.0
 10
58.70924054038653
 20
55.81542945420652
 30
0.0
 10
58.8870847020373
 20
56.20906816885548
 30
0.0
 10
59.07309416268853
 20
56.60573809348901
 30
0.0
 10
59.22898865648648
 20
57.00148885845907
 30
0.0
 10
59.32142471350701
 20
57.39257430810346
 30
0.0
 10
59.32043199225728
 20
57.7720908652887
 30
0.0
 10
59.20186272208468
 20
58.10709747812916
 30
0.0
 10
59.00766941294754
 20
58.33823782440746
 30
0.0
 10
58.77482571427805
 20
58.46629498093863
 30
0.0
 10
58.55340221974961
 20
58.47338906837159
 30
0.0
 10
58.3476376165339
 20
58.38382056629742
 30
0.0
 10
58.17738385788476
 20
58.21676114865591
 30
0.0
 10
58.06708351490815
 20
57.94645479508583
 30
0.0
 10
58.0459071190261
 20
57.73332208927133
 30
0.0
 10
58.0459071190261
 20
57.64247808853244
 30
0.0
  0
SPLINE
  5
C3
330
9C
100
AcDbEntity
  8
0
  6
Continuous
 62
     0
370
    30
100
AcDbSpline
210
0.0
220
0.0
230
1.0
 70
     8
 71
     3
 72
    22
 73
    18
 74
     0
 42
0.0
 43
0.0
 40
0.8841613088228935
 40
0.8841613088228935
 40
0.8841613088228935
 40
0.8841613088228935
 40
0.8865758289736192
 40
1.335367345874823
 40
1.673984426770887
 40
2.200227040487908
 40
2.764908836383246
 40
3.27820397073267
 40
3.957565552274225
 40
4.647581945503352
 40
5.183530554233617
 40
5.661164853425863
 40
6.205228637947648
 40
6.482725805030367
 40
6.930127593656789
 40
7.416761490743237
 40
7.751108947122802
 40
7.751108947122802
 40
7.751108947122802
 40
7.751108947122802
 10
58.97121958018472
 20
60.24026697909964
 30
0.0
 10
58.97160784443724
 20
60.24091289593342
 30
0.0
 10
59.04424888017751
 20
60.3615956065868
 30
0.0
 10
59.19929497565153
 20
60.56594297467035
 30
0.0
 10
59.50869645836389
 20
60.87698120835842
 30
0.0
 10
59.87618445417149
 20
61.17981929140845
 30
0.0
 10
60.27632516712549
 20
61.48130800182714
 30
0.0
 10
60.66552754007984
 20
61.7907435354067
 30
0.0
 10
61.00559184784606
 20
62.11277886838715
 30
0.0
 10
61.24463161940881
 20
62.42736267915322
 30
0.0
 10
61.36701672713235
 20
62.67067633481318
 30
0.0
 10
61.40934707132052
 20
62.83103033153527
 30
0.0
 10
61.39172762225635
 20
62.87864825399787
 30
0.0
 10
61.34970784522991
 20
62.83108548192749
 30
0.0
 10
61.30021055298647
 20
62.70127943474792
 30
0.0
 10
61.26085604060401
 20
62.45634337062796
 30
0.0
 10
61.25296108366175
 20
62.24813899563219
 30
0.0
 10
61.25296108366175
 20
62.15729499489319
 30
0.0
  0
SPLINE
  5
C4
330
9C
100
AcDbEntity
  8
0
  6
Continuous
 62
     0
370
    30
100
AcDbSpline
210
0.0
220
0.0
230
1.0
 70
     8
 71
     3
 72
    15
 73
    11
 74
     0
 42
0.0
 43
0.0
 40
1.871367337795283
 40
1.871367337795283
 40
1.871367337795283
 40
1.871367337795283
 40
2.200227040487602
 40
2.764908836382852
 40
3.278203970732006
 40
3.957565552273351
 40
4.647581945502254
 40
5.183530554232356
 40
5.661164853424577
 40
5.6803201693609
 40
5.6803201693609
 40
5.6803201693609
 40
5.6803201693609
 10
64.5285840964408
 20
64.65404715554399
 30
0.0
 10
64.62523602944457
 20
64.69472616086482
 30
0.0
 10
64.89869011395987
 20
64.79506322453072
 30
0.0
 10
65.35238114233715
 20
64.92305698429196
 30
0.0
 10
65.91478082778471
 20
65.07117186038239
 30
0.0
 10
66.4879341496304
 20
65.23839366901306
 30
0.0
 10
67.00868952443153
 20
65.42417295325853
 30
0.0
 10
67.40879664204539
 20
65.57891093951957
 30
0.0
 10
67.61039521053465
 20
65.64629365894564
 30
0.0
 10
67.69587558987067
 20
65.66631075053779
 30
0.0
 10
67.69915442146831
 20
65.66706378801776
 30
0.0
  0
SPLINE
  5
C5
330
9C
100
AcDbEntity
  8
0
  6
Continuous
 62
     0
370
    30
100
AcDbSpline
210
0.0
220
0.0
230
1.0
 70
     8
 71
     3
 72
    14
 73
    10
 74
     0
 42
0.0
 43
0.0
 40
2.181788275395073
 40
2.181788275395073
 40
2.181788275395073
 40
2.181788275395073
 40
2.20022704048789
 40
2.764908836383184
 40
3.278203970732492
 40
3.95756555227403
 40
4.647581945503124
 40
5.183530554233342
 40
5.608997958743871
 40
5.608997958743871
 40
5.608997958743871
 40
5.608997958743871
 10
72.36110130303797
 20
66.24500648712822
 30
0.0
 10
72.36608528353436
 20
66.24513052909484
 30
0.0
 10
72.52411737062849
 20
66.24868450878333
 30
0.0
 10
72.84554467569043
 20
66.2340048221574
 30
0.0
 10
73.4025837472281
 20
66.19234646824995
 30
0.0
 10
74.02685395317542
 20
66.15657465250699
 30
0.0
 10
74.66398877919721
 20
66.14606221286675
 30
0.0
 10
75.19792042301296
 20
66.13979565370158
 30
0.0
 10
75.48865035303298
 20
66.1223562227511
 30
0.0
 10
75.61067160011083
 20
66.10856987059292
 30
0.0
  0
SPLINE
  5
C6
330
9C
100
AcDbEntity
  8
0
  6
Continuous
 62
     0
370
    30
100
AcDbSpline
210
0.0
220
0.0
230
1.0
 70
     8
 71
     3
 72
    15
 73
    11
 74
     0
 42
0.0
 43
0.0
 40
1.974951798310579
 40
1.974951798310579
 40
1.974951798310579
 40
1.974951798310579
 40
2.200227040487855
 40
2.764908836383166
 40
3.278203970732478
 40
3.957565552274055
 40
4.647581945503122
 40
5.183530554233364
 40
5.661164853425577
 40
6.053212289219066
 40
6.053212289219066
 40
6.053212289219066
 40
6.053212289219066
 10
80.01969881070059
 20
65.17013679502863
 30
0.0
 10
80.04775079674812
 20
65.16090072162595
 30
0.0
 10
80.15425016839065
 20
65.1178793437279
 30
0.0
 10
80.3767892895082
 20
64.99793483961571
 30
0.0
 10
80.7516117777727
 20
64.79830234285218
 30
0.0
 10
81.22879748831565
 20
64.57580584416579
 30
0.0
 10
81.78002596007579
 20
64.36383571867736
 30
0.0
 10
82.30664027614418
 20
64.17472253179125
 30
0.0
 10
82.74473138999193
 20
64.00207586758899
 30
0.0
 10
83.00201783119331
 20
63.87544664897015
 30
0.0
 10
83.11149139201365
 20
63.81281684511252
 30
0.0
  0
SPLINE
  5
C7
330
9C
100
AcDbEntity
  8
0
  6
Continuous
 62
     0
370
    30
100
AcDbSpline
210
0.0
220
0.0
230
1.0
 70
     8
 71
     3
 72
    22
 73
    18
 74
     0
 42
0.0
 43
0.0
 40
0.0
 40
0.0
 40
0.0
 40
0.0
 40
0.3272101300963069
 40
0.8865758289739937
 40
1.335367345875213
 40
1.673984426771359
 40
2.200227040488468
 40
2.764908836383981
 40
3.278203970733891
 40
3.957565552275955
 40
4.647581945505533
 40
5.183530554236162
 40
5.661164853428453
 40
6.205228637949959
 40
6.482725805032471
 40
6.930127593658721
 40
7.239432875740607
 40
7.239432875740607
 40
7.239432875740607
 40
7.239432875740607
 10
85.89243832926189
 20
61.13985937177213
 30
0.0
 10
85.89243832926189
 20
61.22877028746893
 30
0.0
 10
85.88018626774445
 20
61.45483588694093
 30
0.0
 10
85.81429544029288
 20
61.71150794929773
 30
0.0
 10
85.72029252154351
 20
61.84456068417389
 30
0.0
 10
85.63291994972002
 20
61.87490536264079
 30
0.0
 10
85.56440267013329
 20
61.79977846398167
 30
0.0
 10
85.55499803213542
 20
61.60729052247039
 30
0.0
 10
85.6286004454721
 20
61.33163864415732
 30
0.0
 10
85.80719856914686
 20
60.99797017145832
 30
0.0
 10
86.09750954165622
 20
60.64333778998366
 30
0.0
 10
86.43274390463733
 20
60.30811941728696
 30
0.0
 10
86.7802895508299
 20
59.97558409884211
 30
0.0
 10
87.0806308015535
 20
59.66577925447396
 30
0.0
 10
87.34636762245037
 20
59.33538875444594
 30
0.0
 10
87.52750886847856
 20
59.04899603316325
 30
0.0
 10
87.61728185162966
 20
58.83319355629116
 30
0.0
 10
87.64586638971423
 20
58.74507922954763
 30
0.0
  0
SPLINE
  5
C8
330
9C
100
AcDbEntity
  8
0
  6
Continuous
 62
     0
370
    30
100
AcDbSpline
210
0.0
220
0.0
230
1.0
 70
     8
 71
     3
 72
    23
 73
    19
 74
     0
 42
0.0
 43
0.0
 40
0.0
 40
0.0
 40
0.0
 40
0.0
 40
0.3272101300962408
 40
0.8865758289736941
 40
1.335367345874867
 40
1.673984426770998
 40
2.200227040267196
 40
2.764908836386041
 40
3.278203970735518
 40
3.957565551257574
 40
4.647581944188985
 40
5.183530552733911
 40
5.661164851904252
 40
6.205228636608926
 40
6.482725803798155
 40
6.930127592518332
 40
7.416761489627715
 40
7.751108947126452
 40
7.751108947126452
 40
7.751108947126452
 40
7.751108947126452
 10
87.95396240519472
 20
56.40748756648898
 30
0.0
 10
87.95396240519472
 20
56.49639848218573
 30
0.0
 10
87.92911097024972
 20
56.72875406431586
 30
0.0
 10
87.79239238367268
 20
57.01977355540417
 30
0.0
 10
87.56822105675002
 20
57.20676488579238
 30
0.0
 10
87.31431318160534
 20
57.29496524623551
 30
0.0
 10
87.02588092018902
 20
57.28035033819071
 30
0.0
 10
86.73612621528645
 20
57.13857748426632
 30
0.0
 10
86.48514030763451
 20
56.89299660238188
 30
0.0
 10
86.30844720212843
 20
56.55900518112334
 30
0.0
 10
86.2456689927028
 20
56.1658002322002
 30
0.0
 10
86.28308886077929
 20
55.76740752644068
 30
0.0
 10
86.38236700005402
 20
55.3591242563141
 30
0.0
 10
86.50693432366427
 20
54.97728664367159
 30
0.0
 10
86.63605688482016
 20
54.57995747467368
 30
0.0
 10
86.75057103818466
 20
54.18907236483292
 30
0.0
 10
86.82855746428493
 20
53.78900755973302
 30
0.0
 10
86.84370679511085
 20
53.5516728159578
 30
0.0
 10
86.84370679511088
 20
53.46082881491583
 30
0.0
  0
SPLINE
  5
C9
330
9C
100
AcDbEntity
  8
0
  6
Continuous
 62
     0
370
    30
100
AcDbSpline
210
0.0
220
0.0
230
1.0
 70
     8
 71
     3
 72
    23
 73
    19
 74
     0
 42
0.0
 43
0.0
 40
0.0
 40
0.0
 40
0.0
 40
0.0
 40
0.3272101300962209
 40
0.8865758289736718
 40
1.335367345874914
 40
1.673984426770991
 40
2.200227040267181
 40
2.764908836031204
 40
3.278203970736851
 40
3.957565551258889
 40
4.647581944190295
 40
5.18353055273522
 40
5.661164851905535
 40
6.205228636610255
 40
6.48272580379948
 40
6.93012759251963
 40
7.416761489628995
 40
7.75110894712783
 40
7.75110894712783
 40
7.75110894712783
 40
7.75110894712783
 10
78.65715151061028
 20
41.79409797978795
 30
0.0
 10
78.65715151061028
 20
41.70518706409122
 30
0.0
 10
78.63226693739574
 20
41.472801711383
 30
0.0
 10
78.49282022672736
 20
41.17933134302837
 30
0.0
 10
78.24056120541616
 20
40.96710674270304
 30
0.0
 10
77.92270401317836
 20
40.82145594298687
 30
0.0
 10
77.50991437563408
 20
40.72435134859381
 30
0.0
 10
76.99524613168438
 20
40.66406760186022
 30
0.0
 10
76.41189701538684
 20
40.61106183433211
 30
0.0
 10
75.78790936769033
 20
40.54321522047044
 30
0.0
 10
75.18452287509376
 20
40.45075144374479
 30
0.0
 10
74.68899810920226
 20
40.37036025127809
 30
0.0
 10
74.2860115023127
 20
40.3274216537262
 30
0.0
 10
74.00874682202863
 20
40.3482636188039
 30
0.0
 10
73.79804420491931
 20
40.4403024946005
 30
0.0
 10
73.6506714539301
 20
40.59591507335948
 30
0.0
 10
73.56853652115194
 20
40.85213092397825
 30
0.0
 10
73.55338884031812
 20
41.06224760339472
 30
0.0
 10
73.55338884031812
 20
41.15309160443677
 30
0.0
  0
SPLINE
  5
CA
330
9C
100
AcDbEntity
  8
0
  6
Continuous
 62
     0
370
    30
100
AcDbSpline
210
0.0
220
0.0
230
1.0
 70
     8
 71
     3
 72
    23
 73
    19
 74
     0
 42
0.0
 43
0.0
 40
0.0
 40
0.0
 40
0.0
 40
0.0
 40
0.3272101300963995
 40
0.8865758289743684
 40
1.335367345875606
 40
1.673984426771775
 40
2.20022704048891
 40
2.764908836384567
 40
3.278203970734925
 40
3.957565552277429
 40
4.647581945507405
 40
5.183530554238329
 40
5.661164853430654
 40
6.205228637951858
 40
6.482725805034247
 40
6.930127593660371
 40
7.416761490746712
 40
7.751108947122747
 40
7.751108947122747
 40
7.751108947122747
 40
7.751108947122747
 10
70.25048831099673
 20
41.28947796623578
 30
0.0
 10
70.25048831099676
 20
41.20056705053898
 30
0.0
 10
70.2381804941065
 20
40.9744867502132
 30
0.0
 10
70.16769957859583
 20
40.71660443295534
 30
0.0
 10
70.0264389155779
 20
40.57109138884897
 30
0.0
 10
69.83147116588736
 20
40.51237740903986
 30
0.0
 10
69.55372172207575
 20
40.53233668369337
 30
0.0
 10
69.16589846540498
 20
40.62504811068543
 30
0.0
 10
68.68029743161452
 20
40.75325647510067
 30
0.0
 10
68.10631932714591
 20
40.88849540641618
 30
0.0
 10
67.48705304252314
 20
41.00330225097362
 30
0.0
 10
66.92560429282872
 20
41.10209484756854
 30
0.0
 10
66.42808595475071
 20
41.21181465235804
 30
0.0
 10
66.05234202004965
 20
41.343358121648
 30
0.0
 10
65.74632057793897
 20
41.52299481672159
 30
0.0
 10
65.51789442849571
 20
41.74231483003996
 30
0.0
 10
65.38216749384583
 20
42.03546378658271
 30
0.0
 10
65.35668043326115
 20
42.25246908387942
 30
0.0
 10
65.35668043326115
 20
42.34331308461748
 30
0.0
  0
SPLINE
  5
CB
330
9C
100
AcDbEntity
  8
0
  6
Continuous
 62
     0
370
    30
100
AcDbSpline
210
0.0
220
0.0
230
1.0
 70
     8
 71
     3
 72
    23
 73
    19
 74
     0
 42
0.0
 43
0.0
 40
0.0
 40
0.0
 40
0.0
 40
0.0
 40
0.3272101300961545
 40
0.8865758289734058
 40
1.335367345874672
 40
1.673984426770709
 40
2.200227040487702
 40
2.764908836382976
 40
3.278203970732141
 40
3.957565552273474
 40
4.647581945502379
 40
5.18353055423253
 40
5.661164853424742
 40
6.205228637946656
 40
6.482725805029453
 40
6.930127593655947
 40
7.416761490742382
 40
7.751108947122765
 40
7.751108947122765
 40
7.751108947122765
 40
7.751108947122765
 10
62.70581825184627
 20
43.48901306291164
 30
0.0
 10
62.70581825184627
 20
43.40010214721492
 30
0.0
 10
62.7099948361803
 20
43.17540029681028
 30
0.0
 10
62.73085690850672
 20
42.92592963055262
 30
0.0
 10
62.74544386619334
 20
42.80189098874507
 30
0.0
 10
62.73526644204512
 20
42.77795431320087
 30
0.0
 10
62.68074067806327
 20
42.85424265368087
 30
0.0
 10
62.54289355242227
 20
43.03606852819644
 30
0.0
 10
62.30921549852707
 20
43.28621292072208
 30
0.0
 10
61.96748093024428
 20
43.57668834941029
 30
0.0
 10
61.52894752384611
 20
43.8708190406748
 30
0.0
 10
61.07983080139525
 20
44.14092808721068
 30
0.0
 10
60.64573928900086
 20
44.40857936374752
 30
0.0
 10
60.29081214401714
 20
44.6639900924049
 30
0.0
 10
59.98663152226965
 20
44.94707149661234
 30
0.0
 10
59.74967566263007
 20
45.2452855508018
 30
0.0
 10
59.60344906860891
 20
45.58623277367421
 30
0.0
 10
59.57571458985416
 20
45.81226047024396
 30
0.0
 10
59.57571458985416
 20
45.90310447098318
 30
0.0
  0
SPLINE
  5
CC
330
9C
100
AcDbEntity
  8
0
  6
Continuous
 62
     0
370
    30
100
AcDbSpline
210
0.0
220
0.0
230
1.0
 70
     8
 71
     3
 72
    11
 73
     7
 74
     0
 42
0.0
 43
0.0
 40
6.395212588509956
 40
6.395212588509956
 40
6.395212588509956
 40
6.395212588509956
 40
6.482725805030789
 40
6.93012759365716
 40
7.416761490743558
 40
7.751108947122744
 40
7.751108947122744
 40
7.751108947122744
 40
7.751108947122744
 10
58.41852072707611
 20
49.49994522407518
 30
0.0
 10
58.40464551731674
 20
49.52555972880623
 30
0.0
 10
58.32093963505405
 20
49.68300134637837
 30
0.0
 10
58.17738385788473
 20
49.9926587832071
 30
0.0
 10
58.06708351490815
 20
50.37709382094334
 30
0.0
 10
58.04590711902608
 20
50.61141314990789
 30
0.0
 10
58.04590711902608
 20
50.70225715064677
 30
0.0
  0
SPLINE
  5
CD
330
9C
100
AcDbEntity
  8
0
  6
Continuous
 62
     0
370
    30
100
AcDbSpline
210
0.0
220
0.0
230
1.0
 70
     8
 71
     3
 72
     9
 73
     5
 74
     0
 42
0.0
 43
0.0
 40
0.0
 40
0.0
 40
0.0
 40
0.0
 40
0.3272101300962112
 40
0.6576339632784154
 40
0.6576339632784154
 40
0.6576339632784154
 40
0.6576339632784154
 10
58.41852076884783
 20
47.6943664177933
 30
0.0
 10
58.4185207688478
 20
47.60545550209656
 30
0.0
 10
58.4328628240696
 20
47.43582222155648
 30
0.0
 10
58.47513550883826
 20
47.29305508021892
 30
0.0
 10
58.50207876684486
 20
47.22973216663343
 30
0.0
  0
SPLINE
  5
CE
330
9C
100
AcDbEntity
  8
0
  6
Continuous
 62
     0
370
    30
100
AcDbSpline
210
0.0
220
0.0
230
1.0
 70
     8
 71
     3
 72
    10
 73
     6
 74
     0
 42
0.0
 43
0.0
 40
6.768742989650505
 40
6.768742989650505
 40
6.768742989650505
 40
6.768742989650505
 40
6.930127592518324
 40
7.416761489627675
 40
7.751108947126456
 40
7.751108947126456
 40
7.751108947126456
 40
7.751108947126456
 10
86.69915715540306
 20
45.90852928808629
 30
0.0
 10
86.71346133012466
 20
45.92933407501341
 30
0.0
 10
86.76815677972118
 20
46.02239892285066
 30
0.0
 10
86.82855746428493
 20
46.2196465843578
 30
0.0
 10
86.84370679511085
 20
46.42976387598816
 30
0.0
 10
86.84370679511085
 20
46.52060787703016
 30
0.0
  0
SPLINE
  5
CF
330
9C
100
AcDbEntity
  8
0
  6
Continuous
 62
     0
370
    30
100
AcDbSpline
210
0.0
220
0.0
230
1.0
 70
     8
 71
     3
 72
    13
 73
     9
 74
     0
 42
0.0
 43
0.0
 40
0.0
 40
0.0
 40
0.0
 40
0.0
 40
0.3272101300962408
 40
0.886575828973694
 40
1.335367345874867
 40
1.673984426770998
 40
2.200227040267196
 40
2.554941979839056
 40
2.554941979839056
 40
2.554941979839056
 40
2.554941979839056
 10
87.95396240519472
 20
49.46726662860328
 30
0.0
 10
87.95396240519472
 20
49.37835571290654
 30
0.0
 10
87.92911097024972
 20
49.12751628745133
 30
0.0
 10
87.79239238367268
 20
48.73157741239278
 30
0.0
 10
87.56822105674999
 20
48.34257786308032
 30
0.0
 10
87.31431318160537
 20
47.98477907365088
 30
0.0
 10
87.06824500381884
 20
47.67996992760329
 30
0.0
 10
86.90554085551207
 20
47.47849948003002
 30
0.0
 10
86.84370676066959
 20
47.39977505092492
 30
0.0
  0
ELLIPSE
  5
D0
330
9C
100
AcDbEntity
  8
0
  6
Continuous
 62
     0
370
     0
100
AcDbEllipse
 10
72.965
 20
42.458
 30
0.0
 11
7.9
 21
0.0
 31
0.0
210
0.0
220
0.0
230
-1.0
 40
0.577
 41
0.1815484764603023
 42
0.7853981633974484
  0
ELLIPSE
  5
D1
330
9C
100
AcDbEntity
  8
0
  6
Continuous
 62
     0
370
     0
100
AcDbEllipse
 10
72.965
 20
42.458
 30
0.0
 11
7.9
 21
0.0
 31
0.0
210
0.0
220
0.0
230
-1.0
 40
0.577
 41
0.7853981633974484
 42
2.960043277947281
  0
ELLIPSE
  5
D2
330
9C
100
AcDbEntity
  8
0
  6
Continuous
 62
     0
370
    30
100
AcDbEllipse
 10
72.965
 20
58.38
 30
0.0
 11
-5.580343384734768
 21
0.0
 31
0.0
210
0.0
220
0.0
230
1.0
 40
0.577
 41
0.0
 42
6.283185307179586
  0
SPLINE
  5
D3
330
9C
100
AcDbEntity
  8
0
  6
Continuous
 62
     0
370
    30
100
AcDbSpline
210
0.0
220
0.0
230
1.0
 70
     8
 71
     3
 72
    18
 73
    14
 74
     0
 42
0.0
 43
0.0
 40
0.0
 40
0.0
 40
0.0
 40
0.0
 40
0.6403656843353737
 40
1.778703560146538
 40
3.108377084722897
 40
4.600224199902827
 40
6.528827788944971
 40
8.453478766310498
 40
11.21093936106576
 40
13.93443521234503
 40
15.13210168694864
 40
16.43797123194519
 40
17.00795378027365
 40
17.00795378027365
 40
17.00795378027365
 40
17.00795378027365
 10
78.44807794231627
 20
39.00417220161702
 30
0.0
 10
78.29381691156811
 20
38.91510955380767
 30
0.0
 10
77.84878532193807
 20
38.67859913596874
 30
0.0
 10
76.9985537743317
 20
38.32144566212628
 30
0.0
 10
75.80987517726544
 20
37.97351753620237
 30
0.0
 10
74.28095179530848
 20
37.71376607693988
 30
0.0
 10
72.48939972486119
 20
37.64760570277829
 30
0.0
 10
70.30582753382657
 20
37.88540278812087
 30
0.0
 10
68.08088368541465
 20
38.57026539255634
 30
0.0
 10
66.54082804757968
 20
39.5676424364743
 30
0.0
 10
65.69513908391943
 20
40.51619253876306
 30
0.0
 10
65.34792437266344
 20
41.12863981934835
 30
0.0
 10
65.21281559065574
 20
41.52050684759863
 30
0.0
 10
65.17910282512034
 20
41.64078165224405
 30
0.0
  0
SPLINE
  5
D4
330
9C
100
AcDbEntity
  8
0
  6
Continuous
 62
     0
370
    30
100
AcDbSpline
210
0.0
220
0.0
230
1.0
 70
     8
 71
     3
 72
    10
 73
     6
 74
     0
 42
0.0
 43
0.0
 40
1.271555363841737
 40
1.271555363841737
 40
1.271555363841737
 40
1.271555363841737
 40
2.581709153417185
 40
4.823050765798576
 40
6.167911274994955
 40
6.167911274994955
 40
6.167911274994955
 40
6.167911274994955
 10
80.75191272025447
 20
41.64080055042727
 30
0.0
 10
80.674426468236
 20
41.36428116865542
 30
0.0
 10
80.35861092935367
 20
40.63284512544111
 30
0.0
 10
79.56713733896333
 20
39.73671921864843
 30
0.0
 10
78.77175256558408
 20
39.19104583622061
 30
0.0
 10
78.44807799256827
 20
39.00417223063008
 30
0.0
  0
SPLINE
  5
D5
330
9C
100
AcDbEntity
  8
0
  6
Continuous
 62
     0
370
    30
100
AcDbSpline
210
0.0
220
0.0
230
1.0
 70
     8
 71
     3
 72
    15
 73
    11
 74
     0
 42
0.0
 43
0.0
 40
0.0
 40
0.0
 40
0.0
 40
0.0
 40
1.333054198769558
 40
1.847842168245925
 40
2.852298853463048
 40
3.214657530784018
 40
3.555767498429089
 40
3.896668886040622
 40
4.237375739985291
 40
4.577901719971022
 40
4.577901719971022
 40
4.577901719971022
 40
4.577901719971022
 10
81.68162040552176
 20
42.02006415088175
 30
0.0
 10
81.31881483237271
 20
41.85955847691804
 30
0.0
 10
80.80020798020172
 20
41.65154846924322
 30
0.0
 10
79.97098059226767
 20
41.36278367021882
 30
0.0
 10
79.40907209624004
 20
41.19003842720585
 30
0.0
 10
78.8884617823542
 20
41.04784171684321
 30
0.0
 10
78.56678506757129
 20
40.96591430063121
 30
0.0
 10
78.24948593045053
 20
40.88886716833734
 30
0.0
 10
77.92752916334601
 20
40.82119981557238
 30
0.0
 10
77.71657054731182
 20
40.76707839730706
 30
0.0
 10
77.60576672529288
 20
40.75200950362677
 30
0.0
  0
SPLINE
  5
D6
330
9C
100
AcDbEntity
  8
0
  6
Continuous
 62
     0
370
    30
100
AcDbSpline
210
0.0
220
0.0
230
1.0
 70
     8
 71
     3
 72
    18
 73
    14
 74
     0
 42
0.0
 43
0.0
 40
0.0110014071010495
 40
0.0110014071010495
 40
0.0110014071010495
 40
0.0110014071010495
 40
0.9029866128491892
 40
1.504896655535075
 40
2.106816652801229
 40
2.407800418801989
 40
3.009855714237988
 40
3.310943438289072
 40
3.612082104638676
 40
3.913279919946206
 40
4.214545209656801
 40
4.515886360940633
 40
4.817311923141807
 40
4.817311923141807
 40
4.817311923141807
 40
4.817311923141807
 10
74.36372765320834
 20
40.34110274155385
 30
0.0
 10
74.06773873146469
 20
40.32414349871721
 30
0.0
 10
73.5704990317946
 20
40.30476082929955
 30
0.0
 10
72.87182535458169
 20
40.29885439664531
 30
0.0
 10
72.37028001302656
 20
40.30692580452552
 30
0.0
 10
71.86940077754849
 20
40.3242377903245
 30
0.0
 10
71.46942125774945
 20
40.34542752498359
 30
0.0
 10
71.07076635610156
 20
40.37409892021908
 30
0.0
 10
70.77224726120701
 20
40.39896532628336
 30
0.0
 10
70.47541027053234
 20
40.42871010091494
 30
0.0
 10
70.17632329422841
 20
40.4576108604937
 30
0.0
 10
69.89020012862306
 20
40.50700923726455
 30
0.0
 10
69.67061005611322
 20
40.50046266821488
 30
0.0
 10
69.5886911151378
 20
40.53690169413412
 30
0.0
  0
SPLINE
  5
D7
330
9C
100
AcDbEntity
  8
0
  6
Continuous
 62
     0
370
    30
100
AcDbSpline
210
0.0
220
0.0
230
1.0
 70
     8
 71
     3
 72
    14
 73
    10
 74
     0
 42
0.0
 43
0.0
 40
0.0
 40
0.0
 40
0.0
 40
0.0
 40
1.723671209481139
 40
2.570397457687119
 40
3.323407937472595
 40
3.784206243903395
 40
4.004038299850248
 40
4.217451274416432
 40
4.424880726163488
 40
4.424880726163488
 40
4.424880726163488
 40
4.424880726163488
 10
66.37686623157242
 20
41.23689866000706
 30
0.0
 10
65.86061700609798
 20
41.39235953316273
 30
0.0
 10
65.11129619978865
 20
41.65220181795218
 30
0.0
 10
64.19288782622655
 20
42.03961996321324
 30
0.0
 10
63.64402520563482
 20
42.29921633103808
 30
0.0
 10
63.27415345578422
 20
42.49019517684715
 30
0.0
 10
63.04715562270377
 20
42.61236573807565
 30
0.0
 10
62.8879246768409
 20
42.70262415905431
 30
0.0
 10
62.78093575046299
 20
42.76014332099503
 30
0.0
 10
62.73188956443317
 20
42.791297550434
 30
0.0
  0
SPLINE
  5
D8
330
9C
100
AcDbEntity
  8
0
  6
Continuous
 62
     0
370
    30
100
AcDbSpline
210
0.0
220
0.0
230
1.0
 70
     8
 71
     3
 72
    16
 73
    12
 74
     0
 42
0.0
 43
0.0
 40
0.0
 40
0.0
 40
0.0
 40
0.0
 40
1.109104662710079
 40
1.453028017430288
 40
1.786146515353811
 40
2.109498737513655
 40
2.730487779783812
 40
2.966511595398123
 40
3.198375873134931
 40
3.426391012709636
 40
3.650838257555671
 40
3.650838257555671
 40
3.650838257555671
 40
3.650838257555671
 10
59.99259323301007
 20
44.95369091612136
 30
0.0
 10
59.80002270160986
 20
45.16433084993022
 30
0.0
 10
59.56293396083473
 20
45.44876732354149
 30
0.0
 10
59.2980291884279
 20
45.81122423036481
 30
0.0
 10
59.15670698851369
 20
46.01753104459731
 30
0.0
 10
58.98524037840534
 20
46.28498560185767
 30
0.0
 10
58.8386495774468
 20
46.53722914395968
 30
0.0
 10
58.71468980276279
 20
46.77419557278748
 30
0.0
 10
58.63767078728154
 20
46.92661962802585
 30
0.0
 10
58.57137681189087
 20
47.07934018689787
 30
0.0
 10
58.51580777029153
 20
47.1773746293546
 30
0.0
 10
58.50195538205918
 20
47.22967966789244
 30
0.0
  0
SPLINE
  5
D9
330
9C
100
AcDbEntity
  8
0
  6
Continuous
 62
     0
370
    30
100
AcDbSpline
210
0.0
220
0.0
230
1.0
 70
     8
 71
     3
 72
     9
 73
     5
 74
     0
 42
0.0
 43
0.0
 40
0.2668678093503685
 40
0.2668678093503685
 40
0.2668678093503685
 40
0.2668678093503685
 40
0.2999988996777737
 40
0.6005287091939089
 40
0.6005287091939089
 40
0.6005287091939089
 40
0.6005287091939089
 10
87.9618135981952
 20
49.61502230655943
 30
0.0
 10
87.96176641322506
 20
49.60706477984733
 30
0.0
 10
87.96174353148999
 20
49.52685479397041
 30
0.0
 10
87.96748068607496
 20
49.44579402106474
 30
0.0
 10
87.95079244153871
 20
49.37538735332964
 30
0.0
  0
SPLINE
  5
DA
330
9C
100
AcDbEntity
  8
0
  6
Continuous
 62
     0
370
    30
100
AcDbSpline
210
0.0
220
0.0
230
1.0
 70
     8
 71
     3
 72
    16
 73
    12
 74
     0
 42
0.0
 43
0.0
 40
0.0
 40
0.0
 40
0.0
 40
0.0
 40
1.064529725461186
 40
1.446398780304725
 40
1.844442341428891
 40
2.050134584142296
 40
2.697277503164315
 40
2.924114285166291
 40
3.15713159638532
 40
3.491718869534256
 40
3.840362099884105
 40
3.840362099884105
 40
3.840362099884105
 40
3.840362099884105
 10
86.69919159278069
 20
45.90850561175513
 30
0.0
 10
86.54857983700612
 20
45.68916474334156
 30
0.0
 10
86.32764774658435
 20
45.39846107057551
 30
0.0
 10
86.01973267607639
 20
45.04141658336175
 30
0.0
 10
85.84782143163397
 20
44.85457669101258
 30
0.0
 10
85.6225340936032
 20
44.62140716996832
 30
0.0
 10
85.41976715885184
 20
44.42482896625798
 30
0.0
 10
85.20271204707049
 20
44.22881562395247
 30
0.0
 10
85.04511080606164
 20
44.08911443096279
 30
0.0
 10
84.85140595543692
 20
43.936099380314
 30
0.0
 10
84.72442930073095
 20
43.80920397855289
 30
0.0
 10
84.63842877281115
 20
43.75955155039284
 30
0.0
  0
SPLINE
  5
DB
330
9C
100
AcDbEntity
  8
0
  6
Continuous
 62
     0
370
    30
100
AcDbSpline
210
0.0
220
0.0
230
1.0
 70
     8
 71
     3
 72
    13
 73
     9
 74
     0
 42
0.0
 43
0.0
 40
0.0029548754976516
 40
0.0029548754976516
 40
0.0029548754976516
 40
0.0029548754976516
 40
1.066818935148209
 40
1.620670473449596
 40
2.508381863170273
 40
2.83099006732146
 40
3.161781237673974
 40
3.501678207084881
 40
3.501678207084881
 40
3.501678207084881
 40
3.501678207084881
 10
58.06535315297058
 20
57.86921037113666
 30
0.0
 10
58.11030857455396
 20
58.12073252174968
 30
0.0
 10
58.20162308546536
 20
58.50003638150524
 30
0.0
 10
58.39410255124299
 20
59.07523286146295
 30
0.0
 10
58.56218709960331
 20
59.4708421025035
 30
0.0
 10
58.72813652011973
 20
59.80998927533059
 30
0.0
 10
58.84879890469273
 20
60.02294470010028
 30
0.0
 10
58.91882242735215
 20
60.1722619311148
 30
0.0
 10
58.97121899602419
 20
60.24026733024277
 30
0.0
  0
SPLINE
  5
DC
330
9C
100
AcDbEntity
  8
0
  6
Continuous
 62
     0
370
    30
100
AcDbSpline
210
0.0
220
0.0
230
1.0
 70
     8
 71
     3
 72
    15
 73
    11
 74
     0
 42
0.0
 43
0.0
 40
0.0
 40
0.0
 40
0.0
 40
0.0
 40
1.326029150310597
 40
1.823719450005204
 40
2.638554976120816
 40
2.931733803016602
 40
3.237470764840063
 40
3.557069809624779
 40
3.892241983041658
 40
4.244777876256374
 40
4.244777876256374
 40
4.244777876256374
 40
4.244777876256374
 10
61.37662177782386
 20
62.85893199648956
 30
0.0
 10
61.66235240222068
 20
63.07737894911546
 30
0.0
 10
62.07547316581793
 20
63.36479939234945
 30
0.0
 10
62.70946782704996
 20
63.75360696571502
 30
0.0
 10
63.11080644779031
 20
63.97826395679095
 30
0.0
 10
63.47489729752749
 20
64.16715904150728
 30
0.0
 10
63.71541954117845
 20
64.28642713408397
 30
0.0
 10
63.96988300629249
 20
64.40875277325966
 30
0.0
 10
64.24511159074552
 20
64.52870132375227
 30
0.0
 10
64.42518932891812
 20
64.61944516103404
 30
0.0
 10
64.52857463902612
 20
64.65406962603538
 30
0.0
  0
SPLINE
  5
DD
330
9C
100
AcDbEntity
  8
0
  6
Continuous
 62
     0
370
    30
100
AcDbSpline
210
0.0
220
0.0
230
1.0
 70
     8
 71
     3
 72
    18
 73
    14
 74
     0
 42
0.0
 43
0.0
 40
0.0
 40
0.0
 40
0.0
 40
0.0
 40
0.8974362684891404
 40
1.495100773943895
 40
2.092345951661715
 40
2.390832542700458
 40
2.987575254094206
 40
3.285847701948425
 40
3.584064959476325
 40
3.882235015871263
 40
4.180365768184701
 40
4.478465099535661
 40
4.776540844869939
 40
4.776540844869939
 40
4.776540844869939
 40
4.776540844869939
 10
67.69915297344744
 20
65.66707009284254
 30
0.0
 10
67.97924838594955
 20
65.73158941846648
 30
0.0
 10
68.45119179180858
 20
65.83043996971472
 30
0.0
 10
69.12176430945237
 20
65.94824509336098
 30
0.0
 10
69.60546521659745
 20
66.02052974570775
 30
0.0
 10
70.09209494875009
 20
66.08385186635812
 30
0.0
 10
70.48360170573804
 20
66.1273718995658
 30
0.0
 10
70.87689926982327
 20
66.16361507958555
 30
0.0
 10
71.17264543417917
 20
66.18740958669471
 30
0.0
 10
71.46893511748561
 20
66.20676121612595
 30
0.0
 10
71.76623303416272
 20
66.22561569051055
 30
0.0
 10
72.0622834225749
 20
66.2292236672465
 30
0.0
 10
72.26409010295222
 20
66.25814762612282
 30
0.0
 10
72.36110114071869
 20
66.24501300897492
 30
0.0
  0
SPLINE
  5
DE
330
9C
100
AcDbEntity
  8
0
  6
Continuous
 62
     0
370
    30
100
AcDbSpline
210
0.0
220
0.0
230
1.0
 70
     8
 71
     3
 72
    14
 73
    10
 74
     0
 42
0.0
 43
0.0
 40
0.0
 40
0.0
 40
0.0
 40
0.0
 40
1.464013072882032
 40
2.343642204149798
 40
3.224462440914428
 40
3.828120908825462
 40
4.138064251074095
 40
4.423711075548177
 40
4.695799573734877
 40
4.695799573734877
 40
4.695799573734877
 40
4.695799573734877
 10
75.59919096931662
 20
66.10982668486926
 30
0.0
 10
76.07940116404296
 20
66.05737518492404
 30
0.0
 10
76.84196872265346
 20
65.95031396233054
 30
0.0
 10
77.86803465971099
 20
65.75318966842852
 30
0.0
 10
78.60543224349345
 20
65.58166098928865
 30
0.0
 10
79.15382379444372
 20
65.43426362990712
 30
0.0
 10
79.51555872232558
 20
65.3291289717559
 30
0.0
 10
79.77416380413723
 20
65.24904799047441
 30
0.0
 10
79.9404059552601
 20
65.19746967456433
 30
0.0
 10
80.01970977855171
 20
65.17017010528215
 30
0.0
  0
SPLINE
  5
DF
330
9C
100
AcDbEntity
  8
0
  6
Continuous
 62
     0
370
    30
100
AcDbSpline
210
0.0
220
0.0
230
1.0
 70
     8
 71
     3
 72
    19
 73
    15
 74
     0
 42
0.0
 43
0.0
 40
0.0
 40
0.0
 40
0.0
 40
0.0
 40
1.157872371630751
 40
1.677660045249723
 40
2.165603975306415
 40
2.399006766855589
 40
2.846933470262263
 40
3.062284535355557
 40
3.272240788308131
 40
3.477248508562958
 40
3.677544164990201
 40
3.87340836296286
 40
3.959604895226702
 40
4.044981058021935
 40
4.044981058021935
 40
4.044981058021935
 40
4.044981058021935
 10
83.11150561149145
 20
63.8128472666434
 30
0.0
 10
83.39810349264647
 20
63.64880647459745
 30
0.0
 10
83.79953665790393
 20
63.39998120296443
 30
0.0
 10
84.28932180910283
 20
63.05869716319856
 30
0.0
 10
84.55997937522415
 20
62.85622408395396
 30
0.0
 10
84.80797661420962
 20
62.66088754972139
 30
0.0
 10
84.99301985809572
 20
62.50777253980944
 30
0.0
 10
85.1682414974315
 20
62.35556922530341
 30
0.0
 10
85.29232226038903
 20
62.24423477517729
 30
0.0
 10
85.41139919693242
 20
62.13431637037775
 30
0.0
 10
85.52474878941922
 20
62.02521987995414
 30
0.0
 10
85.6163827144033
 20
61.93786761477625
 30
0.0
 10
85.68027668228825
 20
61.86834495702801
 30
0.0
 10
85.71820888831746
 20
61.83983864906943
 30
0.0
 10
85.72903969553948
 20
61.82169688328209
 30
0.0
  0
ARC
  5
E0
330
9C
100
AcDbEntity
  8
0
  6
Continuous
 62
     0
370
    30
100
AcDbCircle
 10
81.503
 20
56.738
 30
0.0
 40
6.462783671691536
100
AcDbArc
 50
0.079
 51
18.094
  0
LINE
  5
E1
330
9C
100
AcDbEntity
  8
0
  6
Continuous
 62
     0
370
    30
100
AcDbLine
 10
87.965
 20
49.807
 30
0.0
 11
87.965
 21
56.747
 31
0.0
  0
ENDBLK
  5
E3
330
9C
100
AcDbEntity
  8
0
100
AcDbBlockEnd
  0
ENDSEC
  0
SECTION
  2
ENTITIES
  0
INSERT
  5
62
330
1F
100
AcDbEntity
  8
0
  6
Continuous
 62
    72
370
     0
100
AcDbBlockReference
  2
a
 10
10.547
 20
6.006
 30
0.0
  0
INSERT
  5
9B
330
1F
100
AcDbEntity
  8
0
  6
Continuous
 62
    72
370
     0
100
AcDbBlockReference
  2
b
 10
-46.964
 20
-10.063
 30
0.0
  0
INSERT
  5
E4
330
1F
100
AcDbEntity
  8
0
  6
Continuous
 62
    72
370
     0
100
AcDbBlockReference
  2
c
 10
50.904
 20
22.74
 30
0.0
  0
ENDSEC
  0
SECTION
  2
OBJECTS
  0
DICTIONARY
  5
C
330
0
100
AcDbDictionary
281
     1
  3
ACAD_GROUP
350
D
  3
ACAD_LAYOUT
350
1A
  3
ACAD_MLEADERSTYLE
350
E6
  3
ACAD_MLINESTYLE
350
17
  3
ACAD_PLOTSETTINGS
350
19
  3
ACAD_PLOTSTYLENAME
350
E
  3
ACAD_TABLESTYLE
350
E5
  3
ACAD_VISUALSTYLE
350
2A
  0
DICTIONARY
  5
D
102
{ACAD_REACTORS
330
C
102
}
330
C
100
AcDbDictionary
281
     1
  0
DICTIONARY
  5
1A
102
{ACAD_REACTORS
330
C
102
}
330
C
100
AcDbDictionary
281
     1
  3
Layout1
350
1E
  3
Layout2
350
26
  3
Model
350
22
  0
DICTIONARY
  5
E6
102
{ACAD_REACTORS
330
C
102
}
330
C
100
AcDbDictionary
281
     1
  0
DICTIONARY
  5
17
102
{ACAD_REACTORS
330
C
102
}
330
C
100
AcDbDictionary
281
     1
  3
Standard
350
18
  0
DICTIONARY
  5
19
102
{ACAD_REACTORS
330
C
102
}
330
C
100
AcDbDictionary
281
     1
  0
ACDBDICTIONARYWDFLT
  5
E
102
{ACAD_REACTORS
330
C
102
}
330
C
100
AcDbDictionary
281
     1
  3
Normal
350
F
100
AcDbDictionaryWithDefault
340
F
  0
DICTIONARY
  5
E5
102
{ACAD_REACTORS
330
C
102
}
330
C
100
AcDbDictionary
281
     1
  0
DICTIONARY
  5
2A
102
{ACAD_REACTORS
330
C
102
}
330
C
100
AcDbDictionary
281
     1
  3
2dWireframe
350
2F
  3
3D Hidden
350
31
  3
3dWireframe
350
30
  3
Basic
350
32
  3
Brighten
350
36
  3
ColorChange
350
3A
  3
Conceptual
350
34
  3
Dim
350
35
  3
Facepattern
350
39
  3
Flat
350
2B
  3
FlatWithEdges
350
2C
  3
Gouraud
350
2D
  3
GouraudWithEdges
350
2E
  3
Linepattern
350
38
  3
Realistic
350
33
  3
Thicken
350
37
  0
LAYOUT
  5
1E
102
{ACAD_REACTORS
330
1A
102
}
330
1A
100
AcDbPlotSettings
  1

  2
none_device
  4

  6

 40
0.0
 41
0.0
 42
0.0
 43
0.0
 44
0.0
 45
0.0
 46
0.0
 47
0.0
 48
0.0
 49
0.0
140
0.0
141
0.0
142
1.0
143
1.0
 70
   688
 72
     0
 73
     0
 74
     5
  7

 75
    16
 76
     0
 77
     2
 78
   300
147
1.0
148
0.0
149
0.0
100
AcDbLayout
  1
Layout1
 70
     1
 71
     1
 10
0.0
 20
0.0
 11
420.0
 21
297.0
 12
0.0
 22
0.0
 32
0.0
 14
1.000E+20
 24
1.000E+20
 34
1.000E+20
 15
-1.000E+20
 25
-1.000E+20
 35
-1.000E+20
146
0.0
 13
0.0
 23
0.0
 33
0.0
 16
1.0
 26
0.0
 36
0.0
 17
0.0
 27
1.0
 37
0.0
 76
     0
330
1B
  0
LAYOUT
  5
26
102
{ACAD_REACTORS
330
1A
102
}
330
1A
100
AcDbPlotSettings
  1

  2
none_device
  4

  6

 40
0.0
 41
0.0
 42
0.0
 43
0.0
 44
0.0
 45
0.0
 46
0.0
 47
0.0
 48
0.0
 49
0.0
140
0.0
141
0.0
142
1.0
143
1.0
 70
   688
 72
     0
 73
     0
 74
     5
  7

 75
    16
 76
     0
 77
     2
 78
   300
147
1.0
148
0.0
149
0.0
100
AcDbLayout
  1
Layout2
 70
     1
 71
     2
 10
0.0
 20
0.0
 11
0.0
 21
0.0
 12
0.0
 22
0.0
 32
0.0
 14
0.0
 24
0.0
 34
0.0
 15
0.0
 25
0.0
 35
0.0
146
0.0
 13
0.0
 23
0.0
 33
0.0
 16
1.0
 26
0.0
 36
0.0
 17
0.0
 27
1.0
 37
0.0
 76
     0
330
23
  0
LAYOUT
  5
22
102
{ACAD_REACTORS
330
1A
102
}
330
1A
100
AcDbPlotSettings
  1

  2
none_device
  4

  6

 40
0.0
 41
0.0
 42
0.0
 43
0.0
 44
0.0
 45
0.0
 46
0.0
 47
0.0
 48
0.0
 49
0.0
140
0.0
141
0.0
142
1.0
143
1.0
 70
  1712
 72
     0
 73
     0
 74
     0
  7

 75
     0
 76
     0
 77
     2
 78
   300
147
1.0
148
0.0
149
0.0
100
AcDbLayout
  1
Model
 70
     1
 71
     0
 10
0.0
 20
0.0
 11
420.0
 21
297.0
 12
0.0
 22
0.0
 32
0.0
 14
1.000E+20
 24
1.000E+20
 34
1.000E+20
 15
-1.000E+20
 25
-1.000E+20
 35
-1.000E+20
146
0.0
 13
0.0
 23
0.0
 33
0.0
 16
1.0
 26
0.0
 36
0.0
 17
0.0
 27
1.0
 37
0.0
 76
     0
330
1F
331
29
  0
MLINESTYLE
  5
18
102
{ACAD_REACTORS
330
17
102
}
330
17
100
AcDbMlineStyle
  2
Standard
 70
     0
  3

 62
   256
 51
90.0
 52
90.0
 71
     2
 49
0.5
 62
   256
  6
BYLAYER
 49
-0.5
 62
   256
  6
BYLAYER
  0
ACDBPLACEHOLDER
  5
F
102
{ACAD_REACTORS
330
E
102
}
330
E
  0
VISUALSTYLE
  5
2F
102
{ACAD_REACTORS
330
2A
102
}
330
2A
100
AcDbVisualStyle
  2
2dWireframe
 70
     4
 71
     0
 72
     2
 73
     0
 90
        0
 40
-0.6
 41
-30.0
 62
     5
 63
     7
421
 16777215
 74
     1
 91
        4
 64
     7
 65
   257
 75
     1
175
     1
 42
1.0
 92
        0
 66
   257
 43
1.0
 76
     1
 77
     6
 78
     2
 67
     7
 79
     5
170
     0
171
     0
290
     0
174
     0
 93
        1
 44
0.0
173
     0
291
     0
 45
0.0
1001
ACAD
1000
AcDbSavedByObjectVersion
1070
     0
  0
VISUALSTYLE
  5
31
102
{ACAD_REACTORS
330
2A
102
}
330
2A
100
AcDbVisualStyle
  2
3D Hidden
 70
     6
 71
     1
 72
     2
 73
     2
 90
        0
 40
-0.6
 41
-30.0
 62
     5
 63
     7
421
 16777215
 74
     2
 91
        2
 64
     7
 65
   257
 75
     2
175
     1
 42
40.0
 92
        0
 66
   257
 43
1.0
 76
     1
 77
     6
 78
     2
 67
     7
 79
     3
170
     0
171
     0
290
     0
174
     0
 93
        1
 44
0.0
173
     0
291
     0
 45
0.0
1001
ACAD
1000
AcDbSavedByObjectVersion
1070
     0
  0
VISUALSTYLE
  5
30
102
{ACAD_REACTORS
330
2A
102
}
330
2A
100
AcDbVisualStyle
  2
3dWireframe
 70
     5
 71
     0
 72
     2
 73
     0
 90
        0
 40
-0.6
 41
-30.0
 62
     5
 63
     7
421
 16777215
 74
     1
 91
        4
 64
     7
 65
   257
 75
     1
175
     1
 42
1.0
 92
        0
 66
   257
 43
1.0
 76
     1
 77
     6
 78
     2
 67
     7
 79
     5
170
     0
171
     0
290
     0
174
     0
 93
        1
 44
0.0
173
     0
291
     0
 45
0.0
1001
ACAD
1000
AcDbSavedByObjectVersion
1070
     0
  0
VISUALSTYLE
  5
32
102
{ACAD_REACTORS
330
2A
102
}
330
2A
100
AcDbVisualStyle
  2
Basic
 70
     7
 71
     1
 72
     0
 73
     1
 90
        0
 40
-0.6
 41
-30.0
 62
     5
 63
     7
421
 16777215
 74
     0
 91
        4
 64
     7
 65
   257
 75
     1
175
     1
 42
1.0
 92
        8
 66
     7
 43
1.0
 76
     1
 77
     6
 78
     2
 67
     7
 79
     5
170
     0
171
     0
290
     0
174
     0
 93
        1
 44
0.0
173
     0
291
     1
 45
0.0
1001
ACAD
1000
AcDbSavedByObjectVersion
1070
     0
  0
VISUALSTYLE
  5
36
102
{ACAD_REACTORS
330
2A
102
}
330
2A
100
AcDbVisualStyle
  2
Brighten
 70
    12
 71
     2
 72
     2
 73
     0
 90
        0
 40
-0.6
 41
-30.0
 62
     5
 63
     7
421
 16777215
 74
     1
 91
        4
 64
     7
 65
   257
 75
     1
175
     1
 42
1.0
 92
        8
 66
     7
 43
1.0
 76
     1
 77
     6
 78
     2
 67
     7
 79
     5
170
     0
171
     0
290
     0
174
     0
 93
        1
 44
50.0
173
     0
291
     1
 45
0.0
1001
ACAD
1000
AcDbSavedByObjectVersion
1070
     0
  0
VISUALSTYLE
  5
3A
102
{ACAD_REACTORS
330
2A
102
}
330
2A
100
AcDbVisualStyle
  2
ColorChange
 70
    16
 71
     2
 72
     2
 73
     3
 90
        0
 40
-0.6
 41
-30.0
 62
     5
 63
     8
421
  8421504
 74
     1
 91
        4
 64
     7
 65
   257
 75
     1
175
     1
 42
1.0
 92
        8
 66
     8
424
  8421504
 43
1.0
 76
     1
 77
     6
 78
     2
 67
     7
 79
     5
170
     0
171
     0
290
     0
174
     0
 93
        1
 44
0.0
173
     0
291
     1
 45
0.0
1001
ACAD
1000
AcDbSavedByObjectVersion
1070
     0
  0
VISUALSTYLE
  5
34
102
{ACAD_REACTORS
330
2A
102
}
330
2A
100
AcDbVisualStyle
  2
Conceptual
 70
     9
 71
     3
 72
     2
 73
     0
 90
        0
 40
-0.6
 41
-30.0
 62
     5
 63
     7
421
 16777215
 74
     2
 91
        2
 64
     7
 65
   257
 75
     1
175
     1
 42
40.0
 92
        8
 66
     7
 43
1.0
 76
     1
 77
     6
 78
     2
 67
     7
 79
     3
170
     0
171
     0
290
     0
174
     0
 93
        1
 44
0.0
173
     0
291
     0
 45
0.0
1001
ACAD
1000
AcDbSavedByObjectVersion
1070
     0
  0
VISUALSTYLE
  5
35
102
{ACAD_REACTORS
330
2A
102
}
330
2A
100
AcDbVisualStyle
  2
Dim
 70
    11
 71
     2
 72
     2
 73
     0
 90
        0
 40
-0.6
 41
-30.0
 62
     5
 63
     7
421
 16777215
 74
     1
 91
        4
 64
     7
 65
   257
 75
     1
175
     1
 42
1.0
 92
        8
 66
     7
 43
1.0
 76
     1
 77
     6
 78
     2
 67
     7
 79
     5
170
     0
171
     0
290
     0
174
     0
 93
        1
 44
-50.0
173
     0
291
     1
 45
0.0
1001
ACAD
1000
AcDbSavedByObjectVersion
1070
     0
  0
VISUALSTYLE
  5
39
102
{ACAD_REACTORS
330
2A
102
}
330
2A
100
AcDbVisualStyle
  2
Facepattern
 70
    15
 71
     2
 72
     2
 73
     0
 90
        0
 40
-0.6
 41
-30.0
 62
     5
 63
     7
421
 16777215
 74
     1
 91
        4
 64
     7
 65
   257
 75
     1
175
     1
 42
1.0
 92
        8
 66
     7
 43
1.0
 76
     1
 77
     6
 78
     2
 67
     7
 79
     5
170
     0
171
     0
290
     0
174
     0
 93
        1
 44
0.0
173
     0
291
     1
 45
0.0
1001
ACAD
1000
AcDbSavedByObjectVersion
1070
     0
  0
VISUALSTYLE
  5
2B
102
{ACAD_REACTORS
330
2A
102
}
330
2A
100
AcDbVisualStyle
  2
Flat
 70
     0
 71
     2
 72
     1
 73
     1
 90
        2
 40
-0.6
 41
30.0
 62
     5
 63
     7
421
 16777215
 74
     0
 91
        4
 64
     7
 65
   257
 75
     1
175
     1
 42
1.0
 92
        8
 66
     7
 43
1.0
 76
     1
 77
     6
 78
     2
 67
     7
 79
     5
170
     0
171
     0
290
     0
174
     0
 93
       13
 44
0.0
173
     0
291
     1
 45
0.0
1001
ACAD
1000
AcDbSavedByObjectVersion
1070
     0
  0
VISUALSTYLE
  5
2C
102
{ACAD_REACTORS
330
2A
102
}
330
2A
100
AcDbVisualStyle
  2
FlatWithEdges
 70
     1
 71
     2
 72
     1
 73
     1
 90
        2
 40
-0.6
 41
30.0
 62
     5
 63
     7
421
 16777215
 74
     1
 91
        4
 64
     7
 65
   257
 75
     1
175
     1
 42
1.0
 92
        0
 66
   257
 43
1.0
 76
     1
 77
     6
 78
     2
 67
     7
 79
     5
170
     0
171
     0
290
     0
174
     0
 93
       13
 44
0.0
173
     0
291
     1
 45
0.0
1001
ACAD
1000
AcDbSavedByObjectVersion
1070
     0
  0
VISUALSTYLE
  5
2D
102
{ACAD_REACTORS
330
2A
102
}
330
2A
100
AcDbVisualStyle
  2
Gouraud
 70
     2
 71
     2
 72
     2
 73
     1
 90
        2
 40
-0.6
 41
30.0
 62
     5
 63
     7
421
 16777215
 74
     0
 91
        4
 64
     7
 65
   257
 75
     1
175
     1
 42
1.0
 92
        0
 66
     7
 43
1.0
 76
     1
 77
     6
 78
     2
 67
     7
 79
     5
170
     0
171
     0
290
     0
174
     0
 93
       13
 44
0.0
173
     0
291
     1
 45
0.0
1001
ACAD
1000
AcDbSavedByObjectVersion
1070
     0
  0
VISUALSTYLE
  5
2E
102
{ACAD_REACTORS
330
2A
102
}
330
2A
100
AcDbVisualStyle
  2
GouraudWithEdges
 70
     3
 71
     2
 72
     2
 73
     1
 90
        2
 40
-0.6
 41
30.0
 62
     5
 63
     7
421
 16777215
 74
     1
 91
        4
 64
     7
 65
   257
 75
     1
175
     1
 42
1.0
 92
        0
 66
   257
 43
1.0
 76
     1
 77
     6
 78
     2
 67
     7
 79
     5
170
     0
171
     0
290
     0
174
     0
 93
       13
 44
0.0
173
     0
291
     1
 45
0.0
1001
ACAD
1000
AcDbSavedByObjectVersion
1070
     0
  0
VISUALSTYLE
  5
38
102
{ACAD_REACTORS
330
2A
102
}
330
2A
100
AcDbVisualStyle
  2
Linepattern
 70
    14
 71
     2
 72
     2
 73
     0
 90
        0
 40
-0.6
 41
-30.0
 62
     5
 63
     7
421
 16777215
 74
     1
 91
        4
 64
     7
 65
   257
 75
     7
175
     7
 42
1.0
 92
        8
 66
     7
 43
1.0
 76
     1
 77
     6
 78
     2
 67
     7
 79
     5
170
     0
171
     0
290
     0
174
     0
 93
        1
 44
0.0
173
     0
291
     1
 45
0.0
1001
ACAD
1000
AcDbSavedByObjectVersion
1070
     0
  0
VISUALSTYLE
  5
33
102
{ACAD_REACTORS
330
2A
102
}
330
2A
100
AcDbVisualStyle
  2
Realistic
 70
     8
 71
     2
 72
     2
 73
     0
 90
        0
 40
-0.6
 41
-30.0
 62
     5
 63
     7
421
 16777215
 74
     1
 91
        0
 64
     7
 65
   257
 75
     1
175
     1
 42
1.0
 92
        8
 66
     8
424
  7895160
 43
1.0
 76
     1
 77
     6
 78
     2
 67
     7
 79
     5
170
     0
171
     0
290
     0
174
     0
 93
       13
 44
0.0
173
     0
291
     0
 45
0.0
1001
ACAD
1000
AcDbSavedByObjectVersion
1070
     0
  0
VISUALSTYLE
  5
37
102
{ACAD_REACTORS
330
2A
102
}
330
2A
100
AcDbVisualStyle
  2
Thicken
 70
    13
 71
     2
 72
     2
 73
     0
 90
        0
 40
-0.6
 41
-30.0
 62
     5
 63
     7
421
 16777215
 74
     1
 91
        4
 64
     7
 65
   257
 75
     1
175
     1
 42
1.0
 92
       12
 66
     7
 43
1.0
 76
     1
 77
     6
 78
     2
 67
     7
 79
     5
170
     0
171
     0
290
     0
174
     0
 93
        1
 44
0.0
173
     0
291
     1
 45
0.0
1001
ACAD
1000
AcDbSavedByObjectVersion
1070
     0
  0
ENDSEC
  0
EOF
