  0
SECTION
  2
HEADER
  9
$ACADVER
  1
AC1018
  9
$ACADMAINTVER
 70
     0
  9
$DWGCODEPAGE
  3
ANSI_1252
  9
$INSBASE
 10
0.0
 20
0.0
 30
0.0
  9
$EXTMIN
 10
1.000E+20
 20
1.000E+20
 30
1.000E+20
  9
$EXTMAX
 10
-1.000E+20
 20
-1.000E+20
 30
-1.000E+20
  9
$LIMMIN
 10
0.0
 20
0.0
  9
$LIMMAX
 10
420.0
 20
297.0
  9
$ORTHOMODE
 70
     0
  9
$REGENMODE
 70
     1
  9
$FILLMODE
 70
     1
  9
$QTEXTMODE
 70
     0
  9
$MIRRTEXT
 70
     1
  9
$LTSCALE
 40
1.0
  9
$ATTMODE
 70
     1
  9
$TEXTSIZE
 40
2.5
  9
$TRACEWID
 40
1.0
  9
$TEXTSTYLE
  7
Standard
  9
$CLAYER
  8
0
  9
$CELTYPE
  6
ByLayer
  9
$CECOLOR
 62
   256
  9
$CELTSCALE
 40
1.0
  9
$DISPSILH
 70
     0
  9
$DIMSCALE
 40
1.0
  9
$DIMASZ
 40
2.5
  9
$DIMEXO
 40
0.625
  9
$DIMDLI
 40
3.75
  9
$DIMRND
 40
0.0
  9
$DIMDLE
 40
0.0
  9
$DIMEXE
 40
1.25
  9
$DIMTP
 40
0.0
  9
$DIMTM
 40
0.0
  9
$DIMTXT
 40
2.5
  9
$DIMCEN
 40
2.5
  9
$DIMTSZ
 40
0.0
  9
$DIMTOL
 70
     0
  9
$DIMLIM
 70
     0
  9
$DIMTIH
 70
     0
  9
$DIMTOH
 70
     0
  9
$DIMSE1
 70
     0
  9
$DIMSE2
 70
     0
  9
$DIMTAD
 70
     1
  9
$DIMZIN
 70
     8
  9
$DIMBLK
  1

  9
$DIMASO
 70
     1
  9
$DIMSHO
 70
     1
  9
$DIMPOST
  1

  9
$DIMAPOST
  1

  9
$DIMALT
 70
     0
  9
$DIMALTD
 70
     3
  9
$DIMALTF
 40
0.039
  9
$DIMLFAC
 40
1.0
  9
$DIMTOFL
 70
     1
  9
$DIMTVP
 40
0.0
  9
$DIMTIX
 70
     0
  9
$DIMSOXD
 70
     0
  9
$DIMSAH
 70
     0
  9
$DIMBLK1
  1

  9
$DIMBLK2
  1

  9
$DIMSTYLE
  2
ISO-25
  9
$DIMCLRD
 70
     0
  9
$DIMCLRE
 70
     0
  9
$DIMCLRT
 70
     0
  9
$DIMTFAC
 40
1.0
  9
$DIMGAP
 40
0.625
  9
$DIMJUST
 70
     0
  9
$DIMSD1
 70
     0
  9
$DIMSD2
 70
     0
  9
$DIMTOLJ
 70
     0
  9
$DIMTZIN
 70
     8
  9
$DIMALTZ
 70
     0
  9
$DIMALTTZ
 70
     0
  9
$DIMUPT
 70
     0
  9
$DIMDEC
 70
     2
  9
$DIMTDEC
 70
     2
  9
$DIMALTU
 70
     2
  9
$DIMALTTD
 70
     3
  9
$DIMTXSTY
  7
Standard
  9
$DIMAUNIT
 70
     0
  9
$DIMADEC
 70
     0
  9
$DIMALTRND
 40
0.0
  9
$DIMAZIN
 70
     0
  9
$DIMDSEP
 70
    44
  9
$DIMATFIT
 70
     3
  9
$DIMFRAC
 70
     0
  9
$DIMLDRBLK
  1

  9
$DIMLUNIT
 70
     2
  9
$DIMLWD
 70
    -2
  9
$DIMLWE
 70
    -2
  9
$DIMTMOVE
 70
     0
  9
$LUNITS
 70
     2
  9
$LUPREC
 70
     4
  9
$SKETCHINC
 40
1.0
  9
$FILLETRAD
 40
10.0
  9
$AUNITS
 70
     0
  9
$AUPREC
 70
     0
  9
$MENU
  1
.
  9
$ELEVATION
 40
0.0
  9
$PELEVATION
 40
0.0
  9
$THICKNESS
 40
0.0
  9
$LIMCHECK
 70
     0
  9
$CHAMFERA
 40
10.0
  9
$CHAMFERB
 40
10.0
  9
$CHAMFERC
 40
20.0
  9
$CHAMFERD
 40
0.0
  9
$SKPOLY
 70
     0
  9
$TDCREATE
 40
2455813.768523588
  9
$TDUCREATE
 40
2455813.685190255
  9
$TDUPDATE
 40
2455813.768523599
  9
$TDUUPDATE
 40
2455813.685190266
  9
$TDINDWG
 40
0.0000000116
  9
$TDUSRTIMER
 40
0.0000000116
  9
$USRTIMER
 70
     1
  9
$ANGBASE
 50
0.0
  9
$ANGDIR
 70
     0
  9
$PDMODE
 70
     0
  9
$PDSIZE
 40
0.0
  9
$PLINEWID
 40
0.0
  9
$SPLFRAME
 70
     0
  9
$SPLINETYPE
 70
     6
  9
$SPLINESEGS
 70
     8
  9
$HANDSEED
  5
E6
  9
$SURFTAB1
 70
     6
  9
$SURFTAB2
 70
     6
  9
$SURFTYPE
 70
     6
  9
$SURFU
 70
     6
  9
$SURFV
 70
     6
  9
$UCSBASE
  2

  9
$UCSNAME
  2

  9
$UCSORG
 10
0.0
 20
0.0
 30
0.0
  9
$UCSXDIR
 10
1.0
 20
0.0
 30
0.0
  9
$UCSYDIR
 10
0.0
 20
1.0
 30
0.0
  9
$UCSORTHOREF
  2

  9
$UCSORTHOVIEW
 70
     0
  9
$UCSORGTOP
 10
0.0
 20
0.0
 30
0.0
  9
$UCSORGBOTTOM
 10
0.0
 20
0.0
 30
0.0
  9
$UCSORGLEFT
 10
0.0
 20
0.0
 30
0.0
  9
$UCSORGRIGHT
 10
0.0
 20
0.0
 30
0.0
  9
$UCSORGFRONT
 10
0.0
 20
0.0
 30
0.0
  9
$UCSORGBACK
 10
0.0
 20
0.0
 30
0.0
  9
$PUCSBASE
  2

  9
$PUCSNAME
  2

  9
$PUCSORG
 10
0.0
 20
0.0
 30
0.0
  9
$PUCSXDIR
 10
1.0
 20
0.0
 30
0.0
  9
$PUCSYDIR
 10
0.0
 20
1.0
 30
0.0
  9
$PUCSORTHOREF
  2

  9
$PUCSORTHOVIEW
 70
     0
  9
$PUCSORGTOP
 10
0.0
 20
0.0
 30
0.0
  9
$PUCSORGBOTTOM
 10
0.0
 20
0.0
 30
0.0
  9
$PUCSORGLEFT
 10
0.0
 20
0.0
 30
0.0
  9
$PUCSORGRIGHT
 10
0.0
 20
0.0
 30
0.0
  9
$PUCSORGFRONT
 10
0.0
 20
0.0
 30
0.0
  9
$PUCSORGBACK
 10
0.0
 20
0.0
 30
0.0
  9
$USERI1
 70
     0
  9
$USERI2
 70
     0
  9
$USERI3
 70
     0
  9
$USERI4
 70
     0
  9
$USERI5
 70
     0
  9
$USERR1
 40
0.0
  9
$USERR2
 40
0.0
  9
$USERR3
 40
0.0
  9
$USERR4
 40
0.0
  9
$USERR5
 40
0.0
  9
$WORLDVIEW
 70
     1
  9
$SHADEDGE
 70
     3
  9
$SHADEDIF
 70
    70
  9
$TILEMODE
 70
     1
  9
$MAXACTVP
 70
    64
  9
$PINSBASE
 10
0.0
 20
0.0
 30
0.0
  9
$PLIMCHECK
 70
     0
  9
$PEXTMIN
 10
1.000E+20
 20
1.000E+20
 30
1.000E+20
  9
$PEXTMAX
 10
-1.000E+20
 20
-1.000E+20
 30
-1.000E+20
  9
$PLIMMIN
 10
0.0
 20
0.0
  9
$PLIMMAX
 10
420.0
 20
297.0
  9
$UNITMODE
 70
     0
  9
$VISRETAIN
 70
     1
  9
$PLINEGEN
 70
     0
  9
$PSLTSCALE
 70
     1
  9
$TREEDEPTH
 70
  3020
  9
$CMLSTYLE
  2
Standard
  9
$CMLJUST
 70
     0
  9
$CMLSCALE
 40
20.0
  9
$PROXYGRAPHICS
 70
     1
  9
$MEASUREMENT
 70
     1
  9
$CELWEIGHT
370
    -1
  9
$ENDCAPS
280
     0
  9
$JOINSTYLE
280
     0
  9
$LWDISPLAY
290
     0
  9
$INSUNITS
 70
     4
  9
$HYPERLINKBASE
  1

  9
$STYLESHEET
  1

  9
$XEDIT
290
     1
  9
$CEPSNTYPE
380
     0
  9
$PSTYLEMODE
290
     1
  9
$FINGERPRINTGUID
  2
{43D5D914-8FE4-43E3-9B4B-5C2E4833900D}
  9
$VERSIONGUID
  2
{FAEB1C32-E019-11D5-929B-00C0DF256EC4}
  9
$EXTNAMES
290
     1
  9
$PSVPSCALE
 40
0.0
  9
$OLESTARTUP
290
     0
  9
$SORTENTS
280
   127
  9
$INDEXCTL
280
     0
  9
$HIDETEXT
280
     1
  9
$XCLIPFRAME
290
     0
  9
$HALOGAP
280
     0
  9
$OBSCOLOR
 70
   257
  9
$OBSLTYPE
280
     0
  9
$INTERSECTIONDISPLAY
280
     0
  9
$INTERSECTIONCOLOR
 70
   257
  9
$DIMASSOC
280
     2
  9
$PROJECTNAME
  1

  0
ENDSEC
  0
SECTION
  2
CLASSES
  0
CLASS
  1
ACDBDICTIONARYWDFLT
  2
AcDbDictionaryWithDefault
  3
ObjectDBX Classes
 90
        0
 91
        4
280
     0
281
     0
  0
CLASS
  1
VISUALSTYLE
  2
AcDbVisualStyle
  3
ObjectDBX Classes
 90
     4095
 91
        4
280
     0
281
     0
  0
ENDSEC
  0
SECTION
  2
TABLES
  0
TABLE
  2
VPORT
  5
8
330
0
100
AcDbSymbolTable
 70
     1
  0
VPORT
  5
29
330
8
100
AcDbSymbolTableRecord
100
AcDbViewportTableRecord
  2
*Active
 70
     0
 10
0.0
 20
0.0
 11
1.0
 21
1.0
 12
344.187
 22
148.5
 13
0.0
 23
0.0
 14
10.0
 24
10.0
 15
10.0
 25
10.0
 16
0.0
 26
0.0
 36
1.0
 17
0.0
 27
0.0
 37
0.0
 40
297.0
 41
1.973
 42
50.0
 43
0.0
 44
0.0
 50
0.0
 51
0.0
 71
     0
 72
   100
 73
     1
 74
     3
 75
     0
 76
     0
 77
     0
 78
     0
281
     0
 65
     1
110
0.0
120
0.0
130
0.0
111
1.0
121
0.0
131
0.0
112
0.0
122
1.0
132
0.0
 79
     0
146
0.0
  0
ENDTAB
  0
TABLE
  2
LTYPE
  5
5
330
0
100
AcDbSymbolTable
 70
     2
  0
LTYPE
  5
14
330
5
100
AcDbSymbolTableRecord
100
AcDbLinetypeTableRecord
  2
ByBlock
 70
     0
  3

 72
    65
 73
     0
 40
0.0
  0
LTYPE
  5
15
330
5
100
AcDbSymbolTableRecord
100
AcDbLinetypeTableRecord
  2
ByLayer
 70
     0
  3

 72
    65
 73
     0
 40
0.0
  0
LTYPE
  5
16
330
5
100
AcDbSymbolTableRecord
100
AcDbLinetypeTableRecord
  2
Continuous
 70
     0
  3
Solid line
 72
    65
 73
     0
 40
0.0
  0
LTYPE
  5
D4
330
5
100
AcDbSymbolTableRecord
100
AcDbLinetypeTableRecord
  2
HIDDEN2
 70
     0
  3
Hidden (.5x) _ _ _ _ _ _ _ _ _ _ _ _ _ _ _ _ _ 
 72
    65
 73
     2
 40
4.762
 49
3.175
 74
     0
 49
-1.587
 74
     0
  0
ENDTAB
  0
TABLE
  2
LAYER
  5
2
330
0
100
AcDbSymbolTable
 70
     1
  0
LAYER
  5
10
330
2
100
AcDbSymbolTableRecord
100
AcDbLayerTableRecord
  2
0
 70
     0
 62
    72
  6
Continuous
370
     0
390
F
  0
ENDTAB
  0
TABLE
  2
STYLE
  5
3
330
0
100
AcDbSymbolTable
 70
     3
  0
STYLE
  5
11
330
3
100
AcDbSymbolTableRecord
100
AcDbTextStyleTableRecord
  2
Standard
 70
     0
 40
0.0
 41
1.0
 50
0.0
 71
     0
 42
2.5
  3
txt
  4

  0
STYLE
  5
3B
330
3
100
AcDbSymbolTableRecord
100
AcDbTextStyleTableRecord
  2
Default
 70
     0
 40
0.0
 41
1.0
 50
0.0
 71
     0
 42
0.2
  3

  4

1001
ACAD
1000
txt
1071
        0
  0
STYLE
  5
3C
330
3
100
AcDbSymbolTableRecord
100
AcDbTextStyleTableRecord
  2
ISO
 70
     0
 40
0.0
 41
1.0
 50
0.0
 71
     0
 42
0.2
  3

  4

1001
ACAD
1000
txt
1071
        0
  0
ENDTAB
  0
TABLE
  2
VIEW
  5
6
330
0
100
AcDbSymbolTable
 70
     0
  0
ENDTAB
  0
TABLE
  2
UCS
  5
7
330
0
100
AcDbSymbolTable
 70
     0
  0
ENDTAB
  0
TABLE
  2
APPID
  5
9
330
0
100
AcDbSymbolTable
 70
     1
  0
APPID
  5
12
330
9
100
AcDbSymbolTableRecord
100
AcDbRegAppTableRecord
  2
ACAD
 70
     0
  0
ENDTAB
  0
TABLE
  2
DIMSTYLE
  5
A
330
0
100
AcDbSymbolTable
 70
     3
100
AcDbDimStyleTable
  0
DIMSTYLE
105
27
330
A
100
AcDbSymbolTableRecord
100
AcDbDimStyleTableRecord
  2
ISO-25
 70
     0
 41
2.5
 42
0.625
 43
3.75
 44
1.25
 73
     0
 74
     0
 77
     1
 78
     8
140
2.5
141
2.5
143
0.039
147
0.625
171
     3
172
     1
271
     2
272
     2
274
     3
278
    44
283
     0
284
     8
340
11
  0
DIMSTYLE
105
3D
330
A
100
AcDbSymbolTableRecord
100
AcDbDimStyleTableRecord
  2
Default
 70
     0
  3
<>
 41
4.375
 42
1.05
 44
2.1
 73
     0
 74
     0
 77
     1
 78
     8
140
3.5
146
0.4
147
1.75
178
    12
271
     2
272
     3
284
     8
340
3B
341
3E
342
3E
  0
DIMSTYLE
105
45
330
A
100
AcDbSymbolTableRecord
100
AcDbDimStyleTableRecord
  2
ISO
 70
     0
  3
<>
 41
4.375
 42
1.05
 44
2.1
 73
     0
 74
     0
 77
     1
 78
     8
140
3.5
146
0.4
147
1.75
178
    12
271
     2
272
     3
284
     8
340
3C
341
3E
342
3E
  0
ENDTAB
  0
TABLE
  2
BLOCK_RECORD
  5
1
330
0
100
AcDbSymbolTable
 70
     5
  0
BLOCK_RECORD
  5
1F
330
1
100
AcDbSymbolTableRecord
100
AcDbBlockTableRecord
  2
*Model_Space
340
22
  0
BLOCK_RECORD
  5
1B
330
1
100
AcDbSymbolTableRecord
100
AcDbBlockTableRecord
  2
*Paper_Space
340
1E
  0
BLOCK_RECORD
  5
23
330
1
100
AcDbSymbolTableRecord
100
AcDbBlockTableRecord
  2
*Paper_Space0
340
26
  0
BLOCK_RECORD
  5
3E
330
1
100
AcDbSymbolTableRecord
100
AcDbBlockTableRecord
  2
_CLOSED
340
0
  0
BLOCK_RECORD
  5
46
330
1
100
AcDbSymbolTableRecord
100
AcDbBlockTableRecord
  2
a
340
0
102
{BLKREFS
331
8A
102
}
  0
BLOCK_RECORD
  5
8B
330
1
100
AcDbSymbolTableRecord
100
AcDbBlockTableRecord
  2
b
340
0
102
{BLKREFS
331
A7
102
}
  0
BLOCK_RECORD
  5
A8
330
1
100
AcDbSymbolTableRecord
100
AcDbBlockTableRecord
  2
c
340
0
102
{BLKREFS
331
E3
102
}
  0
ENDTAB
  0
ENDSEC
  0
SECTION
  2
BLOCKS
  0
BLOCK
  5
20
330
1F
100
AcDbEntity
  8
0
100
AcDbBlockBegin
  2
*Model_Space
 70
     0
 10
0.0
 20
0.0
 30
0.0
  3
*Model_Space
  1

  0
ENDBLK
  5
21
330
1F
100
AcDbEntity
  8
0
100
AcDbBlockEnd
  0
BLOCK
  5
1C
330
1B
100
AcDbEntity
 67
     1
  8
0
100
AcDbBlockBegin
  2
*Paper_Space
 70
     0
 10
0.0
 20
0.0
 30
0.0
  3
*Paper_Space
  1

  0
ENDBLK
  5
1D
330
1B
100
AcDbEntity
 67
     1
  8
0
100
AcDbBlockEnd
  0
BLOCK
  5
24
330
23
100
AcDbEntity
  8
0
100
AcDbBlockBegin
  2
*Paper_Space0
 70
     0
 10
0.0
 20
0.0
 30
0.0
  3
*Paper_Space0
  1

  0
ENDBLK
  5
25
330
23
100
AcDbEntity
  8
0
100
AcDbBlockEnd
  0
BLOCK
  5
3F
330
3E
100
AcDbEntity
  8
0
100
AcDbBlockBegin
  2
_CLOSED
 70
     0
 10
0.0
 20
0.0
 30
0.0
  3
_CLOSED
  1

  0
LINE
  5
41
330
3E
100
AcDbEntity
  8
0
  6
ByBlock
 62
     0
370
    -2
100
AcDbLine
 10
-1.0
 20
0.167
 30
0.0
 11
0.0
 21
0.0
 31
0.0
  0
LINE
  5
42
330
3E
100
AcDbEntity
  8
0
  6
ByBlock
 62
     0
370
    -2
100
AcDbLine
 10
0.0
 20
0.0
 30
0.0
 11
-1.0
 21
-0.167
 31
0.0
  0
LINE
  5
43
330
3E
100
AcDbEntity
  8
0
  6
ByBlock
 62
     0
370
    -2
100
AcDbLine
 10
-1.0
 20
0.167
 30
0.0
 11
-1.0
 21
-0.167
 31
0.0
  0
LINE
  5
44
330
3E
100
AcDbEntity
  8
0
  6
ByBlock
 62
     0
370
    -2
100
AcDbLine
 10
0.0
 20
0.0
 30
0.0
 11
-1.0
 21
0.0
 31
0.0
  0
ENDBLK
  5
40
330
3E
100
AcDbEntity
  8
0
100
AcDbBlockEnd
  0
BLOCK
  5
88
330
46
100
AcDbEntity
  8
0
100
AcDbBlockBegin
  2
a
 70
     0
 10
70.36
 20
10.541
 30
0.0
  3
a
  1

  0
ELLIPSE
  5
47
330
46
100
AcDbEntity
  8
0
  6
Continuous
 62
     0
370
     0
100
AcDbEllipse
 10
92.421
 20
34.022
 30
0.0
 11
-13.0
 21
0.0
 31
0.0
210
0.0
220
0.0
230
1.0
 40
0.577
 41
0.0
 42
6.283185307179586
  0
LINE
  5
48
330
46
100
AcDbEntity
  8
0
  6
Continuous
 62
     0
370
    30
100
AcDbLine
 10
104.713
 20
27.425
 30
0.0
 11
104.713
 21
20.485
 31
0.0
  0
LINE
  5
49
330
46
100
AcDbEntity
  8
0
  6
Continuous
 62
     0
370
    30
100
AcDbLine
 10
101.019
 20
18.353
 30
0.0
 11
101.019
 21
25.293
 31
0.0
  0
SPLINE
  5
4A
330
46
100
AcDbEntity
  8
0
  6
Continuous
 62
     0
370
    30
100
AcDbSpline
210
0.0
220
0.0
230
1.0
 70
     8
 71
     3
 72
    15
 73
    11
 74
     0
 42
0.0
 43
0.0
 40
0.0
 40
0.0
 40
0.0
 40
0.0
 40
0.6619996057529709
 40
1.268341474061093
 40
1.732847607160499
 40
2.16196413708554
 40
2.526235038615164
 40
2.982164439674535
 40
3.531264570004079
 40
3.875554419605522
 40
3.875554419605522
 40
3.875554419605522
 40
3.875554419605522
 10
102.1045126482753
 20
28.33029703078667
 30
0.0
 10
101.9487356203557
 20
28.24035912178373
 30
0.0
 10
101.6761904516231
 20
28.03833924891691
 30
0.0
 10
101.3884211563369
 20
27.68416501535998
 30
0.0
 10
101.208453650441
 20
27.31022678065816
 30
0.0
 10
101.1080091772671
 20
26.94727236754542
 30
0.0
 10
101.0493334313264
 20
26.5504080731377
 30
0.0
 10
101.0222769681983
 20
26.09143742051654
 30
0.0
 10
101.0193665766131
 20
25.64807700211425
 30
0.0
 10
101.0193605518715
 20
25.38647963084905
 30
0.0
 10
101.0193605518715
 20
25.29294406690238
 30
0.0
  0
SPLINE
  5
4B
330
46
100
AcDbEntity
  8
0
  6
Continuous
 62
     0
370
    30
100
AcDbSpline
210
0.0
220
0.0
230
1.0
 70
     8
 71
     3
 72
    15
 73
    11
 74
     0
 42
0.0
 43
0.0
 40
0.0
 40
0.0
 40
0.0
 40
0.0
 40
0.3442898496014666
 40
0.8933899799310185
 40
1.34931938099038
 40
1.713590282519995
 40
2.142706812445005
 40
2.607212945544449
 40
3.213554813852568
 40
3.87555441960553
 40
3.87555441960553
 40
3.87555441960553
 40
3.87555441960553
 10
104.7126694283663
 20
27.42527694094707
 30
0.0
 10
104.7126694283663
 20
27.51881250489379
 30
0.0
 10
104.6813028125862
 20
27.76229687370861
 30
0.0
 10
104.5124455745354
 20
28.10648720490246
 30
0.0
 10
104.2222737804997
 20
28.3823060378556
 30
0.0
 10
103.8954421607226
 20
28.55659755089152
 30
0.0
 10
103.5309841900184
 20
28.65114041288433
 30
0.0
 10
103.0839204344257
 20
28.66306197997541
 30
0.0
 10
102.5864919133692
 20
28.56390204289971
 30
0.0
 10
102.2602896761949
 20
28.42023493978957
 30
0.0
 10
102.1045126482753
 20
28.33029703078667
 30
0.0
  0
SPLINE
  5
4C
330
46
100
AcDbEntity
  8
0
  6
Continuous
 62
     0
370
    30
100
AcDbSpline
210
0.0
220
0.0
230
1.0
 70
     8
 71
     3
 72
    15
 73
    11
 74
     0
 42
0.0
 43
0.0
 40
0.0
 40
0.0
 40
0.0
 40
0.0
 40
0.6619996057529707
 40
1.268341474061092
 40
1.732847607160499
 40
2.16196413708554
 40
2.526235038615155
 40
2.982164439674542
 40
3.531264570004058
 40
3.875554419605522
 40
3.875554419605522
 40
3.875554419605522
 40
3.875554419605522
 10
102.1045126482753
 20
18.32701020328103
 30
0.0
 10
101.9487356203557
 20
18.23707229427806
 30
0.0
 10
101.6761904516231
 20
18.06242626825922
 30
0.0
 10
101.3884211563369
 20
17.84221952074698
 30
0.0
 10
101.2084536504411
 20
17.69993299617602
 30
0.0
 10
101.1080091772671
 20
17.64204759429998
 30
0.0
 10
101.0493334313264
 20
17.66151924139176
 30
0.0
 10
101.0222769681983
 20
17.78542836721745
 30
0.0
 10
101.019366576613
 20
18.03380924193326
 30
0.0
 10
101.0193605518715
 20
18.25918756507001
 30
0.0
 10
101.0193605518715
 20
18.35272312901674
 30
0.0
  0
SPLINE
  5
4D
330
46
100
AcDbEntity
  8
0
  6
Continuous
 62
     0
370
    30
100
AcDbSpline
210
0.0
220
0.0
230
1.0
 70
     8
 71
     3
 72
    15
 73
    11
 74
     0
 42
0.0
 43
0.0
 40
0.0
 40
0.0
 40
0.0
 40
0.0
 40
0.3442898496014786
 40
0.8933899799310094
 40
1.349319380990356
 40
1.713590282519978
 40
2.142706812444998
 40
2.607212945544448
 40
3.213554813852567
 40
3.875554419605528
 40
3.875554419605528
 40
3.875554419605528
 40
3.875554419605528
 10
104.7126694283663
 20
20.4850560030614
 30
0.0
 10
104.7126694283663
 20
20.39152043911474
 30
0.0
 10
104.6813028125862
 20
20.14802911352758
 30
0.0
 10
104.5124455745354
 20
19.8004781516033
 30
0.0
 10
104.2222737804997
 20
19.4934172061096
 30
0.0
 10
103.8954421607227
 20
19.25137277764613
 30
0.0
 10
103.5309841900184
 20
19.04084662840215
 30
0.0
 10
103.0839204344257
 20
18.82111648536237
 30
0.0
 10
102.5864919133692
 20
18.58798906224203
 30
0.0
 10
102.2602896761948
 20
18.41694811228396
 30
0.0
 10
102.1045126482753
 20
18.32701020328103
 30
0.0
  0
ELLIPSE
  5
4E
330
46
100
AcDbEntity
  8
0
  6
Continuous
 62
     0
370
     0
100
AcDbEllipse
 10
92.421
 20
25.449
 30
0.0
 11
-15.0
 21
0.0
 31
0.0
210
0.0
220
0.0
230
1.0
 40
0.577
 41
2.531190542409528
 42
2.752397102264217
  0
ELLIPSE
  5
4F
330
46
100
AcDbEntity
  8
0
  6
Continuous
 62
     0
370
     0
100
AcDbEllipse
 10
92.421
 20
25.449
 30
0.0
 11
-15.0
 21
0.0
 31
0.0
210
0.0
220
0.0
230
1.0
 40
0.577
 41
3.102389206698581
 42
3.141592662229479
  0
ELLIPSE
  5
50
330
46
100
AcDbEntity
  8
0
  6
Continuous
 62
     0
370
     0
100
AcDbEllipse
 10
92.421
 20
25.449
 30
0.0
 11
-15.0
 21
0.0
 31
0.0
210
0.0
220
0.0
230
1.0
 40
0.577
 41
0.2463958852533139
 42
0.4676024451080014
  0
ELLIPSE
  5
51
330
46
100
AcDbEntity
  8
0
  6
Continuous
 62
     0
370
     0
100
AcDbEllipse
 10
92.421
 20
25.449
 30
0.0
 11
-15.0
 21
0.0
 31
0.0
210
0.0
220
0.0
230
1.0
 40
0.577
 41
0.8175945495423669
 42
1.038801109397054
  0
ELLIPSE
  5
52
330
46
100
AcDbEntity
  8
0
  6
Continuous
 62
     0
370
     0
100
AcDbEllipse
 10
92.421
 20
25.449
 30
0.0
 11
-15.0
 21
0.0
 31
0.0
210
0.0
220
0.0
230
1.0
 40
0.577
 41
1.388793213831421
 42
1.60999977368611
  0
ELLIPSE
  5
53
330
46
100
AcDbEntity
  8
0
  6
Continuous
 62
     0
370
     0
100
AcDbEllipse
 10
92.421
 20
25.449
 30
0.0
 11
-15.0
 21
0.0
 31
0.0
210
0.0
220
0.0
230
1.0
 40
0.577
 41
1.959991878120475
 42
2.181198437975162
  0
ELLIPSE
  5
54
330
46
100
AcDbEntity
  8
0
  6
Continuous
 62
     0
370
     0
100
AcDbEllipse
 10
92.421
 20
32.389
 30
0.0
 11
-15.0
 21
0.0
 31
0.0
210
0.0
220
0.0
230
1.0
 40
0.577
 41
2.531190542409528
 42
2.752397102264217
  0
ELLIPSE
  5
55
330
46
100
AcDbEntity
  8
0
  6
Continuous
 62
     0
370
     0
100
AcDbEllipse
 10
92.421
 20
32.389
 30
0.0
 11
-15.0
 21
0.0
 31
0.0
210
0.0
220
0.0
230
1.0
 40
0.577
 41
3.102389206698581
 42
3.141592662229479
  0
ELLIPSE
  5
56
330
46
100
AcDbEntity
  8
0
  6
Continuous
 62
     0
370
     0
100
AcDbEllipse
 10
92.421
 20
32.389
 30
0.0
 11
-15.0
 21
0.0
 31
0.0
210
0.0
220
0.0
230
1.0
 40
0.577
 41
0.2463958852533139
 42
0.4676024451080005
  0
ELLIPSE
  5
57
330
46
100
AcDbEntity
  8
0
  6
Continuous
 62
     0
370
     0
100
AcDbEllipse
 10
92.421
 20
32.389
 30
0.0
 11
-15.0
 21
0.0
 31
0.0
210
0.0
220
0.0
230
1.0
 40
0.577
 41
0.8175945495423669
 42
1.038801109397054
  0
ELLIPSE
  5
58
330
46
100
AcDbEntity
  8
0
  6
Continuous
 62
     0
370
     0
100
AcDbEllipse
 10
92.421
 20
32.389
 30
0.0
 11
-15.0
 21
0.0
 31
0.0
210
0.0
220
0.0
230
1.0
 40
0.577
 41
1.388793213831421
 42
1.60999977368611
  0
ELLIPSE
  5
59
330
46
100
AcDbEntity
  8
0
  6
Continuous
 62
     0
370
     0
100
AcDbEllipse
 10
92.421
 20
32.389
 30
0.0
 11
-15.0
 21
0.0
 31
0.0
210
0.0
220
0.0
230
1.0
 40
0.577
 41
1.959991878120475
 42
2.181198437975162
  0
LINE
  5
5A
330
46
100
AcDbEntity
  8
0
  6
Continuous
 62
     0
370
    30
100
AcDbLine
 10
98.113
 20
24.377
 30
0.0
 11
98.113
 21
17.436
 31
0.0
  0
LINE
  5
5B
330
46
100
AcDbEntity
  8
0
  6
Continuous
 62
     0
370
    30
100
AcDbLine
 10
93.009
 20
16.795
 30
0.0
 11
93.009
 21
23.736
 31
0.0
  0
LINE
  5
5C
330
46
100
AcDbEntity
  8
0
  6
Continuous
 62
     0
370
    30
100
AcDbLine
 10
89.706
 20
23.872
 30
0.0
 11
89.706
 21
16.932
 31
0.0
  0
LINE
  5
5D
330
46
100
AcDbEntity
  8
0
  6
Continuous
 62
     0
370
    30
100
AcDbLine
 10
84.813
 20
17.986
 30
0.0
 11
84.813
 21
24.926
 31
0.0
  0
LINE
  5
5E
330
46
100
AcDbEntity
  8
0
  6
Continuous
 62
     0
370
    30
100
AcDbLine
 10
82.162
 20
26.072
 30
0.0
 11
82.162
 21
19.131
 31
0.0
  0
LINE
  5
5F
330
46
100
AcDbEntity
  8
0
  6
Continuous
 62
     0
370
    30
100
AcDbLine
 10
79.032
 20
21.546
 30
0.0
 11
79.032
 21
28.486
 31
0.0
  0
LINE
  5
60
330
46
100
AcDbEntity
  8
0
  6
Continuous
 62
     0
370
    30
100
AcDbLine
 10
77.874
 20
30.277
 30
0.0
 11
77.874
 21
23.337
 31
0.0
  0
LINE
  5
61
330
46
100
AcDbEntity
  8
0
  6
Continuous
 62
     0
370
    30
100
AcDbLine
 10
77.502
 20
26.345
 30
0.0
 11
77.502
 21
33.285
 31
0.0
  0
LINE
  5
62
330
46
100
AcDbEntity
  8
0
  6
Continuous
 62
     0
370
    30
100
AcDbLine
 10
105.348
 20
36.782
 30
0.0
 11
105.348
 21
36.546
 31
0.0
  0
LINE
  5
63
330
46
100
AcDbEntity
  8
0
  6
Continuous
 62
     0
370
    30
100
AcDbLine
 10
107.41
 20
32.05
 30
0.0
 11
107.41
 21
25.11
 31
0.0
  0
LINE
  5
64
330
46
100
AcDbEntity
  8
0
  6
Continuous
 62
     0
370
    30
100
AcDbLine
 10
106.3
 20
22.163
 30
0.0
 11
106.3
 21
29.103
 31
0.0
  0
SPLINE
  5
65
330
46
100
AcDbEntity
  8
0
  6
Continuous
 62
     0
370
    30
100
AcDbSpline
210
0.0
220
0.0
230
1.0
 70
     8
 71
     3
 72
    23
 73
    19
 74
     0
 42
0.0
 43
0.0
 40
0.0
 40
0.0
 40
0.0
 40
0.0
 40
0.3272101300962191
 40
0.8865758289736697
 40
1.33536734587492
 40
1.673984426771012
 40
2.200227040267084
 40
2.764908836031083
 40
3.278203970736751
 40
3.95756555125876
 40
4.647581944190122
 40
5.183530552735045
 40
5.661164851905375
 40
6.205228636610077
 40
6.482725803799315
 40
6.930127592519493
 40
7.416761489628878
 40
7.751108947127835
 40
7.751108947127835
 40
7.751108947127835
 40
7.751108947127835
 10
98.11306925552329
 20
24.37671510599503
 30
0.0
 10
98.11306925552326
 20
24.46562602169176
 30
0.0
 10
98.08818468230874
 20
24.71643567656879
 30
0.0
 10
97.94873797164038
 20
25.10992367436205
 30
0.0
 10
97.69647895032917
 20
25.47368995373434
 30
0.0
 10
97.3786217580914
 20
25.7740383039003
 30
0.0
 10
96.96583212054715
 20
26.01960511150585
 30
0.0
 10
96.45116387659745
 20
26.17630574138366
 30
0.0
 10
95.86781476029996
 20
26.2402969339759
 30
0.0
 10
95.24382711260344
 20
26.20339049024497
 30
0.0
 10
94.6404406200069
 20
26.05735961754624
 30
0.0
 10
94.14491585411538
 20
25.82894237670574
 30
0.0
 10
93.74192924722583
 20
25.53334724466255
 30
0.0
 10
93.4646645669417
 20
25.20816653378212
 30
0.0
 10
93.2539619498324
 20
24.84110686856974
 30
0.0
 10
93.10658919884317
 20
24.46241362883211
 30
0.0
 10
93.02445426606499
 20
24.06388808767508
 30
0.0
 10
93.00930658523113
 20
23.82655273168589
 30
0.0
 10
93.00930658523113
 20
23.73570873064384
 30
0.0
  0
SPLINE
  5
66
330
46
100
AcDbEntity
  8
0
  6
Continuous
 62
     0
370
    30
100
AcDbSpline
210
0.0
220
0.0
230
1.0
 70
     8
 71
     3
 72
    23
 73
    19
 74
     0
 42
0.0
 43
0.0
 40
0.0
 40
0.0
 40
0.0
 40
0.0
 40
0.3272101300963995
 40
0.8865758289743673
 40
1.335367345875587
 40
1.673984426771709
 40
2.200227040488937
 40
2.764908836384631
 40
3.278203970734932
 40
3.957565552277428
 40
4.647581945507446
 40
5.18353055423835
 40
5.661164853430665
 40
6.205228637951895
 40
6.482725805034244
 40
6.930127593660354
 40
7.416761490746727
 40
7.751108947122744
 40
7.751108947122744
 40
7.751108947122744
 40
7.751108947122744
 10
89.70640605590975
 20
23.87209509244285
 30
0.0
 10
89.70640605590974
 20
23.96100600813968
 30
0.0
 10
89.6940982390195
 20
24.21812071539885
 30
0.0
 10
89.62361732350884
 20
24.64719676429291
 30
0.0
 10
89.48235666049095
 20
25.07767459987291
 30
0.0
 10
89.28738891080037
 20
25.46495977005644
 30
0.0
 10
89.00963946698876
 20
25.82759044655391
 30
0.0
 10
88.62181621031797
 20
26.13728625012816
 30
0.0
 10
88.1362151765275
 20
26.3824915748624
 30
0.0
 10
87.56223707205888
 20
26.5486706761922
 30
0.0
 10
86.94297078743614
 20
26.60991042459511
 30
0.0
 10
86.38152203774169
 20
26.56067697248534
 30
0.0
 10
85.88400369966368
 20
26.417740242363
 30
0.0
 10
85.50825976496262
 20
26.20326103533702
 30
0.0
 10
85.20223832285197
 20
25.92379918916784
 30
0.0
 10
84.9738121734087
 20
25.60881338380538
 30
0.0
 10
84.83808523875884
 20
25.24722094904315
 30
0.0
 10
84.81259817817417
 20
25.01677421156258
 30
0.0
 10
84.81259817817416
 20
24.92593021082456
 30
0.0
  0
SPLINE
  5
67
330
46
100
AcDbEntity
  8
0
  6
Continuous
 62
     0
370
    30
100
AcDbSpline
210
0.0
220
0.0
230
1.0
 70
     8
 71
     3
 72
    23
 73
    19
 74
     0
 42
0.0
 43
0.0
 40
0.0
 40
0.0
 40
0.0
 40
0.0
 40
0.3272101300961545
 40
0.8865758289734058
 40
1.335367345874672
 40
1.673984426770709
 40
2.200227040487702
 40
2.764908836382976
 40
3.278203970732141
 40
3.957565552273474
 40
4.647581945502379
 40
5.18353055423253
 40
5.661164853424742
 40
6.205228637946656
 40
6.482725805029453
 40
6.930127593655943
 40
7.416761490742394
 40
7.751108947122765
 40
7.751108947122765
 40
7.751108947122765
 40
7.751108947122765
 10
82.16173599675928
 20
26.07163018911871
 30
0.0
 10
82.16173599675926
 20
26.16054110481541
 30
0.0
 10
82.16591258109331
 20
26.41903426199532
 30
0.0
 10
82.18677465341973
 20
26.85652196188917
 30
0.0
 10
82.20136161110635
 20
27.30847419976786
 30
0.0
 10
82.19118418695811
 20
27.73053667421652
 30
0.0
 10
82.13665842297627
 20
28.1494964165406
 30
0.0
 10
81.9988112973353
 20
28.54830666763857
 30
0.0
 10
81.76513324344008
 20
28.91544802048344
 30
0.0
 10
81.42339867515727
 20
29.23686361918635
 30
0.0
 10
80.9848652687591
 20
29.47742721429701
 30
0.0
 10
80.53574854630827
 20
29.59951021212952
 30
0.0
 10
80.10165703391384
 20
29.61450495375608
 30
0.0
 10
79.74672988893019
 20
29.52389300609893
 30
0.0
 10
79.44254926718268
 20
29.3478758690645
 30
0.0
 10
79.20559340754308
 20
29.1117841045738
 30
0.0
 10
79.05936681352195
 20
28.79798993613949
 30
0.0
 10
79.03163233476717
 20
28.57656559792946
 30
0.0
 10
79.03163233476718
 20
28.48572159719023
 30
0.0
  0
SPLINE
  5
68
330
46
100
AcDbEntity
  8
0
  6
Continuous
 62
     0
370
    30
100
AcDbSpline
210
0.0
220
0.0
230
1.0
 70
     8
 71
     3
 72
    23
 73
    19
 74
     0
 42
0.0
 43
0.0
 40
0.0
 40
0.0
 40
0.0
 40
0.0
 40
0.3272101300962095
 40
0.8865758289736005
 40
1.335367345874837
 40
1.673984426771006
 40
2.200227040488035
 40
2.764908836383357
 40
3.278203970732847
 40
3.95756555227458
 40
4.647581945503808
 40
5.183530554234145
 40
5.661164853426398
 40
6.205228637948132
 40
6.482725805030789
 40
6.93012759365716
 40
7.416761490743558
 40
7.751108947122744
 40
7.751108947122744
 40
7.751108947122744
 40
7.751108947122744
 10
77.87443851376084
 20
30.27698354400039
 30
0.0
 10
77.87443851376084
 20
30.36589445969713
 30
0.0
 10
77.89377346330333
 20
30.62040181622642
 30
0.0
 10
77.99935496290762
 20
31.03645412726317
 30
0.0
 10
78.16515828529954
 20
31.45782564252789
 30
0.0
 10
78.34300244695028
 20
31.85146435717689
 30
0.0
 10
78.52901190760156
 20
32.24813428181042
 30
0.0
 10
78.68490640139949
 20
32.64388504678045
 30
0.0
 10
78.77734245842
 20
33.03497049642488
 30
0.0
 10
78.77634973717029
 20
33.41448705361007
 30
0.0
 10
78.65778046699769
 20
33.74949366645056
 30
0.0
 10
78.46358715786054
 20
33.98063401272886
 30
0.0
 10
78.23074345919105
 20
34.10869116926008
 30
0.0
 10
78.00931996466267
 20
34.115785256693
 30
0.0
 10
77.80355536144688
 20
34.02621675461884
 30
0.0
 10
77.63330160279776
 20
33.8591573369773
 30
0.0
 10
77.52300125982114
 20
33.58885098340727
 30
0.0
 10
77.5018248639391
 20
33.37571827759274
 30
0.0
 10
77.50182486393906
 20
33.28487427685383
 30
0.0
  0
SPLINE
  5
69
330
46
100
AcDbEntity
  8
0
  6
Continuous
 62
     0
370
    30
100
AcDbSpline
210
0.0
220
0.0
230
1.0
 70
     8
 71
     3
 72
    22
 73
    18
 74
     0
 42
0.0
 43
0.0
 40
0.8841613088228988
 40
0.8841613088228988
 40
0.8841613088228988
 40
0.8841613088228988
 40
0.8865758289736192
 40
1.335367345874823
 40
1.673984426770887
 40
2.200227040487908
 40
2.764908836383246
 40
3.27820397073267
 40
3.957565552274225
 40
4.647581945503352
 40
5.183530554233617
 40
5.661164853425863
 40
6.205228637947648
 40
6.482725805030367
 40
6.930127593656789
 40
7.416761490743237
 40
7.751108947122802
 40
7.751108947122802
 40
7.751108947122802
 40
7.751108947122802
 10
78.42713732509775
 20
35.88266316742104
 30
0.0
 10
78.42752558935027
 20
35.88330908425482
 30
0.0
 10
78.50016662509051
 20
36.00399179490818
 30
0.0
 10
78.65521272056448
 20
36.20833916299173
 30
0.0
 10
78.9646142032769
 20
36.51937739667983
 30
0.0
 10
79.33210219908449
 20
36.82221547972986
 30
0.0
 10
79.7322429120385
 20
37.12370419014852
 30
0.0
 10
80.12144528499289
 20
37.43313972372813
 30
0.0
 10
80.46150959275904
 20
37.75517505670855
 30
0.0
 10
80.7005493643218
 20
38.06975886747462
 30
0.0
 10
80.8229344720454
 20
38.31307252313464
 30
0.0
 10
80.86526481623353
 20
38.47342651985667
 30
0.0
 10
80.84764536716933
 20
38.52104444231928
 30
0.0
 10
80.80562559014291
 20
38.4734816702489
 30
0.0
 10
80.75612829789947
 20
38.3436756230693
 30
0.0
 10
80.71677378551702
 20
38.09873955894932
 30
0.0
 10
80.70887882857471
 20
37.89053518395359
 30
0.0
 10
80.70887882857473
 20
37.79969118321462
 30
0.0
  0
SPLINE
  5
6A
330
46
100
AcDbEntity
  8
0
  6
Continuous
 62
     0
370
    30
100
AcDbSpline
210
0.0
220
0.0
230
1.0
 70
     8
 71
     3
 72
    15
 73
    11
 74
     0
 42
0.0
 43
0.0
 40
1.871367337695547
 40
1.871367337695547
 40
1.871367337695547
 40
1.871367337695547
 40
2.200227040487602
 40
2.764908836382852
 40
3.278203970732006
 40
3.957565552273351
 40
4.647581945502254
 40
5.183530554232356
 40
5.661164853424577
 40
5.680320169334508
 40
5.680320169334508
 40
5.680320169334508
 40
5.680320169334508
 10
83.98450184126585
 20
40.29644334382839
 30
0.0
 10
84.0811537742965
 20
40.33712234916381
 30
0.0
 10
84.35460785884068
 20
40.43745941284303
 30
0.0
 10
84.80829888725013
 20
40.56545317261335
 30
0.0
 10
85.37069857269772
 20
40.71356804870381
 30
0.0
 10
85.94385189454343
 20
40.88078985733446
 30
0.0
 10
86.46460726934454
 20
41.06656914157992
 30
0.0
 10
86.86471438695833
 20
41.22130712784096
 30
0.0
 10
87.06631295544248
 20
41.2886898472653
 30
0.0
 10
87.1517933347746
 20
41.30870693885706
 30
0.0
 10
87.15507216636777
 20
41.30945997633604
 30
0.0
  0
SPLINE
  5
6B
330
46
100
AcDbEntity
  8
0
  6
Continuous
 62
     0
370
    30
100
AcDbSpline
210
0.0
220
0.0
230
1.0
 70
     8
 71
     3
 72
    14
 73
    10
 74
     0
 42
0.0
 43
0.0
 40
2.181788275395794
 40
2.181788275395794
 40
2.181788275395794
 40
2.181788275395794
 40
2.20022704048789
 40
2.764908836383184
 40
3.278203970732492
 40
3.95756555227403
 40
4.647581945503124
 40
5.183530554233342
 40
5.608997958749224
 40
5.608997958749224
 40
5.608997958749224
 40
5.608997958749224
 10
91.81701904795155
 20
41.88740267544961
 30
0.0
 10
91.82200302844774
 20
41.88752671741623
 30
0.0
 10
91.98003511554168
 20
41.89108069710472
 30
0.0
 10
92.30146242060341
 20
41.87640101047882
 30
0.0
 10
92.85850149214112
 20
41.83474265657134
 30
0.0
 10
93.48277169808838
 20
41.79897084082839
 30
0.0
 10
94.11990652411022
 20
41.78845840118817
 30
0.0
 10
94.65383816792774
 20
41.78219184202292
 30
0.0
 10
94.94456809794922
 20
41.76475241107228
 30
0.0
 10
95.06658934502843
 20
41.75096605891379
 30
0.0
  0
SPLINE
  5
6C
330
46
100
AcDbEntity
  8
0
  6
Continuous
 62
     0
370
    30
100
AcDbSpline
210
0.0
220
0.0
230
1.0
 70
     8
 71
     3
 72
    15
 73
    11
 74
     0
 42
0.0
 43
0.0
 40
1.974951798310566
 40
1.974951798310566
 40
1.974951798310566
 40
1.974951798310566
 40
2.200227040487855
 40
2.764908836383166
 40
3.278203970732478
 40
3.957565552274055
 40
4.647581945503122
 40
5.183530554233364
 40
5.661164853425577
 40
6.053212289219058
 40
6.053212289219058
 40
6.053212289219058
 40
6.053212289219058
 10
99.47561655561361
 20
40.81253298335001
 30
0.0
 10
99.50366854166114
 20
40.80329690994733
 30
0.0
 10
99.61016791330368
 20
40.76027553204929
 30
0.0
 10
99.83270703442123
 20
40.64033102793709
 30
0.0
 10
100.2075295226857
 20
40.4406985311736
 30
0.0
 10
100.6847152332287
 20
40.21820203248721
 30
0.0
 10
101.2359437049888
 20
40.00623190699875
 30
0.0
 10
101.7625580210572
 20
39.81711872011265
 30
0.0
 10
102.2006491349049
 20
39.64447205591038
 30
0.0
 10
102.4579355761063
 20
39.51784283729156
 30
0.0
 10
102.5674091369266
 20
39.45521303343391
 30
0.0
  0
SPLINE
  5
6D
330
46
100
AcDbEntity
  8
0
  6
Continuous
 62
     0
370
    30
100
AcDbSpline
210
0.0
220
0.0
230
1.0
 70
     8
 71
     3
 72
    22
 73
    18
 74
     0
 42
0.0
 43
0.0
 40
0.0
 40
0.0
 40
0.0
 40
0.0
 40
0.3272101300963069
 40
0.8865758289739937
 40
1.335367345875213
 40
1.673984426771359
 40
2.200227040488468
 40
2.764908836383981
 40
3.278203970733891
 40
3.957565552275955
 40
4.647581945505533
 40
5.183530554236162
 40
5.661164853428453
 40
6.205228637949959
 40
6.482725805032471
 40
6.930127593658721
 40
7.239432875740598
 40
7.239432875740598
 40
7.239432875740598
 40
7.239432875740598
 10
105.3483560741749
 20
36.78225556009355
 30
0.0
 10
105.3483560741749
 20
36.87116647579032
 30
0.0
 10
105.3361040126575
 20
37.09723207526233
 30
0.0
 10
105.2702131852059
 20
37.35390413761911
 30
0.0
 10
105.1762102664565
 20
37.48695687249531
 30
0.0
 10
105.088837694633
 20
37.51730155096219
 30
0.0
 10
105.0203204150463
 20
37.44217465230307
 30
0.0
 10
105.0109157770484
 20
37.24968671079179
 30
0.0
 10
105.0845181903851
 20
36.97403483247874
 30
0.0
 10
105.2631163140599
 20
36.6403663597797
 30
0.0
 10
105.5534272865692
 20
36.28573397830507
 30
0.0
 10
105.8886616495503
 20
35.95051560560836
 30
0.0
 10
106.2362072957429
 20
35.61798028716352
 30
0.0
 10
106.5365485464665
 20
35.30817544279537
 30
0.0
 10
106.8022853673634
 20
34.97778494276737
 30
0.0
 10
106.9834266133916
 20
34.69139222148467
 30
0.0
 10
107.0731995965427
 20
34.47558974461257
 30
0.0
 10
107.1017841346272
 20
34.38747541786906
 30
0.0
  0
SPLINE
  5
6E
330
46
100
AcDbEntity
  8
0
  6
Continuous
 62
     0
370
    30
100
AcDbSpline
210
0.0
220
0.0
230
1.0
 70
     8
 71
     3
 72
    23
 73
    19
 74
     0
 42
0.0
 43
0.0
 40
0.0
 40
0.0
 40
0.0
 40
0.0
 40
0.3272101300962408
 40
0.8865758289736941
 40
1.335367345874867
 40
1.673984426770998
 40
2.200227040267196
 40
2.764908836386041
 40
3.278203970735518
 40
3.957565551257574
 40
4.647581944188985
 40
5.183530552733911
 40
5.661164851904252
 40
6.205228636608926
 40
6.482725803798155
 40
6.930127592518332
 40
7.416761489627715
 40
7.751108947126452
 40
7.751108947126452
 40
7.751108947126452
 40
7.751108947126452
 10
107.4098801501077
 20
32.04988375481035
 30
0.0
 10
107.4098801501077
 20
32.13879467050712
 30
0.0
 10
107.3850287151627
 20
32.37115025263728
 30
0.0
 10
107.2483101285856
 20
32.66216974372558
 30
0.0
 10
107.024138801663
 20
32.84916107411381
 30
0.0
 10
106.7702309265184
 20
32.93736143455692
 30
0.0
 10
106.481798665102
 20
32.9227465265121
 30
0.0
 10
106.1920439601994
 20
32.78097367258771
 30
0.0
 10
105.9410580525475
 20
32.53539279070327
 30
0.0
 10
105.7643649470414
 20
32.20140136944474
 30
0.0
 10
105.7015867376158
 20
31.8081964205216
 30
0.0
 10
105.7390066056923
 20
31.40980371476208
 30
0.0
 10
105.838284744967
 20
31.00152044463549
 30
0.0
 10
105.9628520685773
 20
30.619682831993
 30
0.0
 10
106.0919746297332
 20
30.22235366299503
 30
0.0
 10
106.2064887830977
 20
29.83146855315431
 30
0.0
 10
106.2844752091979
 20
29.43140374805444
 30
0.0
 10
106.2996245400238
 20
29.19406900427924
 30
0.0
 10
106.2996245400238
 20
29.1032250032372
 30
0.0
  0
SPLINE
  5
6F
330
46
100
AcDbEntity
  8
0
  6
Continuous
 62
     0
370
    30
100
AcDbSpline
210
0.0
220
0.0
230
1.0
 70
     8
 71
     3
 72
    23
 73
    19
 74
     0
 42
0.0
 43
0.0
 40
0.0
 40
0.0
 40
0.0
 40
0.0
 40
0.3272101300962209
 40
0.8865758289736718
 40
1.335367345874914
 40
1.673984426770991
 40
2.200227040267181
 40
2.764908836031204
 40
3.278203970736851
 40
3.957565551258889
 40
4.647581944190295
 40
5.18353055273522
 40
5.661164851905535
 40
6.205228636610255
 40
6.48272580379948
 40
6.93012759251963
 40
7.416761489628995
 40
7.75110894712783
 40
7.75110894712783
 40
7.75110894712783
 40
7.75110894712783
 10
98.11306925552327
 20
17.43649416810936
 30
0.0
 10
98.11306925552329
 20
17.3475832524126
 30
0.0
 10
98.08818468230876
 20
17.11519789970441
 30
0.0
 10
97.94873797164037
 20
16.82172753134979
 30
0.0
 10
97.69647895032917
 20
16.60950293102447
 30
0.0
 10
97.37862175809138
 20
16.46385213130829
 30
0.0
 10
96.96583212054709
 20
16.36674753691521
 30
0.0
 10
96.45116387659739
 20
16.30646379018165
 30
0.0
 10
95.86781476029984
 20
16.25345802265348
 30
0.0
 10
95.2438271126033
 20
16.18561140879186
 30
0.0
 10
94.64044062000677
 20
16.09314763206618
 30
0.0
 10
94.14491585411527
 20
16.0127564395995
 30
0.0
 10
93.74192924722571
 20
15.96981784204759
 30
0.0
 10
93.46466456694164
 20
15.99065980712533
 30
0.0
 10
93.25396194983232
 20
16.08269868292187
 30
0.0
 10
93.10658919884314
 20
16.23831126168088
 30
0.0
 10
93.02445426606495
 20
16.49452711229968
 30
0.0
 10
93.0093065852311
 20
16.70464379171614
 30
0.0
 10
93.00930658523109
 20
16.79548779275815
 30
0.0
  0
SPLINE
  5
70
330
46
100
AcDbEntity
  8
0
  6
Continuous
 62
     0
370
    30
100
AcDbSpline
210
0.0
220
0.0
230
1.0
 70
     8
 71
     3
 72
    23
 73
    19
 74
     0
 42
0.0
 43
0.0
 40
0.0
 40
0.0
 40
0.0
 40
0.0
 40
0.3272101300963995
 40
0.8865758289743684
 40
1.335367345875606
 40
1.673984426771775
 40
2.20022704048891
 40
2.764908836384567
 40
3.278203970734925
 40
3.957565552277429
 40
4.647581945507405
 40
5.183530554238329
 40
5.661164853430654
 40
6.205228637951858
 40
6.482725805034247
 40
6.930127593660371
 40
7.416761490746712
 40
7.751108947122747
 40
7.751108947122747
 40
7.751108947122747
 40
7.751108947122747
 10
89.70640605590975
 20
16.93187415455718
 30
0.0
 10
89.70640605590972
 20
16.84296323886039
 30
0.0
 10
89.6940982390195
 20
16.61688293853457
 30
0.0
 10
89.62361732350884
 20
16.35900062127675
 30
0.0
 10
89.48235666049092
 20
16.21348757717038
 30
0.0
 10
89.28738891080039
 20
16.1547735973613
 30
0.0
 10
89.00963946698874
 20
16.17473287201477
 30
0.0
 10
88.62181621031802
 20
16.2674442990068
 30
0.0
 10
88.13621517652751
 20
16.39565266342206
 30
0.0
 10
87.5622370720589
 20
16.5308915947376
 30
0.0
 10
86.94297078743614
 20
16.64569843929502
 30
0.0
 10
86.38152203774169
 20
16.74449103588995
 30
0.0
 10
85.88400369966372
 20
16.85421084067943
 30
0.0
 10
85.5082597649627
 20
16.98575430996939
 30
0.0
 10
85.20223832285197
 20
17.16539100504296
 30
0.0
 10
84.97381217340872
 20
17.38471101836134
 30
0.0
 10
84.83808523875884
 20
17.67785997490411
 30
0.0
 10
84.81259817817417
 20
17.89486527220082
 30
0.0
 10
84.81259817817416
 20
17.98570927293886
 30
0.0
  0
SPLINE
  5
71
330
46
100
AcDbEntity
  8
0
  6
Continuous
 62
     0
370
    30
100
AcDbSpline
210
0.0
220
0.0
230
1.0
 70
     8
 71
     3
 72
    23
 73
    19
 74
     0
 42
0.0
 43
0.0
 40
0.0
 40
0.0
 40
0.0
 40
0.0
 40
0.3272101300961545
 40
0.8865758289734058
 40
1.335367345874672
 40
1.673984426770709
 40
2.200227040487702
 40
2.764908836382976
 40
3.278203970732141
 40
3.957565552273474
 40
4.647581945502379
 40
5.18353055423253
 40
5.661164853424742
 40
6.205228637946656
 40
6.482725805029453
 40
6.930127593655947
 40
7.416761490742382
 40
7.751108947122765
 40
7.751108947122765
 40
7.751108947122765
 40
7.751108947122765
 10
82.16173599675926
 20
19.13140925123305
 30
0.0
 10
82.16173599675926
 20
19.04249833553631
 30
0.0
 10
82.16591258109331
 20
18.81779648513167
 30
0.0
 10
82.18677465341972
 20
18.56832581887402
 30
0.0
 10
82.20136161110635
 20
18.44428717706649
 30
0.0
 10
82.19118418695811
 20
18.42035050152224
 30
0.0
 10
82.13665842297627
 20
18.4966388420023
 30
0.0
 10
81.99881129733528
 20
18.67846471651785
 30
0.0
 10
81.76513324344008
 20
18.92860910904346
 30
0.0
 10
81.42339867515732
 20
19.21908453773167
 30
0.0
 10
80.98486526875908
 20
19.5132152289962
 30
0.0
 10
80.53574854630824
 20
19.78332427553208
 30
0.0
 10
80.10165703391388
 20
20.05097555206891
 30
0.0
 10
79.74672988893018
 20
20.3063862807263
 30
0.0
 10
79.44254926718266
 20
20.58946768493372
 30
0.0
 10
79.20559340754306
 20
20.88768173912321
 30
0.0
 10
79.05936681352193
 20
21.22862896199565
 30
0.0
 10
79.03163233476717
 20
21.45465665856536
 30
0.0
 10
79.0316323347672
 20
21.54550065930455
 30
0.0
  0
SPLINE
  5
72
330
46
100
AcDbEntity
  8
0
  6
Continuous
 62
     0
370
    30
100
AcDbSpline
210
0.0
220
0.0
230
1.0
 70
     8
 71
     3
 72
    11
 73
     7
 74
     0
 42
0.0
 43
0.0
 40
6.395212588509956
 40
6.395212588509956
 40
6.395212588509956
 40
6.395212588509956
 40
6.482725805030789
 40
6.93012759365716
 40
7.416761490743558
 40
7.751108947122744
 40
7.751108947122744
 40
7.751108947122744
 40
7.751108947122744
 10
77.87443847198911
 20
25.14234141239658
 30
0.0
 10
77.86056326222973
 20
25.16795591712762
 30
0.0
 10
77.77685737996703
 20
25.32539753469976
 30
0.0
 10
77.63330160279773
 20
25.63505497152853
 30
0.0
 10
77.52300125982111
 20
26.0194900092647
 30
0.0
 10
77.50182486393905
 20
26.25380933822926
 30
0.0
 10
77.50182486393906
 20
26.34465333896821
 30
0.0
  0
SPLINE
  5
73
330
46
100
AcDbEntity
  8
0
  6
Continuous
 62
     0
370
    30
100
AcDbSpline
210
0.0
220
0.0
230
1.0
 70
     8
 71
     3
 72
     9
 73
     5
 74
     0
 42
0.0
 43
0.0
 40
0.0
 40
0.0
 40
0.0
 40
0.0
 40
0.3272101300962112
 40
0.6576339632784014
 40
0.6576339632784014
 40
0.6576339632784014
 40
0.6576339632784014
 10
77.87443851376082
 20
23.33676260611475
 30
0.0
 10
77.87443851376081
 20
23.24785169041796
 30
0.0
 10
77.88878056898263
 20
23.07821840987787
 30
0.0
 10
77.93105325375127
 20
22.93545126854031
 30
0.0
 10
77.95799651175787
 20
22.87212835495483
 30
0.0
  0
SPLINE
  5
74
330
46
100
AcDbEntity
  8
0
  6
Continuous
 62
     0
370
    30
100
AcDbSpline
210
0.0
220
0.0
230
1.0
 70
     8
 71
     3
 72
    10
 73
     6
 74
     0
 42
0.0
 43
0.0
 40
6.768742989650515
 40
6.768742989650515
 40
6.768742989650515
 40
6.768742989650515
 40
6.930127592518324
 40
7.416761489627675
 40
7.751108947126456
 40
7.751108947126456
 40
7.751108947126456
 40
7.751108947126456
 10
106.1550749003161
 20
21.55092547640768
 30
0.0
 10
106.1693790750377
 20
21.57173026333481
 30
0.0
 10
106.2240745246342
 20
21.66479511117207
 30
0.0
 10
106.2844752091979
 20
21.86204277267919
 30
0.0
 10
106.2996245400238
 20
22.07216006430951
 30
0.0
 10
106.2996245400239
 20
22.16300406535154
 30
0.0
  0
SPLINE
  5
75
330
46
100
AcDbEntity
  8
0
  6
Continuous
 62
     0
370
    30
100
AcDbSpline
210
0.0
220
0.0
230
1.0
 70
     8
 71
     3
 72
    13
 73
     9
 74
     0
 42
0.0
 43
0.0
 40
0.0
 40
0.0
 40
0.0
 40
0.0
 40
0.3272101300962408
 40
0.886575828973694
 40
1.335367345874867
 40
1.673984426770998
 40
2.200227040267196
 40
2.554941979839054
 40
2.554941979839054
 40
2.554941979839054
 40
2.554941979839054
 10
107.4098801501077
 20
25.1096628169247
 30
0.0
 10
107.4098801501077
 20
25.02075190122794
 30
0.0
 10
107.3850287151627
 20
24.76991247577274
 30
0.0
 10
107.2483101285856
 20
24.37397360071422
 30
0.0
 10
107.024138801663
 20
23.98497405140172
 30
0.0
 10
106.7702309265183
 20
23.62717526197227
 30
0.0
 10
106.5241627487319
 20
23.3223661159247
 30
0.0
 10
106.3614586004251
 20
23.12089566835143
 30
0.0
 10
106.2996245055826
 20
23.04217123924633
 30
0.0
  0
ELLIPSE
  5
76
330
46
100
AcDbEntity
  8
0
  6
Continuous
 62
     0
370
     0
100
AcDbEllipse
 10
92.421
 20
18.101
 30
0.0
 11
7.9
 21
0.0
 31
0.0
210
0.0
220
0.0
230
-1.0
 40
0.577
 41
0.1815484764603013
 42
0.7853981633974483
  0
ELLIPSE
  5
77
330
46
100
AcDbEntity
  8
0
  6
Continuous
 62
     0
370
     0
100
AcDbEllipse
 10
92.421
 20
18.101
 30
0.0
 11
7.9
 21
0.0
 31
0.0
210
0.0
220
0.0
230
-1.0
 40
0.577
 41
0.7853981633974484
 42
2.960043277947285
  0
ELLIPSE
  5
78
330
46
100
AcDbEntity
  8
0
  6
Continuous
 62
     0
370
    30
100
AcDbEllipse
 10
92.421
 20
34.022
 30
0.0
 11
-5.580343384734768
 21
0.0
 31
0.0
210
0.0
220
0.0
230
1.0
 40
0.577
 41
0.0
 42
6.283185307179586
  0
SPLINE
  5
79
330
46
100
AcDbEntity
  8
0
  6
Continuous
 62
     0
370
    30
100
AcDbSpline
210
0.0
220
0.0
230
1.0
 70
     8
 71
     3
 72
    18
 73
    14
 74
     0
 42
0.0
 43
0.0
 40
0.0
 40
0.0
 40
0.0
 40
0.0
 40
0.6403656843356269
 40
1.778703560146909
 40
3.108377084723017
 40
4.600224199902932
 40
6.528827788945046
 40
8.453478766310486
 40
11.2109393610657
 40
13.93443521234504
 40
15.13210168694862
 40
16.43797123194529
 40
17.00795378027371
 40
17.00795378027371
 40
17.00795378027371
 40
17.00795378027371
 10
97.90399568722931
 20
14.64656838993842
 30
0.0
 10
97.74973465648108
 20
14.55750574212904
 30
0.0
 10
97.30470306685095
 20
14.32099532429008
 30
0.0
 10
96.4544715192445
 20
13.96384185044762
 30
0.0
 10
95.2657929221783
 20
13.61591372452374
 30
0.0
 10
93.7368695402214
 20
13.35616226526125
 30
0.0
 10
91.94531746977417
 20
13.29000189109971
 30
0.0
 10
89.7617452787396
 20
13.52779897644227
 30
0.0
 10
87.53680143032774
 20
14.21266158087768
 30
0.0
 10
85.99674579249275
 20
15.21003862479563
 30
0.0
 10
85.15105682883242
 20
16.15858872708448
 30
0.0
 10
84.80384211757642
 20
16.77103600766974
 30
0.0
 10
84.66873333556876
 20
17.16290303592004
 30
0.0
 10
84.63502057003336
 20
17.28317784056546
 30
0.0
  0
SPLINE
  5
7A
330
46
100
AcDbEntity
  8
0
  6
Continuous
 62
     0
370
    30
100
AcDbSpline
210
0.0
220
0.0
230
1.0
 70
     8
 71
     3
 72
    10
 73
     6
 74
     0
 42
0.0
 43
0.0
 40
1.271555363841512
 40
1.271555363841512
 40
1.271555363841512
 40
1.271555363841512
 40
2.58170915341672
 40
4.823050765798139
 40
6.167911274994725
 40
6.167911274994725
 40
6.167911274994725
 40
6.167911274994725
 10
100.2078304651675
 20
17.28319673874871
 30
0.0
 10
100.130344213149
 20
17.00667735697692
 30
0.0
 10
99.81452867426673
 20
16.27524131376263
 30
0.0
 10
99.02305508387643
 20
15.3791154069699
 30
0.0
 10
98.22767031049716
 20
14.83344202454204
 30
0.0
 10
97.90399573748132
 20
14.64656841895147
 30
0.0
  0
SPLINE
  5
7B
330
46
100
AcDbEntity
  8
0
  6
Continuous
 62
     0
370
    30
100
AcDbSpline
210
0.0
220
0.0
230
1.0
 70
     8
 71
     3
 72
    15
 73
    11
 74
     0
 42
0.0
 43
0.0
 40
0.0
 40
0.0
 40
0.0
 40
0.0
 40
1.333054198769655
 40
1.847842168246119
 40
2.852298853463097
 40
3.214657530784125
 40
3.555767498429169
 40
3.896668886040676
 40
4.237375739985321
 40
4.577901719971038
 40
4.577901719971038
 40
4.577901719971038
 40
4.577901719971038
 10
101.1375381504348
 20
17.66246033920319
 30
0.0
 10
100.7747325772857
 20
17.50195466523942
 30
0.0
 10
100.2561257251147
 20
17.29394465756461
 30
0.0
 10
99.4268983371806
 20
17.00517985854013
 30
0.0
 10
98.86498984115289
 20
16.83243461552725
 30
0.0
 10
98.34437952726714
 20
16.69023790516461
 30
0.0
 10
98.02270281248423
 20
16.6083104889526
 30
0.0
 10
97.70540367536344
 20
16.53126335665876
 30
0.0
 10
97.38344690825897
 20
16.46359600389378
 30
0.0
 10
97.17248829222481
 20
16.40947458562843
 30
0.0
 10
97.06168447020588
 20
16.39440569194815
 30
0.0
  0
SPLINE
  5
7C
330
46
100
AcDbEntity
  8
0
  6
Continuous
 62
     0
370
    30
100
AcDbSpline
210
0.0
220
0.0
230
1.0
 70
     8
 71
     3
 72
    18
 73
    14
 74
     0
 42
0.0
 43
0.0
 40
0.011001407115253
 40
0.011001407115253
 40
0.011001407115253
 40
0.011001407115253
 40
0.9029866128491909
 40
1.504896655535077
 40
2.106816652801216
 40
2.407800418801979
 40
3.009855714237974
 40
3.310943438289059
 40
3.612082104638661
 40
3.913279919946195
 40
4.214545209656789
 40
4.515886360940609
 40
4.817311923141778
 40
4.817311923141778
 40
4.817311923141778
 40
4.817311923141778
 10
93.8196453981072
 20
15.9834989298744
 30
0.0
 10
93.52365647636817
 20
15.96653968703826
 30
0.0
 10
93.02641677670285
 20
15.9471570176209
 30
0.0
 10
92.32774309949467
 20
15.9412505849667
 30
0.0
 10
91.82619775793954
 20
15.94932199284688
 30
0.0
 10
91.32531852246154
 20
15.96663397864594
 30
0.0
 10
90.92533900266247
 20
15.98782371330499
 30
0.0
 10
90.52668410101458
 20
16.01649510854052
 30
0.0
 10
90.22816500612001
 20
16.04136151460476
 30
0.0
 10
89.93132801544533
 20
16.0711062892363
 30
0.0
 10
89.63224103914143
 20
16.10000704881514
 30
0.0
 10
89.34611787353604
 20
16.14940542558593
 30
0.0
 10
89.12652780102621
 20
16.14285885653625
 30
0.0
 10
89.04460886005084
 20
16.1792978824555
 30
0.0
  0
SPLINE
  5
7D
330
46
100
AcDbEntity
  8
0
  6
Continuous
 62
     0
370
    30
100
AcDbSpline
210
0.0
220
0.0
230
1.0
 70
     8
 71
     3
 72
    14
 73
    10
 74
     0
 42
0.0
 43
0.0
 40
0.0
 40
0.0
 40
0.0
 40
0.0
 40
1.723671209481177
 40
2.570397457687229
 40
3.323407937472624
 40
3.784206243903466
 40
4.004038299850348
 40
4.217451274416494
 40
4.424880726163501
 40
4.424880726163501
 40
4.424880726163501
 40
4.424880726163501
 10
85.83278397648544
 20
16.87929484832847
 30
0.0
 10
85.31653475101099
 20
17.0347557214841
 30
0.0
 10
84.56721394470162
 20
17.29459800627362
 30
0.0
 10
83.64880557113955
 20
17.68201615153461
 30
0.0
 10
83.09994295054774
 20
17.94161251935952
 30
0.0
 10
82.73007120069721
 20
18.13259136516855
 30
0.0
 10
82.50307336761674
 20
18.25476192639708
 30
0.0
 10
82.34384242175385
 20
18.34502034737574
 30
0.0
 10
82.23685349537598
 20
18.40253950931644
 30
0.0
 10
82.18780730934618
 20
18.43369373875542
 30
0.0
  0
SPLINE
  5
7E
330
46
100
AcDbEntity
  8
0
  6
Continuous
 62
     0
370
    30
100
AcDbSpline
210
0.0
220
0.0
230
1.0
 70
     8
 71
     3
 72
    16
 73
    12
 74
     0
 42
0.0
 43
0.0
 40
0.0
 40
0.0
 40
0.0
 40
0.0
 40
1.109104662710014
 40
1.453028017430285
 40
1.786146515353765
 40
2.109498737513595
 40
2.730487779783727
 40
2.96651159539813
 40
3.198375873134992
 40
3.426391012709571
 40
3.650838257555673
 40
3.650838257555673
 40
3.650838257555673
 40
3.650838257555673
 10
79.44851097792309
 20
20.59608710444279
 30
0.0
 10
79.25594044652289
 20
20.80672703825165
 30
0.0
 10
79.0188517057477
 20
21.0911635118629
 30
0.0
 10
78.75394693334088
 20
21.4536204186862
 30
0.0
 10
78.6126247334267
 20
21.65992723291868
 30
0.0
 10
78.44115812331833
 20
21.92738179017903
 30
0.0
 10
78.29456732235978
 20
22.17962533228111
 30
0.0
 10
78.17060754767579
 20
22.4165917611089
 30
0.0
 10
78.09358853219459
 20
22.56901581634726
 30
0.0
 10
78.02729455680384
 20
22.72173637521934
 30
0.0
 10
77.97172551520457
 20
22.81977081767599
 30
0.0
 10
77.95787312697216
 20
22.87207585621385
 30
0.0
  0
SPLINE
  5
7F
330
46
100
AcDbEntity
  8
0
  6
Continuous
 62
     0
370
    30
100
AcDbSpline
210
0.0
220
0.0
230
1.0
 70
     8
 71
     3
 72
     9
 73
     5
 74
     0
 42
0.0
 43
0.0
 40
0.2668678093504951
 40
0.2668678093504951
 40
0.2668678093504951
 40
0.2668678093504951
 40
0.2999988996778438
 40
0.6005287091939859
 40
0.6005287091939859
 40
0.6005287091939859
 40
0.6005287091939859
 10
107.4177313431082
 20
25.25741849488075
 30
0.0
 10
107.4176841581381
 20
25.24946096816868
 30
0.0
 10
107.417661276403
 20
25.16925098229177
 30
0.0
 10
107.423398430988
 20
25.08819020938611
 30
0.0
 10
107.4067101864517
 20
25.01778354165101
 30
0.0
  0
SPLINE
  5
80
330
46
100
AcDbEntity
  8
0
  6
Continuous
 62
     0
370
    30
100
AcDbSpline
210
0.0
220
0.0
230
1.0
 70
     8
 71
     3
 72
    16
 73
    12
 74
     0
 42
0.0
 43
0.0
 40
0.0
 40
0.0
 40
0.0
 40
0.0
 40
1.06452972546113
 40
1.446398780304584
 40
1.844442341428786
 40
2.050134584142234
 40
2.697277503164232
 40
2.92411428516619
 40
3.157131596385243
 40
3.491718869534264
 40
3.840362099884113
 40
3.840362099884113
 40
3.840362099884113
 40
3.840362099884113
 10
106.1551093376937
 20
21.55090180007655
 30
0.0
 10
106.0044975819191
 20
21.33156093166298
 30
0.0
 10
105.7835654914974
 20
21.04085725889692
 30
0.0
 10
105.4756504209894
 20
20.68381277168319
 30
0.0
 10
105.303739176547
 20
20.49697287933405
 30
0.0
 10
105.0784518385162
 20
20.26380335828972
 30
0.0
 10
104.8756849037649
 20
20.06722515457942
 30
0.0
 10
104.6586297919835
 20
19.87121181227391
 30
0.0
 10
104.5010285509747
 20
19.73151061928421
 30
0.0
 10
104.30732370035
 20
19.57849556863547
 30
0.0
 10
104.1803470456439
 20
19.45160016687429
 30
0.0
 10
104.0943465177241
 20
19.40194773871426
 30
0.0
  0
SPLINE
  5
81
330
46
100
AcDbEntity
  8
0
  6
Continuous
 62
     0
370
    30
100
AcDbSpline
210
0.0
220
0.0
230
1.0
 70
     8
 71
     3
 72
    13
 73
     9
 74
     0
 42
0.0
 43
0.0
 40
0.0029548754961018
 40
0.0029548754961018
 40
0.0029548754961018
 40
0.0029548754961018
 40
1.066818935148297
 40
1.620670473449714
 40
2.508381863170339
 40
2.830990067321436
 40
3.161781237673948
 40
3.501678207084873
 40
3.501678207084873
 40
3.501678207084873
 40
3.501678207084873
 10
77.52127089788337
 20
33.51160655945695
 30
0.0
 10
77.5662263194668
 20
33.7631287100704
 30
0.0
 10
77.65754083037832
 20
34.1424325698263
 30
0.0
 10
77.85002029615599
 20
34.71762904978439
 30
0.0
 10
78.01810484451636
 20
35.11323829082488
 30
0.0
 10
78.18405426503273
 20
35.45238546365199
 30
0.0
 10
78.30471664960571
 20
35.6653408884216
 30
0.0
 10
78.37474017226513
 20
35.81465811943617
 30
0.0
 10
78.4271367409372
 20
35.88266351856419
 30
0.0
  0
SPLINE
  5
82
330
46
100
AcDbEntity
  8
0
  6
Continuous
 62
     0
370
    30
100
AcDbSpline
210
0.0
220
0.0
230
1.0
 70
     8
 71
     3
 72
    15
 73
    11
 74
     0
 42
0.0
 43
0.0
 40
0.0
 40
0.0
 40
0.0
 40
0.0
 40
1.326029150310646
 40
1.823719450005294
 40
2.638554976120846
 40
2.931733803016763
 40
3.237470764840222
 40
3.557069809624908
 40
3.892241983041787
 40
4.244777876256371
 40
4.244777876256371
 40
4.244777876256371
 40
4.244777876256371
 10
80.83253952273684
 20
38.501328184811
 30
0.0
 10
81.11827014713369
 20
38.71977513743684
 30
0.0
 10
81.53139091073098
 20
39.00719558067084
 30
0.0
 10
82.16538557196303
 20
39.39600315403645
 30
0.0
 10
82.56672419270345
 20
39.62066014511237
 30
0.0
 10
82.93081504244054
 20
39.80955522982869
 30
0.0
 10
83.17133728609157
 20
39.92882332240546
 30
0.0
 10
83.42580075120561
 20
40.05114896158115
 30
0.0
 10
83.70102933565866
 20
40.17109751207373
 30
0.0
 10
83.88110707383117
 20
40.26184134935546
 30
0.0
 10
83.98449238393911
 20
40.29646581435676
 30
0.0
  0
SPLINE
  5
83
330
46
100
AcDbEntity
  8
0
  6
Continuous
 62
     0
370
    30
100
AcDbSpline
210
0.0
220
0.0
230
1.0
 70
     8
 71
     3
 72
    18
 73
    14
 74
     0
 42
0.0
 43
0.0
 40
0.0
 40
0.0
 40
0.0
 40
0.0
 40
0.8974362684891171
 40
1.495100773943873
 40
2.092345951661694
 40
2.390832542700442
 40
2.987575254094199
 40
3.285847701948426
 40
3.584064959476308
 40
3.882235015871253
 40
4.18036576818469
 40
4.47846509953565
 40
4.776540844869927
 40
4.776540844869927
 40
4.776540844869927
 40
4.776540844869927
 10
87.15507071836043
 20
41.30946628116396
 30
0.0
 10
87.43516613086251
 20
41.37398560678784
 30
0.0
 10
87.90710953672159
 20
41.4728361580361
 30
0.0
 10
88.57768205436535
 20
41.59064128168241
 30
0.0
 10
89.06138296151046
 20
41.66292593402915
 30
0.0
 10
89.54801269366307
 20
41.72624805467954
 30
0.0
 10
89.93951945065102
 20
41.7697680878872
 30
0.0
 10
90.33281701473622
 20
41.80601126790692
 30
0.0
 10
90.6285631790922
 20
41.8298057750161
 30
0.0
 10
90.92485286239861
 20
41.84915740444735
 30
0.0
 10
91.22215077907569
 20
41.86801187883195
 30
0.0
 10
91.51820116748789
 20
41.87161985556793
 30
0.0
 10
91.72000784786519
 20
41.90054381444422
 30
0.0
 10
91.81701888563168
 20
41.88740919729635
 30
0.0
  0
SPLINE
  5
84
330
46
100
AcDbEntity
  8
0
  6
Continuous
 62
     0
370
    30
100
AcDbSpline
210
0.0
220
0.0
230
1.0
 70
     8
 71
     3
 72
    14
 73
    10
 74
     0
 42
0.0
 43
0.0
 40
0.0
 40
0.0
 40
0.0
 40
0.0
 40
1.464013072882038
 40
2.34364220414978
 40
3.224462440914402
 40
3.828120908825606
 40
4.138064251074427
 40
4.423711075548476
 40
4.695799573734848
 40
4.695799573734848
 40
4.695799573734848
 40
4.695799573734848
 10
95.05510871422963
 20
41.75222287319062
 30
0.0
 10
95.53531890895599
 20
41.69977137324543
 30
0.0
 10
96.29788646756647
 20
41.59271015065193
 30
0.0
 10
97.32395240462398
 20
41.39558585674995
 30
0.0
 10
98.06134998840649
 20
41.22405717761006
 30
0.0
 10
98.60974153935693
 20
41.07665981822851
 30
0.0
 10
98.97147646723879
 20
40.97152516007722
 30
0.0
 10
99.23008154905045
 20
40.89144417879574
 30
0.0
 10
99.39632370017324
 20
40.83986586288566
 30
0.0
 10
99.4756275234647
 20
40.81256629360357
 30
0.0
  0
SPLINE
  5
85
330
46
100
AcDbEntity
  8
0
  6
Continuous
 62
     0
370
    30
100
AcDbSpline
210
0.0
220
0.0
230
1.0
 70
     8
 71
     3
 72
    19
 73
    15
 74
     0
 42
0.0
 43
0.0
 40
0.0
 40
0.0
 40
0.0
 40
0.0
 40
1.157872371630674
 40
1.677660045249697
 40
2.16560397530631
 40
2.399006766855526
 40
2.846933470262237
 40
3.062284535355495
 40
3.272240788308097
 40
3.477248508562947
 40
3.677544164990151
 40
3.87340836296283
 40
3.959604895226675
 40
4.044981058021937
 40
4.044981058021937
 40
4.044981058021937
 40
4.044981058021937
 10
102.5674233564044
 20
39.4552434549648
 30
0.0
 10
102.8540212375594
 20
39.29120266291886
 30
0.0
 10
103.2554544028169
 20
39.04237739128583
 30
0.0
 10
103.7452395540158
 20
38.70109335151997
 30
0.0
 10
104.0158971201371
 20
38.49862027227535
 30
0.0
 10
104.2638943591226
 20
38.30328373804285
 30
0.0
 10
104.4489376030087
 20
38.15016872813089
 30
0.0
 10
104.6241592423445
 20
37.99796541362483
 30
0.0
 10
104.748240005302
 20
37.88663096349875
 30
0.0
 10
104.8673169418454
 20
37.77671255869917
 30
0.0
 10
104.9806665343322
 20
37.66761606827556
 30
0.0
 10
105.0723004593163
 20
37.58026380309769
 30
0.0
 10
105.1361944272013
 20
37.51074114534947
 30
0.0
 10
105.1741266332304
 20
37.48223483739085
 30
0.0
 10
105.1849574404525
 20
37.46409307160351
 30
0.0
  0
ARC
  5
86
330
46
100
AcDbEntity
  8
0
  6
Continuous
 62
     0
370
    30
100
AcDbCircle
 10
100.959
 20
32.38
 30
0.0
 40
6.462783671692256
100
AcDbArc
 50
0.079
 51
18.094
  0
LINE
  5
87
330
46
100
AcDbEntity
  8
0
  6
Continuous
 62
     0
370
    30
100
AcDbLine
 10
107.421
 20
25.449
 30
0.0
 11
107.421
 21
32.389
 31
0.0
  0
ENDBLK
  5
89
330
46
100
AcDbEntity
  8
0
100
AcDbBlockEnd
  0
BLOCK
  5
A5
330
8B
100
AcDbEntity
  8
0
100
AcDbBlockBegin
  2
b
 70
     0
 10
25.07
 20
17.967
 30
0.0
  3
b
  1

  0
CIRCLE
  5
8C
330
8B
100
AcDbEntity
  8
0
  6
Continuous
 62
     0
370
     0
100
AcDbCircle
 10
40.67
 20
33.567
 30
0.0
 40
13.0
  0
SPLINE
  5
8D
330
8B
100
AcDbEntity
  8
0
  6
Continuous
 62
     0
370
    30
100
AcDbSpline
210
0.0
220
0.0
230
1.0
 70
     8
 71
     3
 72
    15
 73
    11
 74
     0
 42
0.0
 43
0.0
 40
0.0
 40
0.0
 40
0.0
 40
0.0
 40
0.6619996057529709
 40
1.268341474061093
 40
1.732847607160499
 40
2.16196413708554
 40
2.526235038615164
 40
2.982164439674535
 40
3.531264570004079
 40
3.875554419605522
 40
3.875554419605522
 40
3.875554419605522
 40
3.875554419605522
 10
54.36442117411531
 20
33.56689357757568
 30
0.0
 10
54.36442117411531
 20
33.34659159198561
 30
0.0
 10
54.40236245106904
 20
32.92321324105099
 30
0.0
 10
54.55061391134956
 20
32.36799454054217
 30
0.0
 10
54.73947948073972
 20
31.92461648352767
 30
0.0
 10
54.92616521516814
 20
31.5958808128712
 30
0.0
 10
55.11578005197283
 20
31.32328594037478
 30
0.0
 10
55.30183068669174
 20
31.09897168855036
 30
0.0
 10
55.41917282714405
 20
30.97751363284631
 30
0.0
 10
55.44134811372942
 20
30.95532982598975
 30
0.0
 10
55.44134811372942
 20
30.95532982598975
 30
0.0
  0
SPLINE
  5
8E
330
8B
100
AcDbEntity
  8
0
  6
Continuous
 62
     0
370
    30
100
AcDbSpline
210
0.0
220
0.0
230
1.0
 70
     8
 71
     3
 72
    15
 73
    11
 74
     0
 42
0.0
 43
0.0
 40
0.0
 40
0.0
 40
0.0
 40
0.0
 40
0.3442898496014666
 40
0.8933899799310185
 40
1.34931938099038
 40
1.713590282519995
 40
2.142706812445005
 40
2.607212945544449
 40
3.213554813852568
 40
3.87555441960553
 40
3.87555441960553
 40
3.87555441960553
 40
3.87555441960553
 10
55.44134811372942
 20
36.17845732916162
 30
0.0
 10
55.44134811372942
 20
36.17845732916162
 30
0.0
 10
55.41917282714407
 20
36.15627352230506
 30
0.0
 10
55.30183068669177
 20
36.03481546660102
 30
0.0
 10
55.11578005197281
 20
35.81050121477657
 30
0.0
 10
54.92616521516813
 20
35.53790634228017
 30
0.0
 10
54.73947948073973
 20
35.2091706716237
 30
0.0
 10
54.55061391134954
 20
34.76579261460918
 30
0.0
 10
54.40236245106902
 20
34.21057391410038
 30
0.0
 10
54.36442117411531
 20
33.78719556316574
 30
0.0
 10
54.36442117411531
 20
33.56689357757568
 30
0.0
  0
ARC
  5
8F
330
8B
100
AcDbEntity
  8
0
  6
Continuous
 62
     0
370
    30
100
AcDbCircle
 10
40.67
 20
33.567
 30
0.0
 40
15.0
100
AcDbArc
 50
10.027
 51
22.701
  0
ARC
  5
90
330
8B
100
AcDbEntity
  8
0
  6
Continuous
 62
     0
370
    30
100
AcDbCircle
 10
40.67
 20
33.567
 30
0.0
 40
15.0
100
AcDbArc
 50
42.754
 51
55.428
  0
ARC
  5
91
330
8B
100
AcDbEntity
  8
0
  6
Continuous
 62
     0
370
    30
100
AcDbCircle
 10
40.67
 20
33.567
 30
0.0
 40
15.0
100
AcDbArc
 50
75.481
 51
88.155
  0
ARC
  5
92
330
8B
100
AcDbEntity
  8
0
  6
Continuous
 62
     0
370
    30
100
AcDbCircle
 10
40.67
 20
33.567
 30
0.0
 40
15.0
100
AcDbArc
 50
108.208
 51
120.883
  0
ARC
  5
93
330
8B
100
AcDbEntity
  8
0
  6
Continuous
 62
     0
370
    30
100
AcDbCircle
 10
40.67
 20
33.567
 30
0.0
 40
15.0
100
AcDbArc
 50
140.936
 51
153.61
  0
ARC
  5
94
330
8B
100
AcDbEntity
  8
0
  6
Continuous
 62
     0
370
    30
100
AcDbCircle
 10
40.67
 20
33.567
 30
0.0
 40
15.0
100
AcDbArc
 50
173.663
 51
186.337
  0
ARC
  5
95
330
8B
100
AcDbEntity
  8
0
  6
Continuous
 62
     0
370
    30
100
AcDbCircle
 10
40.67
 20
33.567
 30
0.0
 40
15.0
100
AcDbArc
 50
206.39
 51
219.064
  0
ARC
  5
96
330
8B
100
AcDbEntity
  8
0
  6
Continuous
 62
     0
370
    30
100
AcDbCircle
 10
40.67
 20
33.567
 30
0.0
 40
15.0
100
AcDbArc
 50
239.117
 51
251.792
  0
ARC
  5
97
330
8B
100
AcDbEntity
  8
0
  6
Continuous
 62
     0
370
    30
100
AcDbCircle
 10
40.67
 20
33.567
 30
0.0
 40
15.0
100
AcDbArc
 50
271.845
 51
284.519
  0
ARC
  5
98
330
8B
100
AcDbEntity
  8
0
  6
Continuous
 62
     0
370
    30
100
AcDbCircle
 10
40.67
 20
33.567
 30
0.0
 40
15.0
100
AcDbArc
 50
304.572
 51
317.246
  0
ARC
  5
99
330
8B
100
AcDbEntity
  8
0
  6
Continuous
 62
     0
370
    30
100
AcDbCircle
 10
40.67
 20
33.567
 30
0.0
 40
15.0
100
AcDbArc
 50
337.299
 51
349.973
  0
SPLINE
  5
9A
330
8B
100
AcDbEntity
  8
0
  6
Continuous
 62
     0
370
    30
100
AcDbSpline
210
0.0
220
0.0
230
1.0
 70
     8
 71
     3
 72
    23
 73
    19
 74
     0
 42
0.0
 43
0.0
 40
0.0
 40
0.0
 40
0.0
 40
0.0
 40
0.3272101300962191
 40
0.8865758289736697
 40
1.33536734587492
 40
1.673984426771012
 40
2.200227040267084
 40
2.764908836031083
 40
3.278203970736751
 40
3.95756555125876
 40
4.647581944190122
 40
5.183530552735045
 40
5.661164851905375
 40
6.205228636610077
 40
6.482725803799315
 40
6.930127592519493
 40
7.416761489628878
 40
7.751108947127835
 40
7.751108947127835
 40
7.751108947127835
 40
7.751108947127835
 10
54.50843655086987
 20
27.77812482134674
 30
0.0
 10
54.50843655086987
 20
27.77812482134674
 30
0.0
 10
54.47955796560784
 20
27.77181130567494
 30
0.0
 10
54.31970621152822
 20
27.73445563029901
 30
0.0
 10
54.04853219983619
 20
27.64888151282177
 30
0.0
 10
53.72904070799081
 20
27.51885505250667
 30
0.0
 10
53.34624018896602
 20
27.31788286770932
 30
0.0
 10
52.92327174203459
 20
27.01300050392438
 30
0.0
 10
52.50405445459779
 20
26.60723755949485
 30
0.0
 10
52.12697644255952
 20
26.10186377740747
 30
0.0
 10
51.84636531133653
 20
25.52915754744767
 30
0.0
 10
51.6850821615965
 20
24.98966285277221
 30
0.0
 10
51.60743632369487
 20
24.49739956575588
 30
0.0
 10
51.5977492471263
 20
24.11497517109962
 30
0.0
 10
51.6171751484361
 20
23.7975707710463
 30
0.0
 10
51.6495753245696
 20
23.55675405173956
 30
0.0
 10
51.67864368844787
 20
23.41152935198181
 30
0.0
 10
51.68460062788022
 20
23.38415035687571
 30
0.0
 10
51.68460062788022
 20
23.38415035687571
 30
0.0
  0
SPLINE
  5
9B
330
8B
100
AcDbEntity
  8
0
  6
Continuous
 62
     0
370
    30
100
AcDbSpline
210
0.0
220
0.0
230
1.0
 70
     8
 71
     3
 72
    23
 73
    19
 74
     0
 42
0.0
 43
0.0
 40
0.0
 40
0.0
 40
0.0
 40
0.0
 40
0.3272101300963995
 40
0.8865758289743673
 40
1.335367345875587
 40
1.673984426771709
 40
2.200227040488937
 40
2.764908836384631
 40
3.278203970734932
 40
3.957565552277428
 40
4.647581945507446
 40
5.18353055423835
 40
5.661164853430665
 40
6.205228637951895
 40
6.482725805034244
 40
6.930127593660354
 40
7.416761490746727
 40
7.751108947122744
 40
7.751108947122744
 40
7.751108947122744
 40
7.751108947122744
 10
49.18205876887134
 20
21.21568549214902
 30
0.0
 10
49.18205876887134
 20
21.21568549214902
 30
0.0
 10
49.15435121272246
 20
21.22598716672854
 30
0.0
 10
48.99967935700272
 20
21.28098395584459
 30
0.0
 10
48.7252884008256
 20
21.35560216655198
 30
0.0
 10
48.38621744275768
 20
21.4189470887822
 30
0.0
 10
47.95553138730862
 20
21.45683611385124
 30
0.0
 10
47.43487583669137
 20
21.42902675508099
 30
0.0
 10
46.8628358024003
 20
21.31432322148314
 30
0.0
 10
46.27239189766431
 20
21.09303950637447
 30
0.0
 10
45.72669842752028
 20
20.7629581980846
 30
0.0
 10
45.29934555530326
 20
20.39630263390632
 30
0.0
 10
44.96788809415605
 20
20.02416291381428
 30
0.0
 10
44.75298456966284
 20
19.70768426987381
 30
0.0
 10
44.59772490367806
 20
19.43016426204877
 30
0.0
 10
44.49478631849318
 20
19.21005948869026
 30
0.0
 10
44.44072578207731
 20
19.07217315334495
 30
0.0
 10
44.43093487617004
 20
19.04591991250837
 30
0.0
 10
44.43093487617004
 20
19.04591991250837
 30
0.0
  0
SPLINE
  5
9C
330
8B
100
AcDbEntity
  8
0
  6
Continuous
 62
     0
370
    30
100
AcDbSpline
210
0.0
220
0.0
230
1.0
 70
     8
 71
     3
 72
    23
 73
    19
 74
     0
 42
0.0
 43
0.0
 40
0.0
 40
0.0
 40
0.0
 40
0.0
 40
0.3272101300961545
 40
0.8865758289734058
 40
1.335367345874672
 40
1.673984426770709
 40
2.200227040487702
 40
2.764908836382976
 40
3.278203970732141
 40
3.957565552273474
 40
4.647581945502379
 40
5.18353055423253
 40
5.661164853424742
 40
6.205228637946656
 40
6.482725805029453
 40
6.930127593655943
 40
7.416761490742394
 40
7.751108947122765
 40
7.751108947122765
 40
7.751108947122765
 40
7.751108947122765
 10
41.15330207913135
 20
18.57466746060818
 30
0.0
 10
41.15330207913135
 20
18.57466746060818
 30
0.0
 10
41.13556250540088
 20
18.59831361654825
 30
0.0
 10
41.03517776937237
 20
18.7282017782
 30
0.0
 10
40.84468705854562
 20
18.93932156242092
 30
0.0
 10
40.59368926772695
 20
19.17592630197917
 30
0.0
 10
40.25185745552558
 20
19.44064703925865
 30
0.0
 10
39.79881925972283
 20
19.69873996044576
 30
0.0
 10
39.25557514778623
 20
19.91151339933479
 30
0.0
 10
38.63922711836373
 20
20.04457576756007
 30
0.0
 10
38.00170513042252
 20
20.0619178646193
 30
0.0
 10
37.44396405296287
 20
19.98451198210039
 30
0.0
 10
36.96393037031083
 20
19.85064756061323
 30
0.0
 10
36.61204074834485
 20
19.70059440048891
 30
0.0
 10
36.33138936193694
 20
19.55106942621042
 30
0.0
 10
36.12579428889008
 20
19.42155830887118
 30
0.0
 10
36.00576869058507
 20
19.33478827473188
 30
0.0
 10
35.9833384828138
 20
19.31799600650284
 30
0.0
 10
35.9833384828138
 20
19.31799600650284
 30
0.0
  0
SPLINE
  5
9D
330
8B
100
AcDbEntity
  8
0
  6
Continuous
 62
     0
370
    30
100
AcDbSpline
210
0.0
220
0.0
230
1.0
 70
     8
 71
     3
 72
    23
 73
    19
 74
     0
 42
0.0
 43
0.0
 40
0.0
 40
0.0
 40
0.0
 40
0.0
 40
0.3272101300962095
 40
0.8865758289736005
 40
1.335367345874837
 40
1.673984426771006
 40
2.200227040488035
 40
2.764908836383357
 40
3.278203970732847
 40
3.95756555227458
 40
4.647581945503808
 40
5.183530554234145
 40
5.661164853426398
 40
6.205228637948132
 40
6.482725805030789
 40
6.93012759365716
 40
7.416761490743558
 40
7.751108947122744
 40
7.751108947122744
 40
7.751108947122744
 40
7.751108947122744
 10
32.97124000215839
 20
20.69357529119671
 30
0.0
 10
32.97124000215839
 20
20.69357529119671
 30
0.0
 10
32.96910060016381
 20
20.72305844106215
 30
0.0
 10
32.95487442823074
 20
20.88659940167123
 30
0.0
 10
32.90876341749843
 20
21.16719171961673
 30
0.0
 10
32.825528819048
 20
21.50193594346257
 30
0.0
 10
32.68108043519965
 20
21.90944142929358
 30
0.0
 10
32.43949602036314
 20
22.37149395155845
 30
0.0
 10
32.09752399794029
 20
22.844190299472
 30
0.0
 10
31.65095798826464
 20
23.28935238929266
 30
0.0
 10
31.12401620918164
 20
23.64861189841687
 30
0.0
 10
30.61296577776251
 20
23.88503151833214
 30
0.0
 10
30.1367631760925
 20
24.03194340343065
 30
0.0
 10
29.75960992529578
 20
24.09595654523724
 30
0.0
 10
29.44267165066253
 20
24.12189972734647
 30
0.0
 10
29.19969507278163
 20
24.12410113070076
 30
0.0
 10
29.05181169199007
 20
24.1159962705204
 30
0.0
 10
29.02386361483823
 20
24.11399640141366
 30
0.0
 10
29.02386361483823
 20
24.11399640141366
 30
0.0
  0
SPLINE
  5
9E
330
8B
100
AcDbEntity
  8
0
  6
Continuous
 62
     0
370
    30
100
AcDbSpline
210
0.0
220
0.0
230
1.0
 70
     8
 71
     3
 72
    23
 73
    19
 74
     0
 42
0.0
 43
0.0
 40
0.0
 40
0.0
 40
0.0
 40
0.0
 40
0.3272101300962114
 40
0.8865758289736192
 40
1.335367345874823
 40
1.673984426770887
 40
2.200227040487908
 40
2.764908836383246
 40
3.27820397073267
 40
3.957565552274225
 40
4.647581945503352
 40
5.183530554233617
 40
5.661164853425863
 40
6.205228637947648
 40
6.482725805030367
 40
6.930127593656789
 40
7.416761490743237
 40
7.751108947122802
 40
7.751108947122802
 40
7.751108947122802
 40
7.751108947122802
 10
27.23361943570332
 20
26.89967071919006
 30
0.0
 10
27.23361943570332
 20
26.89967071919006
 30
0.0
 10
27.24775945046166
 20
26.92563017121653
 30
0.0
 10
27.32420855169546
 20
27.0709008313147
 30
0.0
 10
27.4371171611603
 20
27.33187960460765
 30
0.0
 10
27.54807215197863
 20
27.65848438685958
 30
0.0
 10
27.64686853773179
 20
28.07939450878682
 30
0.0
 10
27.69343924861831
 20
28.59870822101747
 30
0.0
 10
27.66131301656997
 20
29.18124972740566
 30
0.0
 10
27.52631057942895
 20
29.79717572066866
 30
0.0
 10
27.27724930087076
 20
30.38429028611746
 30
0.0
 10
26.97514441655816
 20
30.85947384960522
 30
0.0
 10
26.65396385721348
 20
31.2405185558007
 30
0.0
 10
26.37129046987617
 20
31.49827427930994
 30
0.0
 10
26.11869096983439
 20
31.69144884079302
 30
0.0
 10
25.91547623380578
 20
31.82466383483019
 30
0.0
 10
25.78668699903447
 20
31.89779738444966
 30
0.0
 10
25.7620943695259
 20
31.91122485877611
 30
0.0
 10
25.7620943695259
 20
31.91122485877611
 30
0.0
  0
SPLINE
  5
9F
330
8B
100
AcDbEntity
  8
0
  6
Continuous
 62
     0
370
    30
100
AcDbSpline
210
0.0
220
0.0
230
1.0
 70
     8
 71
     3
 72
    23
 73
    19
 74
     0
 42
0.0
 43
0.0
 40
0.0
 40
0.0
 40
0.0
 40
0.0
 40
0.3272101300961311
 40
0.8865758289732865
 40
1.335367345874512
 40
1.673984426770601
 40
2.200227040487602
 40
2.764908836382852
 40
3.278203970732006
 40
3.957565552273351
 40
4.647581945502254
 40
5.183530554232356
 40
5.661164853424577
 40
6.205228637946531
 40
6.482725805029308
 40
6.930127593655801
 40
7.416761490742269
 40
7.751108947122748
 40
7.751108947122748
 40
7.751108947122748
 40
7.751108947122748
 10
25.76209436952591
 20
35.22256229637526
 30
0.0
 10
25.76209436952591
 20
35.22256229637526
 30
0.0
 10
25.78802444625991
 20
35.23675610796511
 30
0.0
 10
25.93087677118232
 20
35.31763405940459
 30
0.0
 10
26.16695731511325
 20
35.4761403715123
 30
0.0
 10
26.43687446958601
 20
35.69091100148444
 30
0.0
 10
26.74754847052586
 20
35.99158976980487
 30
0.0
 10
27.06748843548186
 20
36.40328623766323
 30
0.0
 10
27.35540784549013
 20
36.91072009028927
 30
0.0
 10
27.57483130079432
 20
37.50185783605848
 30
0.0
 10
27.68272571892026
 20
38.13042273165493
 30
0.0
 10
27.68548254791237
 20
38.69350281479432
 30
0.0
 10
27.62129658913178
 20
39.18770134020289
 30
0.0
 10
27.52284986845886
 20
39.55736402441569
 30
0.0
 10
27.41478769948915
 20
39.85643840690816
 30
0.0
 10
27.31585404815526
 20
40.07837217227375
 30
0.0
 10
27.24704863146282
 20
40.20952474642619
 30
0.0
 10
27.23361943570332
 20
40.23411643596131
 30
0.0
 10
27.23361943570332
 20
40.23411643596131
 30
0.0
  0
SPLINE
  5
A0
330
8B
100
AcDbEntity
  8
0
  6
Continuous
 62
     0
370
    30
100
AcDbSpline
210
0.0
220
0.0
230
1.0
 70
     8
 71
     3
 72
    23
 73
    19
 74
     0
 42
0.0
 43
0.0
 40
0.0
 40
0.0
 40
0.0
 40
0.0
 40
0.3272101300961909
 40
0.8865758289735146
 40
1.335367345874737
 40
1.673984426770882
 40
2.20022704048789
 40
2.764908836383184
 40
3.278203970732492
 40
3.95756555227403
 40
4.647581945503124
 40
5.183530554233342
 40
5.661164853425578
 40
6.205228637947413
 40
6.482725805030114
 40
6.930127593656555
 40
7.416761490743007
 40
7.751108947122761
 40
7.751108947122761
 40
7.751108947122761
 40
7.751108947122761
 10
29.02386361483823
 20
43.01979075373772
 30
0.0
 10
29.02386361483823
 20
43.01979075373772
 30
0.0
 10
29.05335113739809
 20
43.01771248999986
 30
0.0
 10
29.21725208219262
 20
43.00851955465497
 30
0.0
 10
29.5015506559571
 20
43.01422877143547
 30
0.0
 10
29.8447331846827
 20
43.04897709160849
 30
0.0
 10
30.2686480006285
 20
43.13396112187508
 30
0.0
 10
30.76037854136819
 20
43.30732962572461
 30
0.0
 10
31.27693121509679
 20
43.57854916173633
 30
0.0
 10
31.78111516615909
 20
43.95721660251012
 30
0.0
 10
32.21170956555945
 20
44.42766691513001
 30
0.0
 10
32.51845283412987
 20
44.89986957005817
 30
0.0
 10
32.73164006430964
 20
45.3503173747024
 30
0.0
 10
32.84867614852345
 20
45.71452172929261
 30
0.0
 10
32.91946028574289
 20
46.02454192951133
 30
0.0
 10
32.95621845437058
 20
46.2647320638105
 30
0.0
 10
32.96924208940131
 20
46.41226364688185
 30
0.0
 10
32.9712400021584
 20
46.44021186395466
 30
0.0
 10
32.9712400021584
 20
46.44021186395466
 30
0.0
  0
SPLINE
  5
A1
330
8B
100
AcDbEntity
  8
0
  6
Continuous
 62
     0
370
    30
100
AcDbSpline
210
0.0
220
0.0
230
1.0
 70
     8
 71
     3
 72
    23
 73
    19
 74
     0
 42
0.0
 43
0.0
 40
0.0
 40
0.0
 40
0.0
 40
0.0
 40
0.3272101300961894
 40
0.8865758289735305
 40
1.335367345874754
 40
1.673984426770833
 40
2.200227040487855
 40
2.764908836383166
 40
3.278203970732478
 40
3.957565552274055
 40
4.647581945503122
 40
5.183530554233364
 40
5.661164853425577
 40
6.205228637947424
 40
6.482725805030148
 40
6.930127593656583
 40
7.416761490743025
 40
7.751108947122786
 40
7.751108947122786
 40
7.751108947122786
 40
7.751108947122786
 10
35.98333848281381
 20
47.81579114864853
 30
0.0
 10
35.98333848281381
 20
47.81579114864853
 30
0.0
 10
36.00702137113557
 20
47.79810064363541
 30
0.0
 10
36.13993354389871
 20
47.70175551352396
 30
0.0
 10
36.38218735908416
 20
47.55285499898876
 30
0.0
 10
36.68967723400405
 20
47.39654866322761
 30
0.0
 10
37.09224290613193
 20
47.23885612629911
 30
0.0
 10
37.59964305037242
 20
47.1188533911308
 30
0.0
 10
38.18082716369936
 20
47.06774832418996
 30
0.0
 10
38.80969676845104
 20
47.11372122305876
 30
0.0
 10
39.426280469751
 20
47.27669230248815
 30
0.0
 10
39.93962135747311
 20
47.50809652268981
 30
0.0
 10
40.36249633734027
 20
47.77177961130734
 30
0.0
 10
40.65785709664039
 20
48.01489332703771
 30
0.0
 10
40.88501407661867
 20
48.23743012191152
 30
0.0
 10
41.04579360638939
 20
48.41961795460687
 30
0.0
 10
41.13651138104149
 20
48.53668831138056
 30
0.0
 10
41.15330207913135
 20
48.55911969454318
 30
0.0
 10
41.15330207913135
 20
48.55911969454318
 30
0.0
  0
SPLINE
  5
A2
330
8B
100
AcDbEntity
  8
0
  6
Continuous
 62
     0
370
    30
100
AcDbSpline
210
0.0
220
0.0
230
1.0
 70
     8
 71
     3
 72
    23
 73
    19
 74
     0
 42
0.0
 43
0.0
 40
0.0
 40
0.0
 40
0.0
 40
0.0
 40
0.3272101300963069
 40
0.8865758289739937
 40
1.335367345875213
 40
1.673984426771359
 40
2.200227040488468
 40
2.764908836383981
 40
3.278203970733891
 40
3.957565552275955
 40
4.647581945505533
 40
5.183530554236162
 40
5.661164853428453
 40
6.205228637949959
 40
6.482725805032471
 40
6.930127593658721
 40
7.416761490745118
 40
7.751108947122773
 40
7.751108947122773
 40
7.751108947122773
 40
7.751108947122773
 10
44.43093487617004
 20
48.087867242643
 30
0.0
 10
44.43093487617004
 20
48.087867242643
 30
0.0
 10
44.4412939805469
 20
48.06018110670111
 30
0.0
 10
44.50101870553887
 20
47.90727267989121
 30
0.0
 10
44.62431388750771
 20
47.65103729532431
 30
0.0
 10
44.79848524595456
 20
47.35330246082528
 30
0.0
 10
45.05189001775717
 20
47.00299962297422
 30
0.0
 10
45.41386380482054
 20
46.62772566930499
 30
0.0
 10
45.87515750821559
 20
46.27052149707406
 30
0.0
 10
46.42905111052897
 20
45.96920378347597
 30
0.0
 10
47.03586314513852
 20
45.77295346349487
 30
0.0
 10
47.59281954725433
 20
45.69009004408045
 30
0.0
 10
48.09112245859276
 20
45.68329089913125
 30
0.0
 10
48.4710329388204
 20
45.72812708901702
 30
0.0
 10
48.78244202542834
 20
45.79252661854338
 30
0.0
 10
49.01619655165322
 20
45.85886880003176
 30
0.0
 10
49.15580621345504
 20
45.90830891941154
 30
0.0
 10
49.18205876887136
 20
45.91810166300234
 30
0.0
 10
49.18205876887136
 20
45.91810166300234
 30
0.0
  0
SPLINE
  5
A3
330
8B
100
AcDbEntity
  8
0
  6
Continuous
 62
     0
370
    30
100
AcDbSpline
210
0.0
220
0.0
230
1.0
 70
     8
 71
     3
 72
    23
 73
    19
 74
     0
 42
0.0
 43
0.0
 40
0.0
 40
0.0
 40
0.0
 40
0.0
 40
0.3272101300962408
 40
0.8865758289736941
 40
1.335367345874867
 40
1.673984426770998
 40
2.200227040267196
 40
2.764908836386041
 40
3.278203970735518
 40
3.957565551257574
 40
4.647581944188985
 40
5.183530552733911
 40
5.661164851904252
 40
6.205228636608926
 40
6.482725803798155
 40
6.930127592518332
 40
7.416761489627715
 40
7.751108947126452
 40
7.751108947126452
 40
7.751108947126452
 40
7.751108947126452
 10
51.6846006278802
 20
43.74963679827567
 30
0.0
 10
51.6846006278802
 20
43.74963679827567
 30
0.0
 10
51.67834700586636
 20
43.72074518394589
 30
0.0
 10
51.64592210489705
 20
43.55982080554946
 30
0.0
 10
51.61111330453564
 20
43.27760347508163
 30
0.0
 10
51.59666797084232
 20
42.93296884815206
 30
0.0
 10
51.62045761772649
 20
42.50127438534702
 30
0.0
 10
51.7220809277954
 20
41.98987604184341
 30
0.0
 10
51.91702672968568
 20
41.43998256538726
 30
0.0
 10
52.22008702415721
 20
40.88704048473122
 30
0.0
 10
52.62446885814141
 20
40.39387685555578
 30
0.0
 10
53.04821105199611
 20
40.0230543466371
 30
0.0
 10
53.4637342412431
 20
39.74793164839959
 30
0.0
 10
53.80757554938782
 20
39.58025513873298
 30
0.0
 10
54.10436655818778
 20
39.46607100712802
 30
0.0
 10
54.33688067067523
 20
39.39550436341231
 30
0.0
 10
54.48105713884902
 20
39.36161735671056
 30
0.0
 10
54.50843655086986
 20
39.35566233380464
 30
0.0
 10
54.50843655086986
 20
39.35566233380464
 30
0.0
  0
CIRCLE
  5
A4
330
8B
100
AcDbEntity
  8
0
  6
Continuous
 62
     0
370
    30
100
AcDbCircle
 10
40.67
 20
33.567
 30
0.0
 40
5.580343384734768
  0
ENDBLK
  5
A6
330
8B
100
AcDbEntity
  8
0
100
AcDbBlockEnd
  0
BLOCK
  5
E1
330
A8
100
AcDbEntity
  8
0
100
AcDbBlockBegin
  2
c
 70
     0
 10
0.0
 20
23.268
 30
0.0
  3
c
  1

  0
LINE
  5
A9
330
A8
100
AcDbEntity
  8
0
  6
Continuous
 62
     0
370
    30
100
AcDbLine
 10
27.67
 20
82.655
 30
0.0
 11
53.67
 21
82.655
 31
0.0
  0
LINE
  5
AA
330
A8
100
AcDbEntity
  8
0
  6
Continuous
 62
     0
370
    30
100
AcDbLine
 10
27.67
 20
70.155
 30
0.0
 11
53.67
 21
70.155
 31
0.0
  0
ARC
  5
AB
330
A8
100
AcDbEntity
  8
0
  6
Continuous
 62
     0
370
    30
100
AcDbCircle
 10
53.67
 20
80.655
 30
0.0
 40
2.0
100
AcDbArc
 50
69.697
 51
90.0
  0
ARC
  5
AC
330
A8
100
AcDbEntity
  8
0
  6
Continuous
 62
     0
370
    30
100
AcDbCircle
 10
53.67
 20
72.155
 30
0.0
 40
2.0
100
AcDbArc
 50
270.0
 51
290.303
  0
LINE
  5
AD
330
A8
100
AcDbEntity
  8
0
  6
Continuous
 62
     0
370
    30
100
AcDbLine
 10
55.441
 20
72.155
 30
0.0
 11
55.441
 21
80.655
 31
0.0
  0
SPLINE
  5
AE
330
A8
100
AcDbEntity
  8
0
  6
Continuous
 62
     0
370
    30
100
AcDbSpline
210
0.0
220
0.0
230
1.0
 70
     8
 71
     3
 72
    15
 73
    11
 74
     0
 42
0.0
 43
0.0
 40
0.0
 40
0.0
 40
0.0
 40
0.0
 40
0.6619996057529709
 40
1.268341474061093
 40
1.732847607160499
 40
2.16196413708554
 40
2.526235038615164
 40
2.982164439674535
 40
3.531264570004079
 40
3.875554419605522
 40
3.875554419605522
 40
3.875554419605522
 40
3.875554419605522
 10
54.36442117411531
 20
82.53085796913285
 30
0.0
 10
54.36442117411531
 20
82.53085797876255
 30
0.0
 10
54.40236245106904
 20
82.51409500800034
 30
0.0
 10
54.55061391134956
 20
82.43205703653655
 30
0.0
 10
54.73947948073972
 20
82.29019993395124
 30
0.0
 10
54.92616521516814
 20
82.10338409485442
 30
0.0
 10
55.11578005197283
 20
81.84843145220617
 30
0.0
 10
55.30183068669174
 20
81.49149195236595
 30
0.0
 10
55.41917282714405
 20
81.06788865713696
 30
0.0
 10
55.44134811372942
 20
80.76967816600106
 30
0.0
 10
55.44134811372942
 20
80.65512096376463
 30
0.0
  0
SPLINE
  5
AF
330
A8
100
AcDbEntity
  8
0
  6
Continuous
 62
     0
370
    30
100
AcDbSpline
210
0.0
220
0.0
230
1.0
 70
     8
 71
     3
 72
    15
 73
    11
 74
     0
 42
0.0
 43
0.0
 40
0.0
 40
0.0
 40
0.0
 40
0.0
 40
0.6619996057529707
 40
1.268341474061092
 40
1.732847607160499
 40
2.16196413708554
 40
2.526235038615155
 40
2.982164439674542
 40
3.531264570004058
 40
3.875554419605522
 40
3.875554419605522
 40
3.875554419605522
 40
3.875554419605522
 10
54.36442117411531
 20
70.2793837300863
 30
0.0
 10
54.36442117411531
 20
70.279383739716
 30
0.0
 10
54.40236245106905
 20
70.29614674749112
 30
0.0
 10
54.55061391134956
 20
70.37818476749368
 30
0.0
 10
54.73947948073972
 20
70.52004190884031
 30
0.0
 10
54.92616521516814
 20
70.70685777667612
 30
0.0
 10
55.11578005197282
 20
70.96181044315537
 30
0.0
 10
55.30183068669174
 20
71.31874996260578
 30
0.0
 10
55.41917282714405
 20
71.74235326845297
 30
0.0
 10
55.44134811372942
 20
72.04056376152823
 30
0.0
 10
55.44134811372942
 20
72.15512096376466
 30
0.0
  0
LINE
  5
B0
330
A8
100
AcDbEntity
  8
0
  6
Continuous
 62
     0
370
     0
100
AcDbLine
 10
25.67
 20
72.155
 30
0.0
 11
25.762
 21
72.155
 31
0.0
  0
LINE
  5
B1
330
A8
100
AcDbEntity
  8
0
  6
Continuous
 62
     0
370
     0
100
AcDbLine
 10
27.234
 20
72.155
 30
0.0
 11
29.024
 21
72.155
 31
0.0
  0
LINE
  5
B2
330
A8
100
AcDbEntity
  8
0
  6
Continuous
 62
     0
370
     0
100
AcDbLine
 10
32.971
 20
72.155
 30
0.0
 11
35.983
 21
72.155
 31
0.0
  0
LINE
  5
B3
330
A8
100
AcDbEntity
  8
0
  6
Continuous
 62
     0
370
     0
100
AcDbLine
 10
41.153
 20
72.155
 30
0.0
 11
44.431
 21
72.155
 31
0.0
  0
LINE
  5
B4
330
A8
100
AcDbEntity
  8
0
  6
Continuous
 62
     0
370
     0
100
AcDbLine
 10
49.182
 20
72.155
 30
0.0
 11
51.685
 21
72.155
 31
0.0
  0
LINE
  5
B5
330
A8
100
AcDbEntity
  8
0
  6
Continuous
 62
     0
370
     0
100
AcDbLine
 10
54.508
 20
72.155
 30
0.0
 11
55.441
 21
72.155
 31
0.0
  0
LINE
  5
B6
330
A8
100
AcDbEntity
  8
0
  6
Continuous
 62
     0
370
     0
100
AcDbLine
 10
25.67
 20
80.655
 30
0.0
 11
25.762
 21
80.655
 31
0.0
  0
LINE
  5
B7
330
A8
100
AcDbEntity
  8
0
  6
Continuous
 62
     0
370
     0
100
AcDbLine
 10
27.234
 20
80.655
 30
0.0
 11
29.024
 21
80.655
 31
0.0
  0
LINE
  5
B8
330
A8
100
AcDbEntity
  8
0
  6
Continuous
 62
     0
370
     0
100
AcDbLine
 10
32.971
 20
80.655
 30
0.0
 11
35.983
 21
80.655
 31
0.0
  0
LINE
  5
B9
330
A8
100
AcDbEntity
  8
0
  6
Continuous
 62
     0
370
     0
100
AcDbLine
 10
41.153
 20
80.655
 30
0.0
 11
44.431
 21
80.655
 31
0.0
  0
LINE
  5
BA
330
A8
100
AcDbEntity
  8
0
  6
Continuous
 62
     0
370
     0
100
AcDbLine
 10
49.182
 20
80.655
 30
0.0
 11
51.685
 21
80.655
 31
0.0
  0
LINE
  5
BB
330
A8
100
AcDbEntity
  8
0
  6
Continuous
 62
     0
370
     0
100
AcDbLine
 10
54.508
 20
80.655
 30
0.0
 11
55.441
 21
80.655
 31
0.0
  0
LINE
  5
BC
330
A8
100
AcDbEntity
  8
0
  6
Continuous
 62
     0
370
    30
100
AcDbLine
 10
54.508
 20
80.655
 30
0.0
 11
54.508
 21
72.155
 31
0.0
  0
LINE
  5
BD
330
A8
100
AcDbEntity
  8
0
  6
Continuous
 62
     0
370
    30
100
AcDbLine
 10
51.685
 20
72.155
 30
0.0
 11
51.685
 21
80.655
 31
0.0
  0
LINE
  5
BE
330
A8
100
AcDbEntity
  8
0
  6
Continuous
 62
     0
370
    30
100
AcDbLine
 10
49.182
 20
80.655
 30
0.0
 11
49.182
 21
72.155
 31
0.0
  0
LINE
  5
BF
330
A8
100
AcDbEntity
  8
0
  6
Continuous
 62
     0
370
    30
100
AcDbLine
 10
44.431
 20
72.155
 30
0.0
 11
44.431
 21
80.655
 31
0.0
  0
LINE
  5
C0
330
A8
100
AcDbEntity
  8
0
  6
Continuous
 62
     0
370
    30
100
AcDbLine
 10
41.153
 20
80.655
 30
0.0
 11
41.153
 21
72.155
 31
0.0
  0
LINE
  5
C1
330
A8
100
AcDbEntity
  8
0
  6
Continuous
 62
     0
370
    30
100
AcDbLine
 10
35.983
 20
72.155
 30
0.0
 11
35.983
 21
80.655
 31
0.0
  0
LINE
  5
C2
330
A8
100
AcDbEntity
  8
0
  6
Continuous
 62
     0
370
    30
100
AcDbLine
 10
32.971
 20
80.655
 30
0.0
 11
32.971
 21
72.155
 31
0.0
  0
LINE
  5
C3
330
A8
100
AcDbEntity
  8
0
  6
Continuous
 62
     0
370
    30
100
AcDbLine
 10
29.024
 20
72.155
 30
0.0
 11
29.024
 21
80.655
 31
0.0
  0
LINE
  5
C4
330
A8
100
AcDbEntity
  8
0
  6
Continuous
 62
     0
370
    30
100
AcDbLine
 10
27.234
 20
80.655
 30
0.0
 11
27.234
 21
72.155
 31
0.0
  0
LINE
  5
C5
330
A8
100
AcDbEntity
  8
0
  6
Continuous
 62
     0
370
    30
100
AcDbLine
 10
25.762
 20
72.155
 30
0.0
 11
25.762
 21
80.655
 31
0.0
  0
SPLINE
  5
C6
330
A8
100
AcDbEntity
  8
0
  6
Continuous
 62
     0
370
    30
100
AcDbSpline
210
0.0
220
0.0
230
1.0
 70
     8
 71
     3
 72
    23
 73
    19
 74
     0
 42
0.0
 43
0.0
 40
0.0
 40
0.0
 40
0.0
 40
0.0
 40
0.3272101300962191
 40
0.8865758289736697
 40
1.33536734587492
 40
1.673984426771012
 40
2.200227040267084
 40
2.764908836031083
 40
3.278203970736751
 40
3.95756555125876
 40
4.647581944190122
 40
5.183530552735045
 40
5.661164851905375
 40
6.205228636610077
 40
6.482725803799315
 40
6.930127592519493
 40
7.416761489628878
 40
7.751108947127835
 40
7.751108947127835
 40
7.751108947127835
 40
7.751108947127835
 10
54.50843655086987
 20
80.65512110264467
 30
0.0
 10
54.50843655086987
 20
80.76401429065498
 30
0.0
 10
54.47955796560784
 20
81.05990959464197
 30
0.0
 10
54.31970621152822
 20
81.48058396417443
 30
0.0
 10
54.04853219983619
 20
81.83330490585399
 30
0.0
 10
53.72904070799081
 20
82.1064224972692
 30
0.0
 10
53.34624018896602
 20
82.3162650271392
 30
0.0
 10
52.92327174203459
 20
82.44914029167944
 30
0.0
 10
52.50405445459779
 20
82.52078602285383
 30
0.0
 10
52.12697644255952
 20
82.53973295228818
 30
0.0
 10
51.84636531133653
 20
82.50692996428779
 30
0.0
 10
51.6850821615965
 20
82.4162829160808
 30
0.0
 10
51.60743632369487
 20
82.26156304017738
 30
0.0
 10
51.5977492471263
 20
82.04966830801126
 30
0.0
 10
51.6171751484361
 20
81.7685290301034
 30
0.0
 10
51.6495753245696
 20
81.44133488515067
 30
0.0
 10
51.67864368844787
 20
81.040389310666
 30
0.0
 10
51.68460062788022
 20
80.76638201908438
 30
0.0
 10
51.68460062788022
 20
80.65512129471142
 30
0.0
  0
SPLINE
  5
C7
330
A8
100
AcDbEntity
  8
0
  6
Continuous
 62
     0
370
    30
100
AcDbSpline
210
0.0
220
0.0
230
1.0
 70
     8
 71
     3
 72
    23
 73
    19
 74
     0
 42
0.0
 43
0.0
 40
0.0
 40
0.0
 40
0.0
 40
0.0
 40
0.3272101300963995
 40
0.8865758289743673
 40
1.335367345875587
 40
1.673984426771709
 40
2.200227040488937
 40
2.764908836384631
 40
3.278203970734932
 40
3.957565552277428
 40
4.647581945507446
 40
5.18353055423835
 40
5.661164853430665
 40
6.205228637951895
 40
6.482725805034244
 40
6.930127593660354
 40
7.416761490746727
 40
7.751108947122744
 40
7.751108947122744
 40
7.751108947122744
 40
7.751108947122744
 10
49.18205876887134
 20
80.65512138949802
 30
0.0
 10
49.18205876887134
 20
80.76401457750839
 30
0.0
 10
49.15435121272246
 20
81.05990988076897
 30
0.0
 10
48.99967935700272
 20
81.48058424626706
 30
0.0
 10
48.7252884008256
 20
81.83330518093746
 30
0.0
 10
48.38621744275768
 20
82.10642276396783
 30
0.0
 10
47.95553138730862
 20
82.3162652833021
 30
0.0
 10
47.43487583669137
 20
82.4491405357133
 30
0.0
 10
46.8628358024003
 20
82.52078625428669
 30
0.0
 10
46.27239189766431
 20
82.53973317123177
 30
0.0
 10
45.72669842752028
 20
82.50693017251481
 30
0.0
 10
45.29934555530326
 20
82.41628311655009
 30
0.0
 10
44.96788809415605
 20
82.26156323513842
 30
0.0
 10
44.75298456966284
 20
82.04966849987059
 30
0.0
 10
44.59772490367806
 20
81.76852922007615
 30
0.0
 10
44.49478631849318
 20
81.44133507410521
 30
0.0
 10
44.44072578207731
 20
81.04038949958812
 30
0.0
 10
44.43093487617004
 20
80.7663822083421
 30
0.0
 10
44.43093487617004
 20
80.65512148434149
 30
0.0
  0
SPLINE
  5
C8
330
A8
100
AcDbEntity
  8
0
  6
Continuous
 62
     0
370
    30
100
AcDbSpline
210
0.0
220
0.0
230
1.0
 70
     8
 71
     3
 72
    23
 73
    19
 74
     0
 42
0.0
 43
0.0
 40
0.0
 40
0.0
 40
0.0
 40
0.0
 40
0.3272101300961545
 40
0.8865758289734058
 40
1.335367345874672
 40
1.673984426770709
 40
2.200227040487702
 40
2.764908836382976
 40
3.278203970732141
 40
3.957565552273474
 40
4.647581945502379
 40
5.18353055423253
 40
5.661164853424742
 40
6.205228637946656
 40
6.482725805029453
 40
6.930127593655943
 40
7.416761490742394
 40
7.751108947122765
 40
7.751108947122765
 40
7.751108947122765
 40
7.751108947122765
 10
41.15330207913135
 20
80.65512150494058
 30
0.0
 10
41.15330207913135
 20
80.7640146929509
 30
0.0
 10
41.13556250540088
 20
81.05990999562783
 30
0.0
 10
41.03517776937237
 20
81.48058435785205
 30
0.0
 10
40.84468705854562
 20
81.83330528655574
 30
0.0
 10
40.59368926772695
 20
82.1064228620128
 30
0.0
 10
40.25185745552558
 20
82.31626537143208
 30
0.0
 10
39.79881925972283
 20
82.44914061134617
 30
0.0
 10
39.25557514778623
 20
82.52078631560522
 30
0.0
 10
38.63922711836373
 20
82.53973321706161
 30
0.0
 10
38.00170513042252
 20
82.5069302031587
 30
0.0
 10
37.44396405296287
 20
82.41628313455126
 30
0.0
 10
36.96393037031083
 20
82.26156324272523
 30
0.0
 10
36.61204074834485
 20
82.04966850018357
 30
0.0
 10
36.33138936193694
 20
81.76852921479485
 30
0.0
 10
36.12579428889008
 20
81.44133506486435
 30
0.0
 10
36.00576869058507
 20
81.04038948811177
 30
0.0
 10
35.9833384828138
 20
80.7663821964507
 30
0.0
 10
35.9833384828138
 20
80.65512147244866
 30
0.0
  0
SPLINE
  5
C9
330
A8
100
AcDbEntity
  8
0
  6
Continuous
 62
     0
370
    30
100
AcDbSpline
210
0.0
220
0.0
230
1.0
 70
     8
 71
     3
 72
    23
 73
    19
 74
     0
 42
0.0
 43
0.0
 40
0.0
 40
0.0
 40
0.0
 40
0.0
 40
0.3272101300962095
 40
0.8865758289736005
 40
1.335367345874837
 40
1.673984426771006
 40
2.200227040488035
 40
2.764908836383357
 40
3.278203970732847
 40
3.95756555227458
 40
4.647581945503808
 40
5.183530554234145
 40
5.661164853426398
 40
6.205228637948132
 40
6.482725805030789
 40
6.93012759365716
 40
7.416761490743558
 40
7.751108947122744
 40
7.751108947122744
 40
7.751108947122744
 40
7.751108947122744
 10
32.97124000215839
 20
80.65512141232017
 30
0.0
 10
32.97124000215839
 20
80.76401460033048
 30
0.0
 10
32.96910060016381
 20
81.05990990275237
 30
0.0
 10
32.95487442823074
 20
81.48058426350559
 30
0.0
 10
32.90876341749843
 20
81.83330518917262
 30
0.0
 10
32.825528819048
 20
82.10642276033985
 30
0.0
 10
32.68108043519965
 20
82.31626526351778
 30
0.0
 10
32.43949602036314
 20
82.44914049451646
 30
0.0
 10
32.09752399794029
 20
82.5207861874139
 30
0.0
 10
31.65095798826464
 20
82.53973307522793
 30
0.0
 10
31.12401620918164
 20
82.50693004637918
 30
0.0
 10
30.61296577776251
 20
82.41628296405378
 30
0.0
 10
30.1367631760925
 20
82.26156305995437
 30
0.0
 10
29.75960992529578
 20
82.04966830805532
 30
0.0
 10
29.44267165066253
 20
81.76852901499649
 30
0.0
 10
29.19969507278163
 20
81.44133485930854
 30
0.0
 10
29.05181169199007
 20
81.04038927911773
 30
0.0
 10
29.02386361483823
 20
80.76638198681047
 30
0.0
 10
29.02386361483823
 20
80.65512126280882
 30
0.0
  0
SPLINE
  5
CA
330
A8
100
AcDbEntity
  8
0
  6
Continuous
 62
     0
370
    30
100
AcDbSpline
210
0.0
220
0.0
230
1.0
 70
     8
 71
     3
 72
    23
 73
    19
 74
     0
 42
0.0
 43
0.0
 40
0.0
 40
0.0
 40
0.0
 40
0.0
 40
0.3272101300962114
 40
0.8865758289736192
 40
1.335367345874823
 40
1.673984426770887
 40
2.200227040487908
 40
2.764908836383246
 40
3.27820397073267
 40
3.957565552274225
 40
4.647581945503352
 40
5.183530554233617
 40
5.661164853425863
 40
6.205228637947648
 40
6.482725805030367
 40
6.930127593656789
 40
7.416761490743237
 40
7.751108947122802
 40
7.751108947122802
 40
7.751108947122802
 40
7.751108947122802
 10
27.23361943570332
 20
80.65512114104314
 30
0.0
 10
27.23361943570332
 20
80.76401432905345
 30
0.0
 10
27.24775945046166
 20
81.05990963162935
 30
0.0
 10
27.32420855169546
 20
81.48058399318123
 30
0.0
 10
27.4371171611603
 20
81.83330491970551
 30
0.0
 10
27.54807215197863
 20
82.1064224912285
 30
0.0
 10
27.64686853773179
 20
82.31626499382051
 30
0.0
 10
27.69343924861831
 20
82.44914022231626
 30
0.0
 10
27.66131301656997
 20
82.52078591041223
 30
0.0
 10
27.52631057942895
 20
82.53973279076192
 30
0.0
 10
27.27724930087076
 20
82.50692975195338
 30
0.0
 10
26.97514441655816
 20
82.41628265919138
 30
0.0
 10
26.65396385721348
 20
82.26156274485777
 30
0.0
 10
26.37129046987617
 20
82.04966798449004
 30
0.0
 10
26.11869096983439
 20
81.76852868412135
 30
0.0
 10
25.91547623380578
 20
81.44133452270663
 30
0.0
 10
25.78668699903447
 20
81.0403889389647
 30
0.0
 10
25.7620943695259
 20
80.7663816459829
 30
0.0
 10
25.7620943695259
 20
80.65512092198114
 30
0.0
  0
SPLINE
  5
CB
330
A8
100
AcDbEntity
  8
0
  6
Continuous
 62
     0
370
    30
100
AcDbSpline
210
0.0
220
0.0
230
1.0
 70
     8
 71
     3
 72
    23
 73
    19
 74
     0
 42
0.0
 43
0.0
 40
0.0
 40
0.0
 40
0.0
 40
0.0
 40
0.3272101300962209
 40
0.8865758289736718
 40
1.335367345874914
 40
1.673984426770991
 40
2.200227040267181
 40
2.764908836031204
 40
3.278203970736851
 40
3.957565551258889
 40
4.647581944190295
 40
5.18353055273522
 40
5.661164851905535
 40
6.205228636610255
 40
6.48272580379948
 40
6.93012759251963
 40
7.416761489628995
 40
7.75110894712783
 40
7.75110894712783
 40
7.75110894712783
 40
7.75110894712783
 10
54.50843655086987
 20
72.1551211026447
 30
0.0
 10
54.50843655086987
 20
72.04622791463439
 30
0.0
 10
54.47955796560787
 20
71.75033261119935
 30
0.0
 10
54.31970621152826
 20
71.32965824493263
 30
0.0
 10
54.04853219983618
 20
70.9769373107342
 30
0.0
 10
53.72904070799079
 20
70.70381973068623
 30
0.0
 10
53.34624018896595
 20
70.4939772183858
 30
0.0
 10
52.92327174203452
 20
70.3611019804992
 30
0.0
 10
52.50405445459771
 20
70.28945628479775
 30
0.0
 10
52.12697644255946
 20
70.27050939954458
 30
0.0
 10
51.84636531133648
 20
70.30331243761253
 30
0.0
 10
51.68508216159645
 20
70.3939595329837
 30
0.0
 10
51.60743632369484
 20
70.54867945192217
 30
0.0
 10
51.59774924712629
 20
70.76057421752094
 30
0.0
 10
51.61717514843611
 20
71.04171352317718
 30
0.0
 10
51.64957532456961
 20
71.3689076891828
 30
0.0
 10
51.67864368844787
 20
71.76985327636334
 30
0.0
 10
51.68460062788022
 20
72.0438605703385
 30
0.0
 10
51.68460062788022
 20
72.15512129471142
 30
0.0
  0
SPLINE
  5
CC
330
A8
100
AcDbEntity
  8
0
  6
Continuous
 62
     0
370
    30
100
AcDbSpline
210
0.0
220
0.0
230
1.0
 70
     8
 71
     3
 72
    23
 73
    19
 74
     0
 42
0.0
 43
0.0
 40
0.0
 40
0.0
 40
0.0
 40
0.0
 40
0.3272101300963995
 40
0.8865758289743684
 40
1.335367345875606
 40
1.673984426771775
 40
2.20022704048891
 40
2.764908836384567
 40
3.278203970734925
 40
3.957565552277429
 40
4.647581945507405
 40
5.183530554238329
 40
5.661164853430654
 40
6.205228637951858
 40
6.482725805034247
 40
6.930127593660371
 40
7.416761490746712
 40
7.751108947122747
 40
7.751108947122747
 40
7.751108947122747
 40
7.751108947122747
 10
49.18205876887134
 20
72.15512138949802
 30
0.0
 10
49.18205876887134
 20
72.04622820148765
 30
0.0
 10
49.15435121272246
 20
71.75033289732647
 30
0.0
 10
48.99967935700268
 20
71.32965852702043
 30
0.0
 10
48.72528840082559
 20
70.97693758582665
 30
0.0
 10
48.38621744275765
 20
70.7038199972585
 30
0.0
 10
47.95553138730862
 20
70.49397747461188
 30
0.0
 10
47.43487583669138
 20
70.36110222463185
 30
0.0
 10
46.86283580240033
 20
70.2894565160862
 30
0.0
 10
46.27239189766431
 20
70.27050961848633
 30
0.0
 10
45.72669842752029
 20
70.30331264605994
 30
0.0
 10
45.29934555530328
 20
70.39395973407863
 30
0.0
 10
44.96788809415605
 20
70.54867964802384
 30
0.0
 10
44.75298456966288
 20
70.7605744109591
 30
0.0
 10
44.59772490367802
 20
71.04171371501508
 30
0.0
 10
44.49478631849319
 20
71.36890788022825
 30
0.0
 10
44.44072578207731
 20
71.76985346679973
 30
0.0
 10
44.43093487617004
 20
72.04386076034089
 30
0.0
 10
44.43093487617004
 20
72.15512148434149
 30
0.0
  0
SPLINE
  5
CD
330
A8
100
AcDbEntity
  8
0
  6
Continuous
 62
     0
370
    30
100
AcDbSpline
210
0.0
220
0.0
230
1.0
 70
     8
 71
     3
 72
    23
 73
    19
 74
     0
 42
0.0
 43
0.0
 40
0.0
 40
0.0
 40
0.0
 40
0.0
 40
0.3272101300961545
 40
0.8865758289734058
 40
1.335367345874672
 40
1.673984426770709
 40
2.200227040487702
 40
2.764908836382976
 40
3.278203970732141
 40
3.957565552273474
 40
4.647581945502379
 40
5.18353055423253
 40
5.661164853424742
 40
6.205228637946656
 40
6.482725805029453
 40
6.930127593655947
 40
7.416761490742382
 40
7.751108947122765
 40
7.751108947122765
 40
7.751108947122765
 40
7.751108947122765
 10
41.15330207913135
 20
72.15512150494058
 30
0.0
 10
41.15330207913135
 20
72.04622831693027
 30
0.0
 10
41.13556250540088
 20
71.75033301218613
 30
0.0
 10
41.03517776937237
 20
71.32965863860673
 30
0.0
 10
40.84468705854562
 20
70.97693769144635
 30
0.0
 10
40.59368926772696
 20
70.70382009530465
 30
0.0
 10
40.25185745552555
 20
70.49397756274274
 30
0.0
 10
39.79881925972285
 20
70.36110230026546
 30
0.0
 10
39.25557514778623
 20
70.28945657740516
 30
0.0
 10
38.63922711836373
 20
70.27050966431608
 30
0.0
 10
38.00170513042251
 20
70.30331267670292
 30
0.0
 10
37.44396405296287
 20
70.3939597520774
 30
0.0
 10
36.96393037031083
 20
70.54867965560621
 30
0.0
 10
36.61204074834485
 20
70.76057441126594
 30
0.0
 10
36.33138936193694
 20
71.04171370972654
 30
0.0
 10
36.12579428889008
 20
71.36890787097929
 30
0.0
 10
36.00576869058509
 20
71.7698534553175
 30
0.0
 10
35.9833384828138
 20
72.0438607484466
 30
0.0
 10
35.9833384828138
 20
72.15512147244866
 30
0.0
  0
SPLINE
  5
CE
330
A8
100
AcDbEntity
  8
0
  6
Continuous
 62
     0
370
    30
100
AcDbSpline
210
0.0
220
0.0
230
1.0
 70
     8
 71
     3
 72
    23
 73
    19
 74
     0
 42
0.0
 43
0.0
 40
0.0
 40
0.0
 40
0.0
 40
0.0
 40
0.3272101300962112
 40
0.8865758289736037
 40
1.335367345874837
 40
1.673984426771006
 40
2.200227040488035
 40
2.764908836383357
 40
3.278203970732847
 40
3.95756555227458
 40
4.647581945503808
 40
5.183530554234145
 40
5.661164853426398
 40
6.205228637948132
 40
6.482725805030789
 40
6.93012759365716
 40
7.416761490743558
 40
7.751108947122744
 40
7.751108947122744
 40
7.751108947122744
 40
7.751108947122744
 10
32.97124000215839
 20
72.1551214123202
 30
0.0
 10
32.97124000215839
 20
72.04622822430989
 30
0.0
 10
32.96910060016381
 20
71.7503329193105
 30
0.0
 10
32.95487442823072
 20
71.32965854426007
 30
0.0
 10
32.90876341749844
 20
70.97693759406289
 30
0.0
 10
32.825528819048
 20
70.70381999363138
 30
0.0
 10
32.68108043519968
 20
70.49397745482821
 30
0.0
 10
32.43949602036313
 20
70.3611021834356
 30
0.0
 10
32.0975239979403
 20
70.28945644921373
 30
0.0
 10
31.65095798826464
 20
70.27050952248243
 30
0.0
 10
31.12401620918164
 20
70.30331251992365
 30
0.0
 10
30.61296577776251
 20
70.39395958158062
 30
0.0
 10
30.1367631760925
 20
70.5486794728366
 30
0.0
 10
29.75960992529578
 20
70.76057421913944
 30
0.0
 10
29.44267165066253
 20
71.04171350993022
 30
0.0
 10
29.19969507278163
 20
71.36890766542572
 30
0.0
 10
29.05181169199007
 20
71.76985324632508
 30
0.0
 10
29.02386361483823
 20
72.04386053880717
 30
0.0
 10
29.02386361483823
 20
72.15512126280882
 30
0.0
  0
SPLINE
  5
CF
330
A8
100
AcDbEntity
  8
0
  6
Continuous
 62
     0
370
    30
100
AcDbSpline
210
0.0
220
0.0
230
1.0
 70
     8
 71
     3
 72
    23
 73
    19
 74
     0
 42
0.0
 43
0.0
 40
0.0
 40
0.0
 40
0.0
 40
0.0
 40
0.3272101300962131
 40
0.886575828973619
 40
1.335367345874822
 40
1.673984426770886
 40
2.200227040487892
 40
2.764908836383254
 40
3.278203970732671
 40
3.957565552274263
 40
4.647581945503408
 40
5.183530554233683
 40
5.66116485342592
 40
6.205228637947713
 40
6.482725805030418
 40
6.930127593656844
 40
7.416761490743268
 40
7.751108947122799
 40
7.751108947122799
 40
7.751108947122799
 40
7.751108947122799
 10
27.23361943570332
 20
72.15512114104314
 30
0.0
 10
27.23361943570332
 20
72.04622795303283
 30
0.0
 10
27.24775945046165
 20
71.75033264818745
 30
0.0
 10
27.32420855169546
 20
71.32965827393562
 30
0.0
 10
27.43711716116029
 20
70.97693732459587
 30
0.0
 10
27.54807215197864
 20
70.70381972452017
 30
0.0
 10
27.64686853773178
 20
70.49397718513103
 30
0.0
 10
27.69343924861832
 20
70.36110191123544
 30
0.0
 10
27.66131301656998
 20
70.28945617221208
 30
0.0
 10
27.52631057942894
 20
70.27050923801644
 30
0.0
 10
27.27724930087074
 20
70.30331222549776
 30
0.0
 10
26.97514441655812
 20
70.39395927671794
 30
0.0
 10
26.65396385721345
 20
70.54867915773954
 30
0.0
 10
26.37129046987613
 20
70.76057389557357
 30
0.0
 10
26.11869096983435
 20
71.04171317905443
 30
0.0
 10
25.91547623380576
 20
71.36890732882313
 30
0.0
 10
25.78668699903444
 20
71.76985290617151
 30
0.0
 10
25.7620943695259
 20
72.04386019797937
 30
0.0
 10
25.7620943695259
 20
72.15512092198114
 30
0.0
  0
LINE
  5
D0
330
A8
100
AcDbEntity
  8
0
  6
Continuous
 62
     0
370
    30
100
AcDbLine
 10
48.07
 20
62.655
 30
0.0
 11
33.27
 21
62.655
 31
0.0
  0
LINE
  5
D1
330
A8
100
AcDbEntity
  8
0
  6
Continuous
 62
     0
370
     0
100
AcDbLine
 10
48.57
 20
63.155
 30
0.0
 11
32.77
 21
63.155
 31
0.0
  0
LINE
  5
D2
330
A8
100
AcDbEntity
  8
0
  6
Continuous
 62
     0
370
    30
100
AcDbLine
 10
48.57
 20
70.155
 30
0.0
 11
48.57
 21
63.155
 31
0.0
  0
ARC
  5
D3
330
A8
100
AcDbEntity
  8
0
  6
Continuous
 62
     0
370
    30
100
AcDbCircle
 10
48.07
 20
63.155
 30
0.0
 40
0.5
100
AcDbArc
 50
270.0
 51
360.0
  0
ARC
  5
D5
330
A8
100
AcDbEntity
  8
0
  6
HIDDEN2
 62
     0
370
    30
100
AcDbCircle
 10
40.67
 20
88.387
 30
0.0
 40
8.0
100
AcDbArc
 50
270.0
 51
314.23
  0
LINE
  5
D6
330
A8
100
AcDbEntity
  8
0
  6
HIDDEN2
 62
     0
370
    30
100
AcDbLine
 10
43.42
 20
62.655
 30
0.0
 11
43.42
 21
70.155
 31
0.0
  0
LINE
  5
D7
330
A8
100
AcDbEntity
  8
0
  6
HIDDEN2
 62
     0
370
    30
100
AcDbLine
 10
37.92
 20
62.655
 30
0.0
 11
37.92
 21
70.155
 31
0.0
  0
ARC
  5
D8
330
A8
100
AcDbEntity
  8
0
  6
HIDDEN2
 62
     0
370
    30
100
AcDbCircle
 10
40.67
 20
88.387
 30
0.0
 40
8.0
100
AcDbArc
 50
225.77
 51
270.0
  0
ARC
  5
D9
330
A8
100
AcDbEntity
  8
0
  6
Continuous
 62
     0
370
    30
100
AcDbCircle
 10
33.27
 20
63.155
 30
0.0
 40
0.5
100
AcDbArc
 50
180.0
 51
270.0
  0
LINE
  5
DA
330
A8
100
AcDbEntity
  8
0
  6
Continuous
 62
     0
370
    30
100
AcDbLine
 10
32.77
 20
70.155
 30
0.0
 11
32.77
 21
63.155
 31
0.0
  0
LINE
  5
DB
330
A8
100
AcDbEntity
  8
0
  6
HIDDEN2
 62
     0
370
    30
100
AcDbLine
 10
27.681
 20
82.449
 30
0.0
 11
27.681
 21
70.361
 31
0.0
  0
LINE
  5
DC
330
A8
100
AcDbEntity
  8
0
  6
HIDDEN2
 62
     0
370
    30
100
AcDbLine
 10
51.602
 20
82.062
 30
0.0
 11
51.602
 21
70.749
 31
0.0
  0
LINE
  5
DD
330
A8
100
AcDbEntity
  8
0
  6
HIDDEN2
 62
     0
370
    30
100
AcDbLine
 10
54.364
 20
82.531
 30
0.0
 11
54.364
 21
70.279
 31
0.0
  0
ARC
  5
DE
330
A8
100
AcDbEntity
  8
0
  6
Continuous
 62
     0
370
    30
100
AcDbCircle
 10
27.67
 20
72.155
 30
0.0
 40
2.0
100
AcDbArc
 50
180.0
 51
270.0
  0
ARC
  5
DF
330
A8
100
AcDbEntity
  8
0
  6
Continuous
 62
     0
370
    30
100
AcDbCircle
 10
27.67
 20
80.655
 30
0.0
 40
2.0
100
AcDbArc
 50
90.0
 51
180.0
  0
LINE
  5
E0
330
A8
100
AcDbEntity
  8
0
  6
Continuous
 62
     0
370
    30
100
AcDbLine
 10
25.67
 20
72.155
 30
0.0
 11
25.67
 21
80.655
 31
0.0
  0
ENDBLK
  5
E2
330
A8
100
AcDbEntity
  8
0
100
AcDbBlockEnd
  0
ENDSEC
  0
SECTION
  2
ENTITIES
  0
INSERT
  5
8A
330
1F
100
AcDbEntity
  8
0
  6
Continuous
 62
    72
370
     0
100
AcDbBlockReference
  2
a
 10
70.36
 20
10.541
 30
0.0
  0
INSERT
  5
A7
330
1F
100
AcDbEntity
  8
0
  6
Continuous
 62
    72
370
     0
100
AcDbBlockReference
  2
b
 10
25.07
 20
17.967
 30
0.0
  0
INSERT
  5
E3
330
1F
100
AcDbEntity
  8
0
  6
Continuous
 62
    72
370
     0
100
AcDbBlockReference
  2
c
 10
0.0
 20
23.268
 30
0.0
  0
ENDSEC
  0
SECTION
  2
OBJECTS
  0
DICTIONARY
  5
C
330
0
100
AcDbDictionary
281
     1
  3
ACAD_GROUP
350
D
  3
ACAD_LAYOUT
350
1A
  3
ACAD_MLEADERSTYLE
350
E5
  3
ACAD_MLINESTYLE
350
17
  3
ACAD_PLOTSETTINGS
350
19
  3
ACAD_PLOTSTYLENAME
350
E
  3
ACAD_TABLESTYLE
350
E4
  3
ACAD_VISUALSTYLE
350
2A
  0
DICTIONARY
  5
D
102
{ACAD_REACTORS
330
C
102
}
330
C
100
AcDbDictionary
281
     1
  0
DICTIONARY
  5
1A
102
{ACAD_REACTORS
330
C
102
}
330
C
100
AcDbDictionary
281
     1
  3
Layout1
350
1E
  3
Layout2
350
26
  3
Model
350
22
  0
DICTIONARY
  5
E5
102
{ACAD_REACTORS
330
C
102
}
330
C
100
AcDbDictionary
281
     1
  0
DICTIONARY
  5
17
102
{ACAD_REACTORS
330
C
102
}
330
C
100
AcDbDictionary
281
     1
  3
Standard
350
18
  0
DICTIONARY
  5
19
102
{ACAD_REACTORS
330
C
102
}
330
C
100
AcDbDictionary
281
     1
  0
ACDBDICTIONARYWDFLT
  5
E
102
{ACAD_REACTORS
330
C
102
}
330
C
100
AcDbDictionary
281
     1
  3
Normal
350
F
100
AcDbDictionaryWithDefault
340
F
  0
DICTIONARY
  5
E4
102
{ACAD_REACTORS
330
C
102
}
330
C
100
AcDbDictionary
281
     1
  0
DICTIONARY
  5
2A
102
{ACAD_REACTORS
330
C
102
}
330
C
100
AcDbDictionary
281
     1
  3
2dWireframe
350
2F
  3
3D Hidden
350
31
  3
3dWireframe
350
30
  3
Basic
350
32
  3
Brighten
350
36
  3
ColorChange
350
3A
  3
Conceptual
350
34
  3
Dim
350
35
  3
Facepattern
350
39
  3
Flat
350
2B
  3
FlatWithEdges
350
2C
  3
Gouraud
350
2D
  3
GouraudWithEdges
350
2E
  3
Linepattern
350
38
  3
Realistic
350
33
  3
Thicken
350
37
  0
LAYOUT
  5
1E
102
{ACAD_REACTORS
330
1A
102
}
330
1A
100
AcDbPlotSettings
  1

  2
none_device
  4

  6

 40
0.0
 41
0.0
 42
0.0
 43
0.0
 44
0.0
 45
0.0
 46
0.0
 47
0.0
 48
0.0
 49
0.0
140
0.0
141
0.0
142
1.0
143
1.0
 70
   688
 72
     0
 73
     0
 74
     5
  7

 75
    16
 76
     0
 77
     2
 78
   300
147
1.0
148
0.0
149
0.0
100
AcDbLayout
  1
Layout1
 70
     1
 71
     1
 10
0.0
 20
0.0
 11
420.0
 21
297.0
 12
0.0
 22
0.0
 32
0.0
 14
1.000E+20
 24
1.000E+20
 34
1.000E+20
 15
-1.000E+20
 25
-1.000E+20
 35
-1.000E+20
146
0.0
 13
0.0
 23
0.0
 33
0.0
 16
1.0
 26
0.0
 36
0.0
 17
0.0
 27
1.0
 37
0.0
 76
     0
330
1B
  0
LAYOUT
  5
26
102
{ACAD_REACTORS
330
1A
102
}
330
1A
100
AcDbPlotSettings
  1

  2
none_device
  4

  6

 40
0.0
 41
0.0
 42
0.0
 43
0.0
 44
0.0
 45
0.0
 46
0.0
 47
0.0
 48
0.0
 49
0.0
140
0.0
141
0.0
142
1.0
143
1.0
 70
   688
 72
     0
 73
     0
 74
     5
  7

 75
    16
 76
     0
 77
     2
 78
   300
147
1.0
148
0.0
149
0.0
100
AcDbLayout
  1
Layout2
 70
     1
 71
     2
 10
0.0
 20
0.0
 11
0.0
 21
0.0
 12
0.0
 22
0.0
 32
0.0
 14
0.0
 24
0.0
 34
0.0
 15
0.0
 25
0.0
 35
0.0
146
0.0
 13
0.0
 23
0.0
 33
0.0
 16
1.0
 26
0.0
 36
0.0
 17
0.0
 27
1.0
 37
0.0
 76
     0
330
23
  0
LAYOUT
  5
22
102
{ACAD_REACTORS
330
1A
102
}
330
1A
100
AcDbPlotSettings
  1

  2
none_device
  4

  6

 40
0.0
 41
0.0
 42
0.0
 43
0.0
 44
0.0
 45
0.0
 46
0.0
 47
0.0
 48
0.0
 49
0.0
140
0.0
141
0.0
142
1.0
143
1.0
 70
  1712
 72
     0
 73
     0
 74
     0
  7

 75
     0
 76
     0
 77
     2
 78
   300
147
1.0
148
0.0
149
0.0
100
AcDbLayout
  1
Model
 70
     1
 71
     0
 10
0.0
 20
0.0
 11
420.0
 21
297.0
 12
0.0
 22
0.0
 32
0.0
 14
1.000E+20
 24
1.000E+20
 34
1.000E+20
 15
-1.000E+20
 25
-1.000E+20
 35
-1.000E+20
146
0.0
 13
0.0
 23
0.0
 33
0.0
 16
1.0
 26
0.0
 36
0.0
 17
0.0
 27
1.0
 37
0.0
 76
     0
330
1F
331
29
  0
MLINESTYLE
  5
18
102
{ACAD_REACTORS
330
17
102
}
330
17
100
AcDbMlineStyle
  2
Standard
 70
     0
  3

 62
   256
 51
90.0
 52
90.0
 71
     2
 49
0.5
 62
   256
  6
BYLAYER
 49
-0.5
 62
   256
  6
BYLAYER
  0
ACDBPLACEHOLDER
  5
F
102
{ACAD_REACTORS
330
E
102
}
330
E
  0
VISUALSTYLE
  5
2F
102
{ACAD_REACTORS
330
2A
102
}
330
2A
100
AcDbVisualStyle
  2
2dWireframe
 70
     4
 71
     0
 72
     2
 73
     0
 90
        0
 40
-0.6
 41
-30.0
 62
     5
 63
     7
421
 16777215
 74
     1
 91
        4
 64
     7
 65
   257
 75
     1
175
     1
 42
1.0
 92
        0
 66
   257
 43
1.0
 76
     1
 77
     6
 78
     2
 67
     7
 79
     5
170
     0
171
     0
290
     0
174
     0
 93
        1
 44
0.0
173
     0
291
     0
 45
0.0
1001
ACAD
1000
AcDbSavedByObjectVersion
1070
     0
  0
VISUALSTYLE
  5
31
102
{ACAD_REACTORS
330
2A
102
}
330
2A
100
AcDbVisualStyle
  2
3D Hidden
 70
     6
 71
     1
 72
     2
 73
     2
 90
        0
 40
-0.6
 41
-30.0
 62
     5
 63
     7
421
 16777215
 74
     2
 91
        2
 64
     7
 65
   257
 75
     2
175
     1
 42
40.0
 92
        0
 66
   257
 43
1.0
 76
     1
 77
     6
 78
     2
 67
     7
 79
     3
170
     0
171
     0
290
     0
174
     0
 93
        1
 44
0.0
173
     0
291
     0
 45
0.0
1001
ACAD
1000
AcDbSavedByObjectVersion
1070
     0
  0
VISUALSTYLE
  5
30
102
{ACAD_REACTORS
330
2A
102
}
330
2A
100
AcDbVisualStyle
  2
3dWireframe
 70
     5
 71
     0
 72
     2
 73
     0
 90
        0
 40
-0.6
 41
-30.0
 62
     5
 63
     7
421
 16777215
 74
     1
 91
        4
 64
     7
 65
   257
 75
     1
175
     1
 42
1.0
 92
        0
 66
   257
 43
1.0
 76
     1
 77
     6
 78
     2
 67
     7
 79
     5
170
     0
171
     0
290
     0
174
     0
 93
        1
 44
0.0
173
     0
291
     0
 45
0.0
1001
ACAD
1000
AcDbSavedByObjectVersion
1070
     0
  0
VISUALSTYLE
  5
32
102
{ACAD_REACTORS
330
2A
102
}
330
2A
100
AcDbVisualStyle
  2
Basic
 70
     7
 71
     1
 72
     0
 73
     1
 90
        0
 40
-0.6
 41
-30.0
 62
     5
 63
     7
421
 16777215
 74
     0
 91
        4
 64
     7
 65
   257
 75
     1
175
     1
 42
1.0
 92
        8
 66
     7
 43
1.0
 76
     1
 77
     6
 78
     2
 67
     7
 79
     5
170
     0
171
     0
290
     0
174
     0
 93
        1
 44
0.0
173
     0
291
     1
 45
0.0
1001
ACAD
1000
AcDbSavedByObjectVersion
1070
     0
  0
VISUALSTYLE
  5
36
102
{ACAD_REACTORS
330
2A
102
}
330
2A
100
AcDbVisualStyle
  2
Brighten
 70
    12
 71
     2
 72
     2
 73
     0
 90
        0
 40
-0.6
 41
-30.0
 62
     5
 63
     7
421
 16777215
 74
     1
 91
        4
 64
     7
 65
   257
 75
     1
175
     1
 42
1.0
 92
        8
 66
     7
 43
1.0
 76
     1
 77
     6
 78
     2
 67
     7
 79
     5
170
     0
171
     0
290
     0
174
     0
 93
        1
 44
50.0
173
     0
291
     1
 45
0.0
1001
ACAD
1000
AcDbSavedByObjectVersion
1070
     0
  0
VISUALSTYLE
  5
3A
102
{ACAD_REACTORS
330
2A
102
}
330
2A
100
AcDbVisualStyle
  2
ColorChange
 70
    16
 71
     2
 72
     2
 73
     3
 90
        0
 40
-0.6
 41
-30.0
 62
     5
 63
     8
421
  8421504
 74
     1
 91
        4
 64
     7
 65
   257
 75
     1
175
     1
 42
1.0
 92
        8
 66
     8
424
  8421504
 43
1.0
 76
     1
 77
     6
 78
     2
 67
     7
 79
     5
170
     0
171
     0
290
     0
174
     0
 93
        1
 44
0.0
173
     0
291
     1
 45
0.0
1001
ACAD
1000
AcDbSavedByObjectVersion
1070
     0
  0
VISUALSTYLE
  5
34
102
{ACAD_REACTORS
330
2A
102
}
330
2A
100
AcDbVisualStyle
  2
Conceptual
 70
     9
 71
     3
 72
     2
 73
     0
 90
        0
 40
-0.6
 41
-30.0
 62
     5
 63
     7
421
 16777215
 74
     2
 91
        2
 64
     7
 65
   257
 75
     1
175
     1
 42
40.0
 92
        8
 66
     7
 43
1.0
 76
     1
 77
     6
 78
     2
 67
     7
 79
     3
170
     0
171
     0
290
     0
174
     0
 93
        1
 44
0.0
173
     0
291
     0
 45
0.0
1001
ACAD
1000
AcDbSavedByObjectVersion
1070
     0
  0
VISUALSTYLE
  5
35
102
{ACAD_REACTORS
330
2A
102
}
330
2A
100
AcDbVisualStyle
  2
Dim
 70
    11
 71
     2
 72
     2
 73
     0
 90
        0
 40
-0.6
 41
-30.0
 62
     5
 63
     7
421
 16777215
 74
     1
 91
        4
 64
     7
 65
   257
 75
     1
175
     1
 42
1.0
 92
        8
 66
     7
 43
1.0
 76
     1
 77
     6
 78
     2
 67
     7
 79
     5
170
     0
171
     0
290
     0
174
     0
 93
        1
 44
-50.0
173
     0
291
     1
 45
0.0
1001
ACAD
1000
AcDbSavedByObjectVersion
1070
     0
  0
VISUALSTYLE
  5
39
102
{ACAD_REACTORS
330
2A
102
}
330
2A
100
AcDbVisualStyle
  2
Facepattern
 70
    15
 71
     2
 72
     2
 73
     0
 90
        0
 40
-0.6
 41
-30.0
 62
     5
 63
     7
421
 16777215
 74
     1
 91
        4
 64
     7
 65
   257
 75
     1
175
     1
 42
1.0
 92
        8
 66
     7
 43
1.0
 76
     1
 77
     6
 78
     2
 67
     7
 79
     5
170
     0
171
     0
290
     0
174
     0
 93
        1
 44
0.0
173
     0
291
     1
 45
0.0
1001
ACAD
1000
AcDbSavedByObjectVersion
1070
     0
  0
VISUALSTYLE
  5
2B
102
{ACAD_REACTORS
330
2A
102
}
330
2A
100
AcDbVisualStyle
  2
Flat
 70
     0
 71
     2
 72
     1
 73
     1
 90
        2
 40
-0.6
 41
30.0
 62
     5
 63
     7
421
 16777215
 74
     0
 91
        4
 64
     7
 65
   257
 75
     1
175
     1
 42
1.0
 92
        8
 66
     7
 43
1.0
 76
     1
 77
     6
 78
     2
 67
     7
 79
     5
170
     0
171
     0
290
     0
174
     0
 93
       13
 44
0.0
173
     0
291
     1
 45
0.0
1001
ACAD
1000
AcDbSavedByObjectVersion
1070
     0
  0
VISUALSTYLE
  5
2C
102
{ACAD_REACTORS
330
2A
102
}
330
2A
100
AcDbVisualStyle
  2
FlatWithEdges
 70
     1
 71
     2
 72
     1
 73
     1
 90
        2
 40
-0.6
 41
30.0
 62
     5
 63
     7
421
 16777215
 74
     1
 91
        4
 64
     7
 65
   257
 75
     1
175
     1
 42
1.0
 92
        0
 66
   257
 43
1.0
 76
     1
 77
     6
 78
     2
 67
     7
 79
     5
170
     0
171
     0
290
     0
174
     0
 93
       13
 44
0.0
173
     0
291
     1
 45
0.0
1001
ACAD
1000
AcDbSavedByObjectVersion
1070
     0
  0
VISUALSTYLE
  5
2D
102
{ACAD_REACTORS
330
2A
102
}
330
2A
100
AcDbVisualStyle
  2
Gouraud
 70
     2
 71
     2
 72
     2
 73
     1
 90
        2
 40
-0.6
 41
30.0
 62
     5
 63
     7
421
 16777215
 74
     0
 91
        4
 64
     7
 65
   257
 75
     1
175
     1
 42
1.0
 92
        0
 66
     7
 43
1.0
 76
     1
 77
     6
 78
     2
 67
     7
 79
     5
170
     0
171
     0
290
     0
174
     0
 93
       13
 44
0.0
173
     0
291
     1
 45
0.0
1001
ACAD
1000
AcDbSavedByObjectVersion
1070
     0
  0
VISUALSTYLE
  5
2E
102
{ACAD_REACTORS
330
2A
102
}
330
2A
100
AcDbVisualStyle
  2
GouraudWithEdges
 70
     3
 71
     2
 72
     2
 73
     1
 90
        2
 40
-0.6
 41
30.0
 62
     5
 63
     7
421
 16777215
 74
     1
 91
        4
 64
     7
 65
   257
 75
     1
175
     1
 42
1.0
 92
        0
 66
   257
 43
1.0
 76
     1
 77
     6
 78
     2
 67
     7
 79
     5
170
     0
171
     0
290
     0
174
     0
 93
       13
 44
0.0
173
     0
291
     1
 45
0.0
1001
ACAD
1000
AcDbSavedByObjectVersion
1070
     0
  0
VISUALSTYLE
  5
38
102
{ACAD_REACTORS
330
2A
102
}
330
2A
100
AcDbVisualStyle
  2
Linepattern
 70
    14
 71
     2
 72
     2
 73
     0
 90
        0
 40
-0.6
 41
-30.0
 62
     5
 63
     7
421
 16777215
 74
     1
 91
        4
 64
     7
 65
   257
 75
     7
175
     7
 42
1.0
 92
        8
 66
     7
 43
1.0
 76
     1
 77
     6
 78
     2
 67
     7
 79
     5
170
     0
171
     0
290
     0
174
     0
 93
        1
 44
0.0
173
     0
291
     1
 45
0.0
1001
ACAD
1000
AcDbSavedByObjectVersion
1070
     0
  0
VISUALSTYLE
  5
33
102
{ACAD_REACTORS
330
2A
102
}
330
2A
100
AcDbVisualStyle
  2
Realistic
 70
     8
 71
     2
 72
     2
 73
     0
 90
        0
 40
-0.6
 41
-30.0
 62
     5
 63
     7
421
 16777215
 74
     1
 91
        0
 64
     7
 65
   257
 75
     1
175
     1
 42
1.0
 92
        8
 66
     8
424
  7895160
 43
1.0
 76
     1
 77
     6
 78
     2
 67
     7
 79
     5
170
     0
171
     0
290
     0
174
     0
 93
       13
 44
0.0
173
     0
291
     0
 45
0.0
1001
ACAD
1000
AcDbSavedByObjectVersion
1070
     0
  0
VISUALSTYLE
  5
37
102
{ACAD_REACTORS
330
2A
102
}
330
2A
100
AcDbVisualStyle
  2
Thicken
 70
    13
 71
     2
 72
     2
 73
     0
 90
        0
 40
-0.6
 41
-30.0
 62
     5
 63
     7
421
 16777215
 74
     1
 91
        4
 64
     7
 65
   257
 75
     1
175
     1
 42
1.0
 92
       12
 66
     7
 43
1.0
 76
     1
 77
     6
 78
     2
 67
     7
 79
     5
170
     0
171
     0
290
     0
174
     0
 93
        1
 44
0.0
173
     0
291
     1
 45
0.0
1001
ACAD
1000
AcDbSavedByObjectVersion
1070
     0
  0
ENDSEC
  0
EOF
