  0
SECTION
  2
HEADER
  9
$ACADVER
  1
AC1015
  9
$ACADMAINTVER
 70
    20
  9
$DWGCODEPAGE
  3
ANSI_1252
  9
$INSBASE
 10
0.0
 20
0.0
 30
0.0
  9
$EXTMIN
 10
-490.2530268022342
 20
-346.3758486613751
 30
-0.0000000000000053
  9
$EXTMAX
 10
280.0673243918473
 20
699.2040902339204
 30
0.0000000000000099
  9
$LIMMIN
 10
0.0
 20
0.0
  9
$LIMMAX
 10
420.0
 20
300.0
  9
$ORTHOMODE
 70
     0
  9
$REGENMODE
 70
     1
  9
$FILLMODE
 70
     1
  9
$QTEXTMODE
 70
     0
  9
$MIRRTEXT
 70
     0
  9
$LTSCALE
 40
10.0
  9
$ATTMODE
 70
     1
  9
$TEXTSIZE
 40
3.0
  9
$TRACEWID
 40
0.05
  9
$TEXTSTYLE
  7
ROMANS
  9
$CLAYER
  8
P-0000
  9
$CELTYPE
  6
CONTINUOUS
  9
$CECOLOR
 62
     7
  9
$CELTSCALE
 40
1.0
  9
$DISPSILH
 70
     0
  9
$DIMSCALE
 40
10.0
  9
$DIMASZ
 40
2.0
  9
$DIMEXO
 40
1.0
  9
$DIMDLI
 40
10.0
  9
$DIMRND
 40
0.0
  9
$DIMDLE
 40
0.0
  9
$DIMEXE
 40
1.5
  9
$DIMTP
 40
0.0
  9
$DIMTM
 40
0.0
  9
$DIMTXT
 40
2.0
  9
$DIMCEN
 40
2.0
  9
$DIMTSZ
 40
0.0
  9
$DIMTOL
 70
     0
  9
$DIMLIM
 70
     0
  9
$DIMTIH
 70
     0
  9
$DIMTOH
 70
     0
  9
$DIMSE1
 70
     0
  9
$DIMSE2
 70
     0
  9
$DIMTAD
 70
     1
  9
$DIMZIN
 70
     8
  9
$DIMBLK
  1

  9
$DIMASO
 70
     1
  9
$DIMSHO
 70
     1
  9
$DIMPOST
  1

  9
$DIMAPOST
  1

  9
$DIMALT
 70
     0
  9
$DIMALTD
 70
     2
  9
$DIMALTF
 40
25.4
  9
$DIMLFAC
 40
1.0
  9
$DIMTOFL
 70
     1
  9
$DIMTVP
 40
0.0
  9
$DIMTIX
 70
     0
  9
$DIMSOXD
 70
     0
  9
$DIMSAH
 70
     0
  9
$DIMBLK1
  1

  9
$DIMBLK2
  1

  9
$DIMSTYLE
  2
ACADTOP
  9
$DIMCLRD
 70
     2
  9
$DIMCLRE
 70
     2
  9
$DIMCLRT
 70
     1
  9
$DIMTFAC
 40
0.6
  9
$DIMGAP
 40
1.0
  9
$DIMJUST
 70
     0
  9
$DIMSD1
 70
     0
  9
$DIMSD2
 70
     0
  9
$DIMTOLJ
 70
     1
  9
$DIMTZIN
 70
     8
  9
$DIMALTZ
 70
     0
  9
$DIMALTTZ
 70
     0
  9
$DIMUPT
 70
     0
  9
$DIMDEC
 70
     2
  9
$DIMTDEC
 70
     2
  9
$DIMALTU
 70
     2
  9
$DIMALTTD
 70
     2
  9
$DIMTXSTY
  7
Stile_Quota
  9
$DIMAUNIT
 70
     0
  9
$DIMADEC
 70
     1
  9
$DIMALTRND
 40
0.0
  9
$DIMAZIN
 70
     2
  9
$DIMDSEP
 70
    46
  9
$DIMATFIT
 70
     0
  9
$DIMFRAC
 70
     0
  9
$DIMLDRBLK
  1

  9
$DIMLUNIT
 70
     2
  9
$DIMLWD
 70
    -2
  9
$DIMLWE
 70
    -2
  9
$DIMTMOVE
 70
     0
  9
$LUNITS
 70
     2
  9
$LUPREC
 70
     3
  9
$SKETCHINC
 40
0.1
  9
$FILLETRAD
 40
0.0
  9
$AUNITS
 70
     0
  9
$AUPREC
 70
     3
  9
$MENU
  1
.
  9
$ELEVATION
 40
0.0
  9
$PELEVATION
 40
0.0
  9
$THICKNESS
 40
0.0
  9
$LIMCHECK
 70
     0
  9
$CHAMFERA
 40
0.5
  9
$CHAMFERB
 40
0.5
  9
$CHAMFERC
 40
1.0
  9
$CHAMFERD
 40
0.0
  9
$SKPOLY
 70
     1
  9
$TDCREATE
 40
2455103.545350290
  9
$TDUCREATE
 40
2455103.462016956
  9
$TDUPDATE
 40
2455650.447511413
  9
$TDUUPDATE
 40
2455650.364178079
  9
$TDINDWG
 40
0.2274830440
  9
$TDUSRTIMER
 40
0.2274830440
  9
$USRTIMER
 70
     1
  9
$ANGBASE
 50
0.0
  9
$ANGDIR
 70
     0
  9
$PDMODE
 70
     0
  9
$PDSIZE
 40
0.0
  9
$PLINEWID
 40
0.0
  9
$SPLFRAME
 70
     0
  9
$SPLINETYPE
 70
     6
  9
$SPLINESEGS
 70
     8
  9
$HANDSEED
  5
F86
  9
$SURFTAB1
 70
     6
  9
$SURFTAB2
 70
     6
  9
$SURFTYPE
 70
     6
  9
$SURFU
 70
     6
  9
$SURFV
 70
     6
  9
$UCSBASE
  2

  9
$UCSNAME
  2

  9
$UCSORG
 10
0.0
 20
0.0
 30
0.0
  9
$UCSXDIR
 10
1.0
 20
0.0
 30
0.0
  9
$UCSYDIR
 10
0.0
 20
1.0
 30
0.0
  9
$UCSORTHOREF
  2

  9
$UCSORTHOVIEW
 70
     0
  9
$UCSORGTOP
 10
0.0
 20
0.0
 30
0.0
  9
$UCSORGBOTTOM
 10
0.0
 20
0.0
 30
0.0
  9
$UCSORGLEFT
 10
0.0
 20
0.0
 30
0.0
  9
$UCSORGRIGHT
 10
0.0
 20
0.0
 30
0.0
  9
$UCSORGFRONT
 10
0.0
 20
0.0
 30
0.0
  9
$UCSORGBACK
 10
0.0
 20
0.0
 30
0.0
  9
$PUCSBASE
  2

  9
$PUCSNAME
  2

  9
$PUCSORG
 10
0.0
 20
0.0
 30
0.0
  9
$PUCSXDIR
 10
1.0
 20
0.0
 30
0.0
  9
$PUCSYDIR
 10
0.0
 20
1.0
 30
0.0
  9
$PUCSORTHOREF
  2

  9
$PUCSORTHOVIEW
 70
     0
  9
$PUCSORGTOP
 10
0.0
 20
0.0
 30
0.0
  9
$PUCSORGBOTTOM
 10
0.0
 20
0.0
 30
0.0
  9
$PUCSORGLEFT
 10
0.0
 20
0.0
 30
0.0
  9
$PUCSORGRIGHT
 10
0.0
 20
0.0
 30
0.0
  9
$PUCSORGFRONT
 10
0.0
 20
0.0
 30
0.0
  9
$PUCSORGBACK
 10
0.0
 20
0.0
 30
0.0
  9
$USERI1
 70
     0
  9
$USERI2
 70
     0
  9
$USERI3
 70
     0
  9
$USERI4
 70
     0
  9
$USERI5
 70
     0
  9
$USERR1
 40
0.0
  9
$USERR2
 40
0.0
  9
$USERR3
 40
0.0
  9
$USERR4
 40
0.0
  9
$USERR5
 40
0.0
  9
$WORLDVIEW
 70
     1
  9
$SHADEDGE
 70
     3
  9
$SHADEDIF
 70
    70
  9
$TILEMODE
 70
     1
  9
$MAXACTVP
 70
    48
  9
$PINSBASE
 10
0.0
 20
0.0
 30
0.0
  9
$PLIMCHECK
 70
     0
  9
$PEXTMIN
 10
1.000000000000000E+20
 20
1.000000000000000E+20
 30
1.000000000000000E+20
  9
$PEXTMAX
 10
-1.000000000000000E+20
 20
-1.000000000000000E+20
 30
-1.000000000000000E+20
  9
$PLIMMIN
 10
0.0
 20
0.0
  9
$PLIMMAX
 10
12.0
 20
9.0
  9
$UNITMODE
 70
     0
  9
$VISRETAIN
 70
     1
  9
$PLINEGEN
 70
     0
  9
$PSLTSCALE
 70
     0
  9
$TREEDEPTH
 70
  3020
  9
$CMLSTYLE
  2
STANDARD
  9
$CMLJUST
 70
     0
  9
$CMLSCALE
 40
1.0
  9
$PROXYGRAPHICS
 70
     1
  9
$MEASUREMENT
 70
     1
  9
$CELWEIGHT
370
    -1
  9
$ENDCAPS
280
     0
  9
$JOINSTYLE
280
     0
  9
$LWDISPLAY
290
     0
  9
$INSUNITS
 70
     0
  9
$HYPERLINKBASE
  1

  9
$STYLESHEET
  1
monochrome.ctb
  9
$XEDIT
290
     1
  9
$CEPSNTYPE
380
     0
  9
$PSTYLEMODE
290
     1
  9
$FINGERPRINTGUID
  2
{C07F7A98-FF91-40F0-87ED-05A36E8587E7}
  9
$VERSIONGUID
  2
{237C5870-2693-4F08-A9E8-CB4D35DEF1AE}
  9
$EXTNAMES
290
     1
  9
$PSVPSCALE
 40
0.0
  9
$OLESTARTUP
290
     0
  0
ENDSEC
  0
SECTION
  2
CLASSES
  0
CLASS
  1
DICTIONARYVAR
  2
AcDbDictionaryVar
  3
ObjectDBX Classes
 90
        0
280
     0
281
     0
  0
CLASS
  1
ACDBDICTIONARYWDFLT
  2
AcDbDictionaryWithDefault
  3
ObjectDBX Classes
 90
        0
280
     0
281
     0
  0
CLASS
  1
ACDBPLACEHOLDER
  2
AcDbPlaceHolder
  3
ObjectDBX Classes
 90
        0
280
     0
281
     0
  0
CLASS
  1
LAYOUT
  2
AcDbLayout
  3
ObjectDBX Classes
 90
        0
280
     0
281
     0
  0
CLASS
  1
PLOTSETTINGS
  2
AcDbPlotSettings
  3
ObjectDBX Classes
 90
        0
280
     0
281
     0
  0
CLASS
  1
MATERIAL
  2
AcDbMaterial
  3
ObjectDBX Classes
 90
     1153
280
     0
281
     0
  0
CLASS
  1
VISUALSTYLE
  2
AcDbVisualStyle
  3
ObjectDBX Classes
 90
     4095
280
     0
281
     0
  0
CLASS
  1
TABLESTYLE
  2
AcDbTableStyle
  3
ObjectDBX Classes
 90
     4095
280
     0
281
     0
  0
CLASS
  1
SCALE
  2
AcDbScale
  3
ObjectDBX Classes
 90
     1153
280
     0
281
     0
  0
CLASS
  1
MLEADERSTYLE
  2
AcDbMLeaderStyle
  3
ACDB_MLEADERSTYLE_CLASS
 90
     4095
280
     0
281
     0
  0
CLASS
  1
CELLSTYLEMAP
  2
AcDbCellStyleMap
  3
ObjectDBX Classes
 90
     1152
280
     0
281
     0
  0
CLASS
  1
DIMASSOC
  2
AcDbDimAssoc
  3
"AcDbDimAssoc|Product Desc:     AcDim ARX App For Dimension|Company:          Autodesk, Inc.|WEB Address:      www.autodesk.com"
 90
        0
280
     0
281
     0
  0
CLASS
  1
ACDBQSCATEGORY
  2
AcQsCategory
  3
categories
 90
     1024
280
     0
281
     0
  0
CLASS
  1
ACDBQSPALLSTYLE
  2
AcQsPallStyle
  3
pallcart
 90
     1024
280
     0
281
     0
  0
CLASS
  1
SORTENTSTABLE
  2
AcDbSortentsTable
  3
ObjectDBX Classes
 90
        0
280
     0
281
     0
  0
CLASS
  1
AEC_REFEDIT_STATUS_TRACKER
  2
AecDbRefEditStatusTracker
  3
AecArchBase60|Product Desc: Autodesk Architectural Desktop 2007 |Company: Autodesk,Inc. |WEB Address: www.autodesk.com
 90
    32897
280
     0
281
     0
  0
CLASS
  1
NPOCOLLECTION
  2
AcDbImpNonPersistentObjectsCollection
  3
ObjectDBX Classes
 90
    33921
280
     0
281
     0
  0
ENDSEC
  0
SECTION
  2
TABLES
  0
TABLE
  2
VPORT
  5
12
102
{ACAD_XDICTIONARY
360
300
102
}
330
0
100
AcDbSymbolTable
 70
     1
  0
VPORT
  5
2AE
330
12
100
AcDbSymbolTableRecord
100
AcDbViewportTableRecord
  2
*Active
 70
     0
 10
0.0
 20
0.0
 11
1.0
 21
1.0
 12
-23.71311259954746
 22
176.4141207862726
 13
0.0
 23
0.0
 14
1.0
 24
1.0
 15
1.0
 25
1.0
 16
0.0
 26
0.0
 36
1.0
 17
0.0
 27
0.0
 37
0.0
 40
1053.277459917837
 41
2.256756756756756
 42
50.0
 43
0.0
 44
0.0
 50
0.0
 51
0.0
 71
     0
 72
   100
 73
     1
 74
     0
 75
     0
 76
     0
 77
     0
 78
     0
281
     0
 65
     1
110
0.0
120
0.0
130
0.0
111
1.0
121
0.0
131
0.0
112
0.0
122
1.0
132
0.0
 79
     0
146
0.0
  0
ENDTAB
  0
TABLE
  2
LTYPE
  5
D
330
0
100
AcDbSymbolTable
 70
     5
  0
LTYPE
  5
E
330
D
100
AcDbSymbolTableRecord
100
AcDbLinetypeTableRecord
  2
BYBLOCK
 70
     0
  3

 72
    65
 73
     0
 40
0.0
  0
LTYPE
  5
F
330
D
100
AcDbSymbolTableRecord
100
AcDbLinetypeTableRecord
  2
BYLAYER
 70
     0
  3

 72
    65
 73
     0
 40
0.0
  0
LTYPE
  5
5
330
D
100
AcDbSymbolTableRecord
100
AcDbLinetypeTableRecord
  2
CONTINUOUS
 70
     0
  3
Solid line
 72
    65
 73
     0
 40
0.0
  0
LTYPE
  5
3E
330
D
100
AcDbSymbolTableRecord
100
AcDbLinetypeTableRecord
  2
ASSI
 70
     0
  3
-.-.-.-.-.-.-.-.-.-.-.-.-.-.-.-.-.-.-.-.-.-.-.-
 72
    65
 73
     4
 40
16.0
 49
10.0
 74
     0
 49
-2.0
 74
     0
 49
2.0
 74
     0
 49
-2.0
 74
     0
  0
LTYPE
  5
40
330
D
100
AcDbSymbolTableRecord
100
AcDbLinetypeTableRecord
  2
TRATTEGGIO
 70
     0
  3
- - - - - - - - - - - - - - - - - - - - - -
 72
    65
 73
     2
 40
5.5
 49
4.0
 74
     0
 49
-1.5
 74
     0
  0
LTYPE
  5
6EF
330
D
100
AcDbSymbolTableRecord
100
AcDbLinetypeTableRecord
  2
DASHDOT2
 70
     0
  3
_._._._._._._._._._._._._._._._._._._._._._._._
 72
    65
 73
     4
 40
0.5
 49
0.25
 74
     0
 49
-0.125
 74
     0
 49
0.0
 74
     0
 49
-0.125
 74
     0
  0
LTYPE
  5
870
330
D
100
AcDbSymbolTableRecord
100
AcDbLinetypeTableRecord
  2
DASHED
 70
     0
  3
__ __ __ __ __ __ __ __ __ __ __ __ __ __ __ __
 72
    65
 73
     2
 40
0.75
 49
0.5
 74
     0
 49
-0.25
 74
     0
  0
ENDTAB
  0
TABLE
  2
LAYER
  5
A
102
{ACAD_XDICTIONARY
360
6F6
102
}
330
0
100
AcDbSymbolTable
 70
     7
  0
LAYER
  5
4
102
{ACAD_XDICTIONARY
360
37B
102
}
330
A
100
AcDbSymbolTableRecord
100
AcDbLayerTableRecord
  2
0
 70
     0
 62
     7
  6
CONTINUOUS
370
    -3
390
44
  0
LAYER
  5
118
330
A
100
AcDbSymbolTableRecord
100
AcDbLayerTableRecord
  2
Defpoints
 70
     0
 62
     7
  6
CONTINUOUS
290
     0
370
    -3
390
44
  0
LAYER
  5
6DB
102
{ACAD_XDICTIONARY
360
99D
102
}
330
A
100
AcDbSymbolTableRecord
100
AcDbLayerTableRecord
  2
P-0000
 70
     0
 62
     7
  6
CONTINUOUS
370
    -3
390
44
1001
AcAecLayerStandard
1000

1000
TAPPO Q20 /PE RAL 7039
  0
LAYER
  5
6ED
102
{ACAD_XDICTIONARY
360
99F
102
}
330
A
100
AcDbSymbolTableRecord
100
AcDbLayerTableRecord
  2
P-6B8B
 70
     0
 62
     7
  6
CONTINUOUS
370
    -3
390
44
1001
AcAecLayerStandard
1000

1000
.cart
  0
LAYER
  5
8C4
102
{ACAD_XDICTIONARY
360
9A9
102
}
330
A
100
AcDbSymbolTableRecord
100
AcDbLayerTableRecord
  2
P-09EB
 70
     0
 62
     7
  6
CONTINUOUS
370
    -3
390
44
1001
AcAecLayerStandard
1000

1000
.1
  0
LAYER
  5
99B
102
{ACAD_XDICTIONARY
360
9AB
102
}
330
A
100
AcDbSymbolTableRecord
100
AcDbLayerTableRecord
  2
P-5837
 70
     0
 62
     7
  6
CONTINUOUS
370
    -3
390
44
1001
AcAecLayerStandard
1000

1000
TAPPO Q20 # 2 GRIGIO
  0
LAYER
  5
EF2
102
{ACAD_XDICTIONARY
360
EF3
102
}
330
A
100
AcDbSymbolTableRecord
100
AcDbLayerTableRecord
  2
P-78ED
 70
     0
 62
     7
  6
CONTINUOUS
370
    -3
390
44
1001
AcAecLayerStandard
1000

1000
SEMICERNIERA MOBILE C.2107 ALL.ANOD.ARG.
  0
ENDTAB
  0
TABLE
  2
STYLE
  5
B
330
0
100
AcDbSymbolTable
 70
     7
  0
STYLE
  5
C
330
B
100
AcDbSymbolTableRecord
100
AcDbTextStyleTableRecord
  2
STANDARD
 70
     0
 40
0.0
 41
0.8
 50
0.0
 71
     0
 42
0.2
  3
romans.shx
  4

  0
STYLE
  5
1B
330
B
100
AcDbSymbolTableRecord
100
AcDbTextStyleTableRecord
  2
ROMANS
 70
     0
 40
0.0
 41
0.8
 50
0.0
 71
     0
 42
3.0
  3
ROMANS.shx
  4

  0
STYLE
  5
35C
330
B
100
AcDbSymbolTableRecord
100
AcDbTextStyleTableRecord
  2
Stile_Quota
 70
     0
 40
0.0
 41
1.0
 50
0.0
 71
     0
 42
3.0
  3
BOD_I.TTF
  4

1001
ACAD
1000
Bodoni MT
1071
 16777234
  0
STYLE
  5
6F0
330
B
100
AcDbSymbolTableRecord
100
AcDbTextStyleTableRecord
  2
STYLE1
 70
     0
 40
0.0
 41
1.0
 50
0.0
 71
     0
 42
3.0
  3
eurr____.ttf
  4

1001
ACAD
1000
EuroRoman
1071
      514
  0
STYLE
  5
6F2
330
B
100
AcDbSymbolTableRecord
100
AcDbTextStyleTableRecord
  2
seansi_ttf
 70
     0
 40
0.0
 41
1.0
 50
0.0
 71
     0
 42
0.2
  3
seansi.ttf
  4

  0
STYLE
  5
6F3
330
B
100
AcDbSymbolTableRecord
100
AcDbTextStyleTableRecord
  2
Stile_Cart
 70
     0
 40
0.0
 41
1.0
 50
0.0
 71
     0
 42
1.5
  3
TIMES.TTF
  4

1001
ACAD
1000
Times New Roman
1071
       18
  0
STYLE
  5
875
330
B
100
AcDbSymbolTableRecord
100
AcDbTextStyleTableRecord
  2
SIMPLEX
 70
     0
 40
0.0
 41
1.0
 50
0.0
 71
     0
 42
25.0
  3
SIMPLEX.shx
  4

  0
ENDTAB
  0
TABLE
  2
VIEW
  5
10
330
0
100
AcDbSymbolTable
 70
     0
  0
ENDTAB
  0
TABLE
  2
UCS
  5
11
330
0
100
AcDbSymbolTable
 70
     0
  0
ENDTAB
  0
TABLE
  2
APPID
  5
14
330
0
100
AcDbSymbolTable
 70
    11
  0
APPID
  5
15
330
14
100
AcDbSymbolTableRecord
100
AcDbRegAppTableRecord
  2
ACAD
 70
     0
  0
APPID
  5
53
330
14
100
AcDbSymbolTableRecord
100
AcDbRegAppTableRecord
  2
TOP
 70
     0
  0
APPID
  5
356
330
14
100
AcDbSymbolTableRecord
100
AcDbRegAppTableRecord
  2
ACAD_MLEADERVER
 70
     0
  0
APPID
  5
35A
330
14
100
AcDbSymbolTableRecord
100
AcDbRegAppTableRecord
  2
ACAD_DSTYLE_DIMJAG
 70
     0
  0
APPID
  5
35B
330
14
100
AcDbSymbolTableRecord
100
AcDbRegAppTableRecord
  2
ACAD_DSTYLE_DIMTALN
 70
     0
  0
APPID
  5
35D
330
14
100
AcDbSymbolTableRecord
100
AcDbRegAppTableRecord
  2
AcadAnnoPO
 70
     0
  0
APPID
  5
374
330
14
100
AcDbSymbolTableRecord
100
AcDbRegAppTableRecord
  2
ACAD_EXEMPT_FROM_CAD_STANDARDS
 70
     0
  0
APPID
  5
38F
330
14
100
AcDbSymbolTableRecord
100
AcDbRegAppTableRecord
  2
ACAD_PSEXT
 70
     0
  0
APPID
  5
3BC
330
14
100
AcDbSymbolTableRecord
100
AcDbRegAppTableRecord
  2
ACAD_DSTYLE_DIMBREAK
 70
     0
  0
APPID
  5
6DC
330
14
100
AcDbSymbolTableRecord
100
AcDbRegAppTableRecord
  2
AcAecLayerStandard
 70
     0
  0
APPID
  5
D16
330
14
100
AcDbSymbolTableRecord
100
AcDbRegAppTableRecord
  2
ACAD_DSTYLE_DIMRADIAL_EXTENSION
 70
     0
  0
ENDTAB
  0
TABLE
  2
DIMSTYLE
  5
16
330
0
100
AcDbSymbolTable
 70
     3
100
AcDbDimStyleTable
 71
     1
340
1D
  0
DIMSTYLE
105
1D
330
16
100
AcDbSymbolTableRecord
100
AcDbDimStyleTableRecord
  2
ACADTOP
 70
     0
 40
10.0
 41
2.0
 42
1.0
 43
10.0
 44
1.5
 73
     0
 74
     0
 77
     1
 78
     8
 79
     2
140
2.0
141
2.0
146
0.6
147
1.0
172
     1
176
     2
177
     2
178
     1
179
     1
271
     2
272
     2
284
     8
289
     0
340
35C
1001
ACAD_DSTYLE_DIMJAG
1070
   388
1040
1.5
1001
ACAD_DSTYLE_DIMTALN
1070
   392
1070
     0
  0
DIMSTYLE
105
6F4
330
16
100
AcDbSymbolTableRecord
100
AcDbDimStyleTableRecord
  2
STANDARD
 70
     0
340
C
  0
DIMSTYLE
105
876
330
16
100
AcDbSymbolTableRecord
100
AcDbDimStyleTableRecord
  2
MECC
 70
     0
 41
25.0
 42
30.0
 44
5.0
 73
     0
 74
     0
 77
     1
 78
     8
140
25.0
144
0.1
146
0.0072
147
8.0
172
     1
271
     2
272
     2
284
     8
285
     8
286
     8
340
875
  0
ENDTAB
  0
TABLE
  2
BLOCK_RECORD
  5
1
330
0
100
AcDbSymbolTable
 70
     7
  0
BLOCK_RECORD
  5
2
330
1
100
AcDbSymbolTableRecord
100
AcDbBlockTableRecord
  2
*MODEL_SPACE
340
47
  0
BLOCK_RECORD
  5
7
330
1
100
AcDbSymbolTableRecord
100
AcDbBlockTableRecord
  2
*PAPER_SPACE
340
48
  0
BLOCK_RECORD
  5
6F8
102
{ACAD_XDICTIONARY
360
811
102
}
330
1
100
AcDbSymbolTableRecord
100
AcDbBlockTableRecord
  2
TAB-A4
340
0
  0
BLOCK_RECORD
  5
E1D
330
1
100
AcDbSymbolTableRecord
100
AcDbBlockTableRecord
  2
*D1
340
0
  0
BLOCK_RECORD
  5
E29
330
1
100
AcDbSymbolTableRecord
100
AcDbBlockTableRecord
  2
*D2
340
0
  0
BLOCK_RECORD
  5
E35
330
1
100
AcDbSymbolTableRecord
100
AcDbBlockTableRecord
  2
*D3
340
0
  0
BLOCK_RECORD
  5
E41
330
1
100
AcDbSymbolTableRecord
100
AcDbBlockTableRecord
  2
*D4
340
0
  0
BLOCK_RECORD
  5
E4F
330
1
100
AcDbSymbolTableRecord
100
AcDbBlockTableRecord
  2
*D5
340
0
  0
BLOCK_RECORD
  5
F20
330
1
100
AcDbSymbolTableRecord
100
AcDbBlockTableRecord
  2
*D6
340
0
  0
ENDTAB
  0
ENDSEC
  0
SECTION
  2
BLOCKS
  0
BLOCK
  5
3
330
2
100
AcDbEntity
  8
0
100
AcDbBlockBegin
  2
*MODEL_SPACE
 70
     0
 10
0.0
 20
0.0
 30
0.0
  3
*MODEL_SPACE
  1

  0
ENDBLK
  5
6
330
2
100
AcDbEntity
  8
0
100
AcDbBlockEnd
  0
BLOCK
  5
8
330
7
100
AcDbEntity
 67
     1
  8
0
100
AcDbBlockBegin
  2
*PAPER_SPACE
 70
     0
 10
0.0
 20
0.0
 30
0.0
  3
*PAPER_SPACE
  1

  0
ENDBLK
  5
9
330
7
100
AcDbEntity
 67
     1
  8
0
100
AcDbBlockEnd
  0
BLOCK
  5
813
330
6F8
100
AcDbEntity
  8
0
 62
     7
100
AcDbBlockBegin
  2
TAB-A4
 70
     2
 10
0.0
 20
0.0
 30
0.0
  3
TAB-A4
  1

  0
LINE
  5
6F9
330
6F8
100
AcDbEntity
  8
0
  6
Continuous
 62
     0
100
AcDbLine
 10
100.0
 20
143.5
 30
0.0
 11
-100.0
 21
143.5
 31
0.0
1001
TOP
1070
     7
  0
LINE
  5
6FA
330
6F8
100
AcDbEntity
  8
0
  6
Continuous
 62
     0
100
AcDbLine
 10
-100.0
 20
143.5
 30
0.0
 11
-100.0
 21
-143.5
 31
0.0
1001
TOP
1070
     7
  0
LINE
  5
6FB
330
6F8
100
AcDbEntity
  8
0
  6
Continuous
 62
     0
100
AcDbLine
 10
-100.0
 20
-143.5
 30
0.0
 11
100.0
 21
-143.5
 31
0.0
1001
TOP
1070
     7
  0
LINE
  5
6FC
330
6F8
100
AcDbEntity
  8
0
  6
Continuous
 62
     0
100
AcDbLine
 10
100.0
 20
-143.5
 30
0.0
 11
100.0
 21
143.5
 31
0.0
1001
TOP
1070
     7
  0
LINE
  5
6FD
330
6F8
100
AcDbEntity
  8
0
  6
Continuous
 62
     0
100
AcDbLine
 10
105.0
 20
148.5
 30
0.0
 11
-105.0
 21
148.5
 31
0.0
1001
TOP
1070
     3
  0
LINE
  5
6FE
330
6F8
100
AcDbEntity
  8
0
  6
Continuous
 62
     0
100
AcDbLine
 10
-105.0
 20
148.5
 30
0.0
 11
-105.0
 21
-148.5
 31
0.0
1001
TOP
1070
     3
  0
LINE
  5
6FF
330
6F8
100
AcDbEntity
  8
0
  6
Continuous
 62
     0
100
AcDbLine
 10
-105.0
 20
-148.5
 30
0.0
 11
105.0
 21
-148.5
 31
0.0
1001
TOP
1070
     3
  0
LINE
  5
700
330
6F8
100
AcDbEntity
  8
0
  6
Continuous
 62
     0
100
AcDbLine
 10
105.0
 20
-148.5
 30
0.0
 11
105.0
 21
148.5
 31
0.0
1001
TOP
1070
     3
  0
ATTDEF
  5
701
330
6F8
100
AcDbEntity
  8
0
 62
     0
 48
35.0
100
AcDbText
 10
-76.25989897767704
 20
-84.74999999999999
 30
0.0
 40
2.5
  1

  7
Stile_Cart
 11
-76.25989897767704
 21
-83.49999999999999
 31
0.0
100
AcDbAttributeDefinition
  3

  2
DESCRIZIONE
 70
     4
 74
     2
1001
TOP
1070
     7
  0
LINE
  5
702
330
6F8
100
AcDbEntity
  8
0
 62
     0
 48
35.0
100
AcDbLine
 10
100.0
 20
-138.5
 30
0.0
 11
-100.0
 21
-138.5
 31
0.0
1001
TOP
1070
     3
  0
MTEXT
  5
703
330
6F8
100
AcDbEntity
  8
0
 62
     0
 48
35.0
100
AcDbMText
 10
0.0
 20
-141.0
 30
0.0
 40
1.499624999999999
 41
190.3973187722231
 71
     5
 72
     1
  1
{\C256;SI VIETA L'USO E LA RIPRODUZIONE O LA VISIONE A TERZI DEL PRESENTE DISEGNO SENZA ESPLICITA AUTORIZZAZIONE, \H1.333x;Dierre \H0.75x;TUTELERA' I PROPRI DIRITTI A NORMA DI LEGGE}
  7
Stile_Cart
 73
     1
 44
1.0
1001
TOP
1070
     3
1001
ACAD
1000
MTEXTBEGIN
1070
    73
1070
     1
1070
    44
1040
1.0
1070
    74
1070
     0
1000
MTEXTEND
  0
LINE
  5
704
330
6F8
100
AcDbEntity
  8
0
 62
     0
 48
35.0
100
AcDbLine
 10
-100.0
 20
-78.5
 30
0.0
 11
100.0
 21
-78.49999999999988
 31
0.0
1001
TOP
1070
     3
  0
LINE
  5
705
330
6F8
100
AcDbEntity
  8
0
 62
     0
 48
35.0
100
AcDbLine
 10
35.0
 20
-78.5
 30
0.0
 11
35.0
 21
-138.5
 31
0.0
1001
TOP
1070
     3
  0
LINE
  5
706
330
6F8
100
AcDbEntity
  8
0
 62
     0
 48
35.0
100
AcDbLine
 10
-100.0
 20
-130.5
 30
0.0
 11
35.0
 21
-130.5
 31
0.0
1001
TOP
1070
     1
  0
LINE
  5
707
330
6F8
100
AcDbEntity
  8
0
 62
     0
 48
35.0
100
AcDbLine
 10
-100.0
 20
-108.5
 30
0.0
 11
35.0
 21
-108.5
 31
0.0
1001
TOP
1070
     1
  0
LINE
  5
708
330
6F8
100
AcDbEntity
  8
0
 62
     0
 48
35.0
100
AcDbLine
 10
-66.25
 20
-130.5
 30
0.0
 11
-66.25
 21
-138.5
 31
0.0
1001
TOP
1070
     7
  0
LINE
  5
709
330
6F8
100
AcDbEntity
  8
0
 62
     0
 48
35.0
100
AcDbLine
 10
-100.0
 20
-98.50000000000001
 30
0.0
 11
35.0
 21
-98.50000000000001
 31
0.0
1001
TOP
1070
     1
  0
LINE
  5
70A
330
6F8
100
AcDbEntity
  8
0
 62
     0
 48
35.0
100
AcDbLine
 10
-27.5
 20
-98.50000000000001
 30
0.0
 11
-27.5
 21
-108.5
 31
0.0
1001
TOP
1070
     1
  0
TEXT
  5
70B
330
6F8
100
AcDbEntity
  8
0
 62
     0
 48
35.0
100
AcDbText
 10
-99.24333629514059
 20
-84.74999999999999
 30
0.0
 40
1.6
  1
DENOMINAZIONE:
  7
STYLE1
100
AcDbText
1001
TOP
1070
     1
  0
TEXT
  5
70C
330
6F8
100
AcDbEntity
  8
0
 62
     0
 48
35.0
100
AcDbText
 10
-99.24333629514059
 20
-105.5
 30
0.0
 40
1.6
  1
CLIENTE:
  7
STYLE1
100
AcDbText
1001
TOP
1070
     1
  0
LINE
  5
70D
330
6F8
100
AcDbEntity
  8
0
 62
     0
 48
35.0
100
AcDbLine
 10
-27.5
 20
-103.5
 30
0.0
 11
35.00000000000091
 21
-103.5
 31
0.0
1001
TOP
1070
     1
  0
TEXT
  5
70E
330
6F8
100
AcDbEntity
  8
0
 62
     0
 48
35.0
100
AcDbText
 10
-26.74333629514058
 20
-102.25
 30
0.0
 40
1.6
  1
COD. CLIENTE:
  7
STYLE1
100
AcDbText
1001
TOP
1070
     1
  0
TEXT
  5
70F
330
6F8
100
AcDbEntity
  8
0
 62
     0
 48
35.0
100
AcDbText
 10
-26.74333629514058
 20
-107.25
 30
0.0
 40
1.6
  1
CC CLIENTE:
  7
STYLE1
100
AcDbText
1001
TOP
1070
     1
  0
LINE
  5
710
330
6F8
100
AcDbEntity
  8
0
 62
     0
 48
35.0
100
AcDbLine
 10
35.0
 20
-85.99999999999988
 30
0.0
 11
100.0
 21
-85.99999999999988
 31
0.0
1001
TOP
1070
     7
  0
LINE
  5
711
330
6F8
100
AcDbEntity
  8
0
 62
     0
 48
35.0
100
AcDbLine
 10
35.0
 20
-93.49999999999988
 30
0.0
 11
100.0
 21
-93.49999999999988
 31
0.0
1001
TOP
1070
     7
  0
LINE
  5
712
330
6F8
100
AcDbEntity
  8
0
 62
     0
 48
35.0
100
AcDbLine
 10
35.0
 20
-100.9999999999999
 30
0.0
 11
100.0
 21
-100.9999999999999
 31
0.0
1001
TOP
1070
     7
  0
TEXT
  5
713
330
6F8
100
AcDbEntity
  8
0
 62
     0
 48
35.0
100
AcDbText
 10
35.75666370485942
 20
-83.99999999999989
 30
0.0
 40
1.6
  1
Data:
  7
STYLE1
100
AcDbText
1001
TOP
1070
     1
  0
TEXT
  5
714
330
6F8
100
AcDbEntity
  8
0
 62
     0
 48
35.0
100
AcDbText
 10
35.75666370485942
 20
-90.74999999999988
 30
0.0
 40
1.6
  1
Diseg.:        
  7
STYLE1
100
AcDbText
1001
TOP
1070
     1
  0
TEXT
  5
715
330
6F8
100
AcDbEntity
  8
0
 62
     0
 48
35.0
100
AcDbText
 10
35.75666370485942
 20
-98.49999999999988
 30
0.0
 40
1.6
  1
Rifer. ordine:
  7
STYLE1
100
AcDbText
1001
TOP
1070
     1
  0
LINE
  5
716
330
6F8
100
AcDbEntity
  8
0
 62
     0
 48
35.0
100
AcDbLine
 10
72.0
 20
-78.49999999999988
 30
0.0
 11
72.0
 21
-93.49999999999999
 31
0.0
  0
TEXT
  5
717
330
6F8
100
AcDbEntity
  8
0
 62
     0
 48
35.0
100
AcDbText
 10
72.75666370485942
 20
-83.99999999999989
 30
0.0
 40
1.6
  1
Scala:
  7
STYLE1
100
AcDbText
1001
TOP
1070
     1
  0
TEXT
  5
718
330
6F8
100
AcDbEntity
  8
0
 62
     0
 48
35.0
100
AcDbText
 10
72.75666370485942
 20
-91.49999999999989
 30
0.0
 40
1.6
  1
Q.ta:
  7
STYLE1
100
AcDbText
1001
TOP
1070
     1
  0
TEXT
  5
719
330
6F8
100
AcDbEntity
  8
0
 62
     0
 48
35.0
100
AcDbText
 10
35.85819235127565
 20
-110.1249999999999
 30
0.0
 40
1.76
  1
Codice N
  7
STYLE1
100
AcDbText
1001
TOP
1070
     1
  0
LINE
  5
71A
330
6F8
100
AcDbEntity
  8
0
 62
     0
 48
35.0
100
AcDbLine
 10
35.0
 20
-114.7499999999999
 30
0.0
 11
100.0
 21
-114.7499999999999
 31
0.0
1001
TOP
1070
     7
  0
LINE
  5
71B
330
6F8
100
AcDbEntity
  8
0
 62
     0
 48
35.0
100
AcDbLine
 10
35.0
 20
-124.7499999999999
 30
0.0
 11
100.0
 21
-124.7499999999999
 31
0.0
1001
TOP
1070
     7
  0
LINE
  5
71C
330
6F8
100
AcDbEntity
  8
0
 62
     0
 48
35.0
100
AcDbLine
 10
35.0
 20
-130.5
 30
0.0
 11
100.0
 21
-130.5
 31
0.0
1001
TOP
1070
     7
  0
CIRCLE
  5
71D
330
6F8
100
AcDbEntity
  8
0
  6
Continuous
 62
     0
100
AcDbCircle
 10
94.1449550471707
 20
-134.5409172698267
 30
0.0
 40
3.0
1001
TOP
1070
     2
  0
LINE
  5
71E
330
6F8
100
AcDbEntity
  8
0
  6
DASHDOT2
 62
     0
100
AcDbLine
 10
94.1449550471707
 20
-131.5409172698267
 30
0.0
 11
94.1449550471707
 21
-137.5409172698267
 31
0.0
1001
TOP
1070
     2
  0
CIRCLE
  5
71F
330
6F8
100
AcDbEntity
  8
0
  6
Continuous
 62
     0
100
AcDbCircle
 10
94.1449550471707
 20
-134.5409172698267
 30
0.0
 40
1.5
1001
TOP
1070
     2
  0
LINE
  5
720
330
6F8
100
AcDbEntity
  8
0
  6
DASHDOT2
 62
     0
100
AcDbLine
 10
81.35716881113784
 20
-134.5409172698267
 30
0.0
 11
97.14495504717071
 21
-134.5409172698267
 31
0.0
1001
TOP
1070
     2
  0
LINE
  5
721
330
6F8
100
AcDbEntity
  8
0
  6
Continuous
 62
     0
100
AcDbLine
 10
88.51173788868619
 20
-131.5409172698267
 30
0.0
 11
88.51173788868619
 21
-137.8298833532369
 31
0.0
1001
TOP
1070
     2
  0
LINE
  5
722
330
6F8
100
AcDbEntity
  8
0
  6
Continuous
 62
     0
100
AcDbLine
 10
81.35716881113784
 20
-133.0409172698267
 30
0.0
 11
81.35716881113784
 21
-136.0409172698267
 31
0.0
1001
TOP
1070
     2
  0
LINE
  5
723
330
6F8
100
AcDbEntity
  8
0
  6
Continuous
 62
     0
100
AcDbLine
 10
81.35716881113784
 20
-136.0409172698267
 30
0.0
 11
88.51173788868619
 21
-137.8298833532369
 31
0.0
1001
TOP
1070
     2
  0
LINE
  5
724
330
6F8
100
AcDbEntity
  8
0
  6
Continuous
 62
     0
100
AcDbLine
 10
88.51173788868619
 20
-131.5409172698267
 30
0.0
 11
81.35716881113784
 21
-133.0409172698267
 31
0.0
1001
TOP
1070
     2
  0
LINE
  5
725
330
6F8
100
AcDbEntity
  8
0
 62
     0
 48
35.0
100
AcDbLine
 10
78.5
 20
-138.5
 30
0.0
 11
78.5
 21
-130.5
 31
0.0
  0
MTEXT
  5
726
330
6F8
100
AcDbEntity
  8
0
 62
     0
 48
35.0
100
AcDbMText
 10
36.70159610234714
 20
-116.147829675845
 30
0.0
 40
2.0
 41
187.0802
 71
     1
 72
     5
  1
{\C256;LE TOLLERANZE SI INTENDONO SU PEZZO\PFINITO COMPLETO DI ZINCATURA}
  7
Stile_Cart
 73
     1
 44
1.0
1001
TOP
1070
     3
1001
ACAD
1000
MTEXTBEGIN
1070
    73
1070
     1
1070
    44
1040
1.0
1070
    74
1070
     0
1000
MTEXTEND
  0
LINE
  5
727
330
6F8
100
AcDbEntity
  8
0
 62
     0
100
AcDbLine
 10
-100.0
 20
-71.0
 30
0.0
 11
99.99999999999909
 21
-71.00000000000012
 31
0.0
1001
TOP
1070
     3
  0
LINE
  5
728
330
6F8
100
AcDbEntity
  8
0
 62
     0
100
AcDbLine
 10
-100.0
 20
-67.0
 30
0.0
 11
99.99999999999909
 21
-67.0
 31
0.0
1001
TOP
1070
     3
  0
LINE
  5
729
330
6F8
100
AcDbEntity
  8
0
 62
     0
100
AcDbLine
 10
-100.0
 20
-62.0
 30
0.0
 11
99.99999999999909
 21
-61.99999999999988
 31
0.0
1001
TOP
1070
     3
  0
LINE
  5
72A
330
6F8
100
AcDbEntity
  8
0
 62
     0
 48
35.0
100
AcDbLine
 10
-85.0
 20
-61.99999999999999
 30
0.0
 11
-85.0
 21
-78.5
 31
0.0
1001
TOP
1070
     1
  0
TEXT
  5
72B
330
6F8
100
AcDbEntity
  8
0
 62
     0
 48
35.0
100
AcDbText
 10
-99.24333629514149
 20
-76.0
 30
0.0
 40
1.6
  1
POS.
  7
STYLE1
100
AcDbText
1001
TOP
1070
     1
  0
TEXT
  5
72C
330
6F8
100
AcDbEntity
  8
0
 62
     0
 48
35.0
100
AcDbText
 10
-84.2433362951424
 20
-76.0
 30
0.0
 40
1.6
  1
MATERIALE:
  7
STYLE1
100
AcDbText
1001
TOP
1070
     1
  0
LINE
  5
72D
330
6F8
100
AcDbEntity
  8
0
 62
     0
 48
35.0
100
AcDbLine
 10
14.99999999999909
 20
-71.00000000000022
 30
0.0
 11
15.0
 21
-78.5
 31
0.0
1001
TOP
1070
     1
  0
TEXT
  5
72E
330
6F8
100
AcDbEntity
  8
0
 62
     0
 48
35.0
100
AcDbText
 10
15.75666370485669
 20
-76.0
 30
0.0
 40
1.6
  1
TRATTAMENTI:
  7
STYLE1
100
AcDbText
1001
TOP
1070
     1
  0
TEXT
  5
72F
330
6F8
100
AcDbEntity
  8
0
 62
     0
 48
35.0
100
AcDbText
 10
-94.94297836942587
 20
-69.79763860700177
 30
0.0
 40
1.6
  1
Rev.
  7
STYLE1
100
AcDbText
1001
TOP
1070
     1
  0
LINE
  5
730
330
6F8
100
AcDbEntity
  8
0
 62
     0
 48
35.0
100
AcDbLine
 10
80.0
 20
-61.9999999999999
 30
0.0
 11
80.0000000000009
 21
-71.00000000000012
 31
0.0
1001
TOP
1070
     1
  0
LINE
  5
731
330
6F8
100
AcDbEntity
  8
0
 62
     0
 48
35.0
100
AcDbLine
 10
65.00000000000032
 20
-61.99999999999991
 30
0.0
 11
65.00000000000091
 21
-71.00000000000114
 31
0.0
1001
TOP
1070
     1
  0
TEXT
  5
732
330
6F8
100
AcDbEntity
  8
0
 62
     0
 48
35.0
100
AcDbText
 10
70.05702163057503
 20
-69.79763860700177
 30
0.0
 40
1.6
  1
Data
  7
STYLE1
100
AcDbText
1001
TOP
1070
     1
  0
TEXT
  5
733
330
6F8
100
AcDbEntity
  8
0
 62
     0
 48
35.0
100
AcDbText
 10
87.79240430569643
 20
-69.79763860700177
 30
0.0
 40
1.6
  1
Diseg.
  7
STYLE1
100
AcDbText
1001
TOP
1070
     1
  0
LINE
  5
734
330
6F8
100
AcDbEntity
  8
0
 62
     0
 48
35.0
100
AcDbLine
 10
-32.5
 20
-130.5
 30
0.0
 11
-32.5
 21
-138.5
 31
0.0
1001
TOP
1070
     7
  0
LINE
  5
735
330
6F8
100
AcDbEntity
  8
0
 62
     0
 48
35.0
100
AcDbLine
 10
1.25
 20
-130.5
 30
0.0
 11
1.25
 21
-138.5
 31
0.0
1001
TOP
1070
     7
  0
LINE
  5
736
330
6F8
100
AcDbEntity
  8
0
  6
Continuous
 62
     0
100
AcDbLine
 10
-84.625
 20
-135.2853677388285
 30
0.0
 11
-83.125
 21
-138.2853677388285
 31
0.0
1001
TOP
1070
     2
  0
LINE
  5
737
330
6F8
100
AcDbEntity
  8
0
  6
Continuous
 62
     0
100
AcDbLine
 10
-83.125
 20
-138.2853677388285
 30
0.0
 11
-80.12500000000001
 21
-132.2853677388285
 31
0.0
1001
TOP
1070
     2
  0
CIRCLE
  5
738
330
6F8
100
AcDbEntity
  8
0
  6
Continuous
 62
     0
100
AcDbCircle
 10
-83.125
 20
-136.1513931426129
 30
0.0
 40
0.8660254037843873
1001
TOP
1070
     2
  0
TEXT
  5
739
330
6F8
100
AcDbEntity
  8
0
  6
Continuous
 62
     0
100
AcDbText
 10
36.65725579953532
 20
-127.6856811538551
 30
0.0
 40
1.5
  1
Le QUOTE senza tolleranze si intendono h 11 / H 11
  7
Stile_Cart
100
AcDbText
1001
TOP
1070
     7
  0
TEXT
  5
73A
330
6F8
100
AcDbEntity
  8
0
  6
Continuous
 62
     0
100
AcDbText
 10
36.56316783991022
 20
-136.7809056532263
 30
0.0
 40
1.5
  1
Smussi e raggi non quotati = 1 mm
  7
Stile_Cart
100
AcDbText
1001
TOP
1070
     7
  0
TEXT
  5
73B
330
6F8
100
AcDbEntity
  8
0
  6
Continuous
 62
     0
100
AcDbText
 10
36.70159610234714
 20
-133.4356811538553
 30
0.0
 40
1.5
  1
Negli spigoli non quotati smussi 0,5 x 45°
  7
Stile_Cart
100
AcDbText
1001
TOP
1070
     7
  0
LINE
  5
73C
330
6F8
100
AcDbEntity
  8
0
  6
Continuous
 62
     0
100
AcDbLine
 10
22.04910490551336
 20
-135.2267571184318
 30
0.0
 11
23.54910490551336
 21
-138.2267571184318
 31
0.0
1001
TOP
1070
     2
  0
LINE
  5
73D
330
6F8
100
AcDbEntity
  8
0
  6
Continuous
 62
     0
100
AcDbLine
 10
23.54910490551336
 20
-138.2267571184318
 30
0.0
 11
26.54910490551336
 21
-132.2267571184318
 31
0.0
1001
TOP
1070
     2
  0
TEXT
  5
73E
330
6F8
100
AcDbEntity
  8
0
  6
Continuous
 62
     0
100
AcDbText
 10
21.21024234627165
 20
-134.7267571184318
 30
0.0
 40
2.0
  1
0,8
  7
seansi_ttf
 11
21.21024234627165
 21
-132.7267571184318
 31
0.0
100
AcDbText
 73
     3
1001
TOP
1070
     2
  0
LINE
  5
73F
330
6F8
100
AcDbEntity
  8
0
  6
Continuous
 62
     0
100
AcDbLine
 10
14.18630267108197
 20
-135.2559419652411
 30
0.0
 11
15.68630267108197
 21
-138.2559419652411
 31
0.0
1001
TOP
1070
     2
  0
LINE
  5
740
330
6F8
100
AcDbEntity
  8
0
  6
Continuous
 62
     0
100
AcDbLine
 10
15.68630267108197
 20
-138.2559419652411
 30
0.0
 11
17.18630267108197
 21
-135.2559419652411
 31
0.0
1001
TOP
1070
     2
  0
LINE
  5
741
330
6F8
100
AcDbEntity
  8
0
  6
Continuous
 62
     0
100
AcDbLine
 10
17.18630267108197
 20
-135.2559419652411
 30
0.0
 11
14.18630267108197
 21
-135.2559419652411
 31
0.0
1001
TOP
1070
     2
  0
LINE
  5
742
330
6F8
100
AcDbEntity
  8
0
  6
Continuous
 62
     0
100
AcDbLine
 10
14.18630267108197
 20
-135.2559419652411
 30
0.0
 11
12.68630267108197
 21
-138.2559419652411
 31
0.0
1001
TOP
1070
     2
  0
LINE
  5
743
330
6F8
100
AcDbEntity
  8
0
  6
Continuous
 62
     0
100
AcDbLine
 10
12.68630267108197
 20
-138.2559419652411
 30
0.0
 11
11.18630267108197
 21
-135.2559419652411
 31
0.0
1001
TOP
1070
     2
  0
LINE
  5
744
330
6F8
100
AcDbEntity
  8
0
  6
Continuous
 62
     0
100
AcDbLine
 10
11.18630267108197
 20
-135.2559419652411
 30
0.0
 11
14.18630267108197
 21
-135.2559419652411
 31
0.0
1001
TOP
1070
     2
  0
LINE
  5
745
330
6F8
100
AcDbEntity
  8
0
  6
Continuous
 62
     0
100
AcDbLine
 10
11.18630267108197
 20
-135.2559419652411
 30
0.0
 11
9.686302671081968
 21
-138.2559419652411
 31
0.0
1001
TOP
1070
     2
  0
LINE
  5
746
330
6F8
100
AcDbEntity
  8
0
  6
Continuous
 62
     0
100
AcDbLine
 10
9.686302671081968
 20
-138.2559419652411
 30
0.0
 11
8.186302671081968
 21
-135.2559419652411
 31
0.0
1001
TOP
1070
     2
  0
LINE
  5
747
330
6F8
100
AcDbEntity
  8
0
  6
Continuous
 62
     0
100
AcDbLine
 10
8.186302671081968
 20
-135.2559419652411
 30
0.0
 11
11.18630267108197
 21
-135.2559419652411
 31
0.0
1001
TOP
1070
     2
  0
LINE
  5
748
330
6F8
100
AcDbEntity
  8
0
  6
Continuous
 62
     0
100
AcDbLine
 10
-11.09407416882067
 20
-135.2999430320282
 30
0.0
 11
-9.594074168820668
 21
-138.2999430320282
 31
0.0
1001
TOP
1070
     2
  0
LINE
  5
749
330
6F8
100
AcDbEntity
  8
0
  6
Continuous
 62
     0
100
AcDbLine
 10
-9.594074168820668
 20
-138.2999430320282
 30
0.0
 11
-6.594074168820668
 21
-132.2999430320282
 31
0.0
1001
TOP
1070
     2
  0
TEXT
  5
74A
330
6F8
100
AcDbEntity
  8
0
  6
Continuous
 62
     0
100
AcDbText
 10
-11.93293672806237
 20
-134.7999430320282
 30
0.0
 40
2.0
  1
1,6
  7
seansi_ttf
 11
-11.93293672806237
 21
-132.7999430320282
 31
0.0
100
AcDbText
 73
     3
1001
TOP
1070
     2
  0
LINE
  5
74B
330
6F8
100
AcDbEntity
  8
0
  6
Continuous
 62
     0
100
AcDbLine
 10
-21.65592583117933
 20
-135.2999430320282
 30
0.0
 11
-20.15592583117933
 21
-138.2999430320282
 31
0.0
1001
TOP
1070
     2
  0
LINE
  5
74C
330
6F8
100
AcDbEntity
  8
0
  6
Continuous
 62
     0
100
AcDbLine
 10
-20.15592583117933
 20
-138.2999430320282
 30
0.0
 11
-18.65592583117933
 21
-135.2999430320282
 31
0.0
1001
TOP
1070
     2
  0
LINE
  5
74D
330
6F8
100
AcDbEntity
  8
0
  6
Continuous
 62
     0
100
AcDbLine
 10
-18.65592583117933
 20
-135.2999430320282
 30
0.0
 11
-21.65592583117933
 21
-135.2999430320282
 31
0.0
1001
TOP
1070
     2
  0
LINE
  5
74E
330
6F8
100
AcDbEntity
  8
0
  6
Continuous
 62
     0
100
AcDbLine
 10
-21.65592583117933
 20
-135.2999430320282
 30
0.0
 11
-23.15592583117933
 21
-138.2999430320282
 31
0.0
1001
TOP
1070
     2
  0
LINE
  5
74F
330
6F8
100
AcDbEntity
  8
0
  6
Continuous
 62
     0
100
AcDbLine
 10
-23.15592583117933
 20
-138.2999430320282
 30
0.0
 11
-24.65592583117933
 21
-135.2999430320282
 31
0.0
1001
TOP
1070
     2
  0
LINE
  5
750
330
6F8
100
AcDbEntity
  8
0
  6
Continuous
 62
     0
100
AcDbLine
 10
-24.65592583117933
 20
-135.2999430320282
 30
0.0
 11
-21.65592583117933
 21
-135.2999430320282
 31
0.0
1001
TOP
1070
     2
  0
LINE
  5
751
330
6F8
100
AcDbEntity
  8
0
  6
Continuous
 62
     0
100
AcDbLine
 10
-58.06883755106941
 20
-135.3397943988076
 30
0.0
 11
-56.56883755106941
 21
-138.3397943988076
 31
0.0
1001
TOP
1070
     2
  0
LINE
  5
752
330
6F8
100
AcDbEntity
  8
0
  6
Continuous
 62
     0
100
AcDbLine
 10
-56.56883755106941
 20
-138.3397943988076
 30
0.0
 11
-55.0688375510694
 21
-135.3397943988076
 31
0.0
1001
TOP
1070
     2
  0
LINE
  5
753
330
6F8
100
AcDbEntity
  8
0
  6
Continuous
 62
     0
100
AcDbLine
 10
-55.0688375510694
 20
-135.3397943988076
 30
0.0
 11
-58.06883755106941
 21
-135.3397943988076
 31
0.0
1001
TOP
1070
     2
  0
LINE
  5
754
330
6F8
100
AcDbEntity
  8
0
  6
Continuous
 62
     0
100
AcDbLine
 10
-43.68116244893059
 20
-135.3397943988076
 30
0.0
 11
-42.18116244893059
 21
-138.3397943988076
 31
0.0
1001
TOP
1070
     2
  0
LINE
  5
755
330
6F8
100
AcDbEntity
  8
0
  6
Continuous
 62
     0
100
AcDbLine
 10
-42.18116244893059
 20
-138.3397943988076
 30
0.0
 11
-39.18116244893059
 21
-132.3397943988076
 31
0.0
1001
TOP
1070
     2
  0
TEXT
  5
756
330
6F8
100
AcDbEntity
  8
0
  6
Continuous
 62
     0
100
AcDbText
 10
-44.52002500817229
 20
-134.8397943988076
 30
0.0
 40
2.0
  1
6,3
  7
seansi_ttf
 11
-44.52002500817229
 21
-132.8397943988076
 31
0.0
100
AcDbText
 73
     3
1001
TOP
1070
     2
  0
ATTDEF
  5
757
330
6F8
100
AcDbEntity
  8
0
 62
     0
 48
35.0
100
AcDbText
 10
-76.25989897767704
 20
-89.74999999999999
 30
0.0
 40
2.5
  1

  7
Stile_Cart
 11
-76.25989897767704
 21
-88.49999999999999
 31
0.0
100
AcDbAttributeDefinition
  3

  2
DESCRIZIONE2
 70
     4
 74
     2
1001
TOP
1070
     7
  0
ATTDEF
  5
758
330
6F8
100
AcDbEntity
  8
0
 62
     0
 48
35.0
100
AcDbText
 10
-76.25989897767704
 20
-94.74999999999999
 30
0.0
 40
2.5
  1

  7
Stile_Cart
 11
-76.25989897767704
 21
-93.49999999999999
 31
0.0
100
AcDbAttributeDefinition
  3

  2
DESCRIZIONE3
 70
     4
 74
     2
1001
TOP
1070
     7
  0
ATTDEF
  5
759
330
6F8
100
AcDbEntity
  8
0
 62
     0
 48
35.0
100
AcDbText
 10
42.76829842361894
 20
-83.99999999999989
 30
0.0
 40
3.5
  1

  7
Stile_Cart
 11
42.76829842361894
 21
-82.2499999999999
 31
0.0
100
AcDbAttributeDefinition
  3

  2
DATA
 70
     4
 74
     2
1001
TOP
1070
     7
  0
ATTDEF
  5
75A
330
6F8
100
AcDbEntity
  8
0
 62
     0
 48
35.0
100
AcDbText
 10
79.15321575123653
 20
-83.99999999999989
 30
0.0
 40
3.5
  1

  7
Stile_Cart
 11
79.15321575123653
 21
-82.24999999999988
 31
0.0
100
AcDbAttributeDefinition
  3

  2
SCALA
 70
     4
 74
     2
1001
TOP
1070
     7
  0
ATTDEF
  5
75B
330
6F8
100
AcDbEntity
  8
0
 62
     0
 48
35.0
100
AcDbText
 10
79.15321575123653
 20
-91.49999999999989
 30
0.0
 40
3.5
  1

  7
Stile_Cart
 11
79.15321575123653
 21
-89.74999999999988
 31
0.0
100
AcDbAttributeDefinition
  3

  2
QTA
 70
     4
 74
     2
1001
TOP
1070
     7
  0
ATTDEF
  5
75C
330
6F8
100
AcDbEntity
  8
0
 62
     0
 48
35.0
100
AcDbText
 10
42.76829842361894
 20
-90.74999999999988
 30
0.0
 40
2.0
  1

  7
Stile_Cart
 11
42.76829842361894
 21
-89.74999999999988
 31
0.0
100
AcDbAttributeDefinition
  3

  2
DISEGNATORE
 70
     4
 74
     2
1001
TOP
1070
     7
  0
ATTDEF
  5
75D
330
6F8
100
AcDbEntity
  8
0
 62
     0
 48
35.0
100
AcDbText
 10
51.64776592404542
 20
-98.49999999999988
 30
0.0
 40
2.5
  1

  7
Stile_Cart
 11
51.64776592404542
 21
-97.24999999999988
 31
0.0
100
AcDbAttributeDefinition
  3

  2
RIF_ORDINE
 70
     4
 74
     2
1001
TOP
1070
     7
  0
ATTDEF
  5
75E
330
6F8
100
AcDbEntity
  8
0
 62
     0
 48
35.0
100
AcDbText
 10
50.29007657152305
 20
-110.1249999999999
 30
0.0
 40
4.5
  1

  7
Stile_Cart
 11
50.29007657152305
 21
-107.8749999999999
 31
0.0
100
AcDbAttributeDefinition
  3

  2
CODICE
 70
     4
 74
     2
1001
TOP
1070
     7
  0
ATTDEF
  5
75F
330
6F8
100
AcDbEntity
  8
0
 62
     0
 48
35.0
100
AcDbText
 10
-10.1983793647978
 20
-102.25
 30
0.0
 40
2.5
  1

  7
Stile_Cart
 11
-10.1983793647978
 21
-101.0
 31
0.0
100
AcDbAttributeDefinition
  3

  2
COD_CLIENTE
 70
     4
 74
     2
1001
TOP
1070
     7
  0
ATTDEF
  5
760
330
6F8
100
AcDbEntity
  8
0
 62
     0
 48
35.0
100
AcDbText
 10
-10.18785708582345
 20
-107.25
 30
0.0
 40
2.5
  1

  7
Stile_Cart
 11
-10.18785708582345
 21
-106.0
 31
0.0
100
AcDbAttributeDefinition
  3

  2
COMMESSA
 70
     4
 74
     2
1001
TOP
1070
     7
  0
ATTDEF
  5
761
330
6F8
100
AcDbEntity
  8
0
 62
     0
 48
35.0
100
AcDbText
 10
-87.23964845993032
 20
-105.5
 30
0.0
 40
4.0
  1

  7
Stile_Cart
 11
-87.23964845993032
 21
-103.5
 31
0.0
100
AcDbAttributeDefinition
  3

  2
CLIENTE
 70
     4
 74
     2
1001
TOP
1070
     7
  0
ATTDEF
  5
762
330
6F8
100
AcDbEntity
  8
0
 62
     0
 48
35.0
100
AcDbText
 10
-67.95452598552799
 20
-76.0
 30
0.0
 40
2.5
  1

  7
Stile_Cart
 11
-67.95452598552799
 21
-74.75
 31
0.0
100
AcDbAttributeDefinition
  3

  2
MATERIALE
 70
     4
 74
     2
1001
TOP
1070
     7
  0
ATTDEF
  5
763
330
6F8
100
AcDbEntity
  8
0
 62
     0
 48
35.0
100
AcDbText
 10
35.56280592835867
 20
-76.0
 30
0.0
 40
2.5
  1

  7
Stile_Cart
 11
35.56280592835867
 21
-74.75
 31
0.0
100
AcDbAttributeDefinition
  3

  2
TRATTAMENTI
 70
     4
 74
     2
1001
TOP
1070
     7
  0
ATTDEF
  5
764
330
6F8
100
AcDbEntity
  8
0
 62
     0
 48
35.0
100
AcDbText
 10
-89.96922082042067
 20
-76.0
 30
0.0
 40
2.5
  1

  7
Stile_Cart
 72
     1
 11
-89.96922082042067
 21
-74.75
 31
0.0
100
AcDbAttributeDefinition
  3

  2
POS.
 70
     4
 74
     2
1001
TOP
1070
     7
  0
ATTDEF
  5
765
330
6F8
100
AcDbEntity
  8
0
 62
     0
 48
35.0
100
AcDbText
 10
-92.5
 20
-65.75
 30
0.0
 40
2.5
  1

  7
Stile_Cart
 72
     1
 11
-92.5
 21
-64.5
 31
0.0
100
AcDbAttributeDefinition
  3

  2
REV
 70
     4
 74
     2
1001
TOP
1070
     7
  0
ATTDEF
  5
766
330
6F8
100
AcDbEntity
  8
0
 62
     0
 48
35.0
100
AcDbText
 10
-83.0
 20
-65.75
 30
0.0
 40
2.5
  1

  7
Stile_Cart
 11
-83.0
 21
-64.5
 31
0.0
100
AcDbAttributeDefinition
  3

  2
MOD_REV
 70
     4
 74
     2
1001
TOP
1070
     7
  0
ATTDEF
  5
767
330
6F8
100
AcDbEntity
  8
0
 62
     0
 48
35.0
100
AcDbText
 10
72.50000000000032
 20
-65.74999999999994
 30
0.0
 40
2.5
  1

  7
Stile_Cart
 72
     1
 11
72.50000000000032
 21
-64.49999999999994
 31
0.0
100
AcDbAttributeDefinition
  3

  2
DATA_REV
 70
     4
 74
     2
1001
TOP
1070
     7
  0
ATTDEF
  5
768
330
6F8
100
AcDbEntity
  8
0
 62
     0
 48
35.0
100
AcDbText
 10
89.96023144605638
 20
-65.49999999999994
 30
0.0
 40
2.0
  1

 41
0.8
  7
Stile_Cart
 72
     1
 11
89.96023144605638
 21
-64.49999999999994
 31
0.0
100
AcDbAttributeDefinition
  3

  2
DISEGN_REV
 70
     4
 74
     2
1001
TOP
1070
     7
  0
TEXT
  5
769
330
6F8
100
AcDbEntity
  8
P-0000
  6
Continuous
 62
     0
 48
35.0
100
AcDbText
 10
-46.28135167661025
 20
-113.3527525052883
 30
0.0
 40
1.846799999999999
  1
Sedi operative: Fiorano Circ.le S. Giovanni Ev.,23   41042 Spezzano (MO)
  7
STYLE1
100
AcDbText
1001
TOP
1070
     7
  0
TEXT
  5
76A
330
6F8
100
AcDbEntity
  8
P-0000
  6
Continuous
 62
     0
 48
35.0
100
AcDbText
 10
-6.340918626483258
 20
-117.0692022869476
 30
0.0
 40
1.846799999999999
  1
Tel. 0536 921322  Fax 0536 921218
  7
STYLE1
100
AcDbText
1001
TOP
1070
     7
  0
TEXT
  5
76B
330
6F8
100
AcDbEntity
  8
P-0000
  6
Continuous
 62
     0
 48
35.0
100
AcDbText
 10
-29.75490795040492
 20
-120.7856520686069
 30
0.0
 40
1.846799999999999
  1
Bologna Via Del Selciatore, 12   40127 (BO) 
  7
STYLE1
100
AcDbText
1001
TOP
1070
     7
  0
TEXT
  5
76C
330
6F8
100
AcDbEntity
  8
P-0000
  6
Continuous
 62
     0
 48
35.0
100
AcDbText
 10
-3.770224758554846
 20
-124.5021018502664
 30
0.0
 40
1.846799999999999
  1
Tel. 051 535318  Fax 051 531297
  7
STYLE1
100
AcDbText
1001
TOP
1070
     7
  0
TEXT
  5
76D
330
6F8
100
AcDbEntity
  8
P-0000
  6
Continuous
 62
     0
 48
35.0
100
AcDbText
 10
-29.75453034516
 20
-128.1147363829751
 30
0.0
 40
1.5
  1
www.dierremacap.com . tecnico@dierreprotezioni.com  
  7
STYLE1
100
AcDbText
1001
TOP
1070
     7
  0
ARC
  5
76E
330
6F8
100
AcDbEntity
  8
P-0000
  6
Continuous
 62
     0
370
     0
100
AcDbCircle
 10
-87.55587540093328
 20
-119.8343908033039
 30
0.0
 40
7.264056604142308
100
AcDbArc
 50
54.62314853322836
 51
125.3768514667716
1001
TOP
1070
    85
  0
ARC
  5
76F
330
6F8
100
AcDbEntity
  8
P-0000
  6
Continuous
 62
     0
370
     0
100
AcDbCircle
 10
-88.37772146816295
 20
-119.8661633216503
 30
0.0
 40
7.793069759999999
100
AcDbArc
 50
49.82610094250764
 51
223.428751725223
1001
TOP
1070
    85
  0
ARC
  5
770
330
6F8
100
AcDbEntity
  8
P-0000
  6
Continuous
 62
     0
370
     0
100
AcDbCircle
 10
-87.77383862674813
 20
-119.1102130429075
 30
0.0
 40
4.056769053873
100
AcDbArc
 50
51.09712919102834
 51
223.6094645412326
1001
TOP
1070
    85
  0
ARC
  5
771
330
6F8
100
AcDbEntity
  8
P-0000
  6
Continuous
 62
     0
370
     0
100
AcDbCircle
 10
-88.42266163376624
 20
-119.4851385567151
 30
0.0
 40
4.763630338834137
100
AcDbArc
 50
47.85430720588668
 51
226.8522865263435
1001
TOP
1070
    85
  0
ARC
  5
772
330
6F8
100
AcDbEntity
  8
P-0000
  6
Continuous
 62
     0
370
     0
100
AcDbCircle
 10
-88.82997178899747
 20
-120.0817487520743
 30
0.0
 40
4.056769053873
100
AcDbArc
 50
231.0971291910283
 51
43.60946454123257
1001
TOP
1070
    85
  0
ARC
  5
773
330
6F8
100
AcDbEntity
  8
P-0000
  6
Continuous
 62
     0
370
     0
100
AcDbCircle
 10
-88.18114878197755
 20
-119.7068232382669
 30
0.0
 40
4.763630338834137
100
AcDbArc
 50
227.8543072058867
 51
46.85228652634355
1001
TOP
1070
    85
  0
ARC
  5
774
330
6F8
100
AcDbEntity
  8
P-0000
  6
Continuous
 62
     0
370
     0
100
AcDbCircle
 10
-88.37772146816295
 20
-119.8661633216503
 30
0.0
 40
7.793069759999999
100
AcDbArc
 50
230.1466606584018
 51
45.36258570986113
1001
TOP
1070
    85
  0
ARC
  5
775
330
6F8
100
AcDbEntity
  8
P-0000
  6
Continuous
 62
     0
370
     0
100
AcDbCircle
 10
-89.52593793590565
 20
-119.7374591014475
 30
0.0
 40
7.220700683144739
100
AcDbArc
 50
237.8184274609863
 51
321.1976420062348
1001
TOP
1070
    85
  0
ARC
  5
776
330
6F8
100
AcDbEntity
  8
P-0000
  6
Continuous
 62
     0
370
     0
100
AcDbCircle
 10
-88.50216480330599
 20
-119.1656258049447
 30
0.0
 40
5.663278842528495
100
AcDbArc
 50
171.3036725542784
 51
228.0269063594487
1001
TOP
1070
    85
  0
LINE
  5
777
330
6F8
100
AcDbEntity
  8
P-0000
  6
Continuous
 62
     0
370
     0
100
AcDbLine
 10
-92.28966119657778
 20
-123.3760412617837
 30
0.0
 11
-94.03728088778988
 21
-125.2235249353502
 31
0.0
1001
TOP
1070
    85
  0
LINE
  5
778
330
6F8
100
AcDbEntity
  8
P-0000
  6
Continuous
 62
     0
370
     0
100
AcDbLine
 10
-90.71117445104736
 20
-121.9083255159412
 30
0.0
 11
-91.68042069830406
 21
-122.9606500129607
 31
0.0
1001
TOP
1070
    85
  0
ARC
  5
779
330
6F8
100
AcDbEntity
  8
P-0000
  6
Continuous
 62
     0
370
     0
100
AcDbCircle
 10
-88.54309328048001
 20
-118.4440510223681
 30
0.0
 40
5.558875133404746
100
AcDbArc
 50
125.3768514667716
 51
178.611514748478
1001
TOP
1070
    85
  0
LINE
  5
77A
330
6F8
100
AcDbEntity
  8
P-0000
  6
Continuous
 62
     0
370
     0
100
AcDbLine
 10
-53.65438013237113
 20
-115.6426918998433
 30
0.0
 11
-52.51302380375555
 21
-115.6426918998433
 31
0.0
1001
TOP
1070
     7
  0
ARC
  5
77B
330
6F8
100
AcDbEntity
  8
P-0000
  6
Continuous
 62
     0
370
     0
100
AcDbCircle
 10
-54.83784997234598
 20
-114.9033114623533
 30
0.0
 40
2.439569664000001
100
AcDbArc
 50
354.0835439993975
 51
342.3574175336751
1001
TOP
1070
     7
  0
LINE
  5
77C
330
6F8
100
AcDbEntity
  8
P-0000
  6
Continuous
 62
     0
370
     0
100
AcDbLine
 10
-56.253151669302
 20
-115.1547779670433
 30
0.0
 11
-52.39829186638807
 21
-115.1547779670433
 31
0.0
1001
TOP
1070
     7
  0
ARC
  5
77D
330
6F8
100
AcDbEntity
  8
P-0000
  6
Continuous
 62
     0
370
     0
100
AcDbCircle
 10
-67.13328107890589
 20
-114.9033114623533
 30
0.0
 40
2.439569664000001
100
AcDbArc
 50
354.0835439993975
 51
342.3574175336751
1001
TOP
1070
     7
  0
LINE
  5
77E
330
6F8
100
AcDbEntity
  8
P-0000
  6
Continuous
 62
     0
370
     0
100
AcDbLine
 10
-77.50234959180421
 20
-117.3428811263534
 30
0.0
 11
-74.57486599500507
 21
-117.3428811263534
 31
0.0
1001
TOP
1070
     7
  0
LINE
  5
77F
330
6F8
100
AcDbEntity
  8
P-0000
  6
Continuous
 62
     0
370
     0
100
AcDbLine
 10
-74.57486599500507
 20
-110.9999999999532
 30
0.0
 11
-77.50234959180421
 21
-110.9999999999532
 31
0.0
1001
TOP
1070
     7
  0
LINE
  5
780
330
6F8
100
AcDbEntity
  8
P-0000
  6
Continuous
 62
     0
370
     0
100
AcDbLine
 10
-82.90217148550416
 20
-114.320869039862
 30
0.0
 11
-84.48030571869711
 21
-115.9543842828061
 31
0.0
1001
TOP
1070
    85
  0
ARC
  5
781
330
6F8
100
AcDbEntity
  8
P-0000
  6
Continuous
 62
     0
370
     0
100
AcDbCircle
 10
-89.02722975211579
 20
-120.4469356245718
 30
0.0
 40
6.391989965892938
100
AcDbArc
 50
323.352977406186
 51
44.65536847523573
1001
TOP
1070
    85
  0
LINE
  5
782
330
6F8
100
AcDbEntity
  8
P-0000
  6
Continuous
 62
     0
370
     0
100
AcDbLine
 10
-85.89263596469553
 20
-117.283636279041
 30
0.0
 11
-84.92338971744155
 21
-116.2313117820216
 31
0.0
1001
TOP
1070
    85
  0
LINE
  5
783
330
6F8
100
AcDbEntity
  8
P-0000
  6
Continuous
 62
     0
370
     0
100
AcDbLine
 10
-77.50234959180421
 20
-110.9999999999532
 30
0.0
 11
-77.50234959180421
 21
-117.3428811263534
 31
0.0
1001
TOP
1070
     7
  0
ARC
  5
784
330
6F8
100
AcDbEntity
  8
P-0000
  6
Continuous
 62
     0
370
     0
100
AcDbCircle
 10
-74.81882296140435
 20
-113.6835266303536
 30
0.0
 40
1.5857202816
100
AcDbArc
 50
0.0
 51
90.0
1001
TOP
1070
     7
  0
ARC
  5
785
330
6F8
100
AcDbEntity
  8
P-0000
  6
Continuous
 62
     0
370
     0
100
AcDbCircle
 10
-74.81882296140435
 20
-114.6593544959532
 30
0.0
 40
1.5857202816
100
AcDbArc
 50
270.0
 51
0.0
1001
TOP
1070
     7
  0
ARC
  5
786
330
6F8
100
AcDbEntity
  8
P-0000
  6
Continuous
 62
     0
370
     0
100
AcDbCircle
 10
-74.57486599500507
 20
-114.9033114623533
 30
0.0
 40
2.439569663999999
100
AcDbArc
 50
270.0
 51
0.0
1001
TOP
1070
     7
  0
ARC
  5
787
330
6F8
100
AcDbEntity
  8
P-0000
  6
Continuous
 62
     0
370
     0
100
AcDbCircle
 10
-74.57486599500507
 20
-113.4395696639535
 30
0.0
 40
2.439569663999999
100
AcDbArc
 50
0.0
 51
90.0
1001
TOP
1070
     7
  0
LINE
  5
788
330
6F8
100
AcDbEntity
  8
P-0000
  6
Continuous
 62
     0
370
     0
100
AcDbLine
 10
-76.40454324300486
 20
-112.0978063487534
 30
0.0
 11
-76.40454324300486
 21
-116.2450747775533
 31
0.0
1001
TOP
1070
     7
  0
LINE
  5
789
330
6F8
100
AcDbEntity
  8
P-0000
  6
Continuous
 62
     0
370
     0
100
AcDbLine
 10
-76.40454324300486
 20
-116.2450747775533
 30
0.0
 11
-74.81882296140435
 21
-116.2450747775533
 31
0.0
1001
TOP
1070
     7
  0
LINE
  5
78A
330
6F8
100
AcDbEntity
  8
P-0000
  6
Continuous
 62
     0
370
     0
100
AcDbLine
 10
-74.81882296140435
 20
-112.0978063487534
 30
0.0
 11
-76.40454324300486
 21
-112.0978063487534
 31
0.0
1001
TOP
1070
     7
  0
LINE
  5
78B
330
6F8
100
AcDbEntity
  8
P-0000
  6
Continuous
 62
     0
370
     0
100
AcDbLine
 10
-70.30472164210562
 20
-117.3428811263534
 30
0.0
 11
-70.30472164210562
 21
-112.4637417983535
 31
0.0
1001
TOP
1070
     7
  0
LINE
  5
78C
330
6F8
100
AcDbEntity
  8
P-0000
  6
Continuous
 62
     0
370
     0
100
AcDbLine
 10
-71.4025279909076
 20
-112.4637417983535
 30
0.0
 11
-71.4025279909076
 21
-117.3428811263534
 31
0.0
1001
TOP
1070
     7
  0
LINE
  5
78D
330
6F8
100
AcDbEntity
  8
P-0000
  6
Continuous
 62
     0
370
     0
100
AcDbLine
 10
-71.4025279909076
 20
-117.3428811263534
 30
0.0
 11
-70.30472164210562
 21
-117.3428811263534
 31
0.0
1001
TOP
1070
     7
  0
LINE
  5
78E
330
6F8
100
AcDbEntity
  8
P-0000
  6
Continuous
 62
     0
370
     0
100
AcDbLine
 10
-71.4025279909076
 20
-111.9758278655534
 30
0.0
 11
-70.30472164210562
 21
-111.9758278655534
 31
0.0
1001
TOP
1070
     7
  0
LINE
  5
78F
330
6F8
100
AcDbEntity
  8
P-0000
  6
Continuous
 62
     0
370
     0
100
AcDbLine
 10
-70.30472164210562
 20
-110.9999999999532
 30
0.0
 11
-71.4025279909076
 21
-110.9999999999532
 31
0.0
1001
TOP
1070
     7
  0
HATCH
  5
790
330
6F8
100
AcDbEntity
  8
P-0000
  6
Continuous
 62
     0
100
AcDbHatch
 10
0.0
 20
0.0
 30
0.0
210
0.0
220
0.0
230
1.0
  2
SOLID
 70
     1
 71
     0
 91
        1
 92
        1
 93
        4
 72
     1
 10
-70.30472164210627
 20
-110.9999999999534
 11
-71.40252799090693
 21
-110.9999999999534
 72
     1
 10
-71.40252799090564
 20
-110.9999999999534
 11
-71.40252799090564
 21
-111.9758278655534
 72
     1
 10
-71.40252799090564
 20
-111.9758278655535
 11
-70.30472164210498
 21
-111.9758278655535
 72
     1
 10
-70.30472164210627
 20
-111.9758278655535
 11
-70.30472164210627
 21
-110.9999999999535
 97
        0
 75
     0
 76
     1
 98
        1
 10
-136.4839087803873
 20
-204.8924935638848
1001
TOP
1070
     3
  0
LINE
  5
791
330
6F8
100
AcDbEntity
  8
P-0000
  6
Continuous
 62
     0
370
     0
100
AcDbLine
 10
-70.30472164210562
 20
-112.4637417983535
 30
0.0
 11
-71.4025279909076
 21
-112.4637417983535
 31
0.0
1001
TOP
1070
     7
  0
LINE
  5
792
330
6F8
100
AcDbEntity
  8
P-0000
  6
Continuous
 62
     0
370
     0
100
AcDbLine
 10
-73.23310267980318
 20
-114.6593544959532
 30
0.0
 11
-73.23310267980318
 21
-113.6835266303536
 31
0.0
1001
TOP
1070
     7
  0
LINE
  5
793
330
6F8
100
AcDbEntity
  8
P-0000
  6
Continuous
 62
     0
370
     0
100
AcDbLine
 10
-72.13529633100447
 20
-114.9033114623533
 30
0.0
 11
-72.13529633100447
 21
-113.4395696639535
 31
0.0
1001
TOP
1070
     7
  0
LINE
  5
794
330
6F8
100
AcDbEntity
  8
P-0000
  6
Continuous
 62
     0
370
     0
100
AcDbLine
 10
-71.4025279909076
 20
-110.9999999999532
 30
0.0
 11
-71.4025279909076
 21
-111.9758278655534
 31
0.0
1001
TOP
1070
     7
  0
LINE
  5
795
330
6F8
100
AcDbEntity
  8
P-0000
  6
Continuous
 62
     0
370
     0
100
AcDbLine
 10
-70.30472164210562
 20
-111.9758278655534
 30
0.0
 11
-70.30472164210562
 21
-110.9999999999532
 31
0.0
1001
TOP
1070
     7
  0
LINE
  5
796
330
6F8
100
AcDbEntity
  8
P-0000
  6
Continuous
 62
     0
370
     0
100
AcDbLine
 10
-61.67972155649409
 20
-112.4637417983535
 30
0.0
 11
-61.22362894667041
 21
-112.4637417983535
 31
0.0
1001
TOP
1070
     7
  0
ARC
  5
797
330
6F8
100
AcDbEntity
  8
P-0000
  6
Continuous
 62
     0
370
     0
100
AcDbCircle
 10
-61.22455238416592
 20
-115.7450893416161
 30
0.0
 40
2.30551986259622
100
AcDbArc
 50
89.97705113130741
 51
144.7782320142388
1001
TOP
1070
     7
  0
LINE
  5
798
330
6F8
100
AcDbEntity
  8
P-0000
  6
Continuous
 62
     0
370
     0
100
AcDbLine
 10
-65.94981123893105
 20
-115.6426918998433
 30
0.0
 11
-64.80845491031482
 21
-115.6426918998433
 31
0.0
1001
TOP
1070
     7
  0
LINE
  5
799
330
6F8
100
AcDbEntity
  8
P-0000
  6
Continuous
 62
     0
370
     0
100
AcDbLine
 10
-68.54858277585996
 20
-115.1547779670433
 30
0.0
 11
-64.69372297294865
 21
-115.1547779670433
 31
0.0
1001
TOP
1070
     7
  0
ARC
  5
79A
330
6F8
100
AcDbEntity
  8
P-0000
  6
Continuous
 62
     0
370
     0
100
AcDbCircle
 10
-67.13328107890589
 20
-114.7813329791535
 30
0.0
 40
1.463741798400002
100
AcDbArc
 50
194.7813103722914
 51
323.9519363800095
1001
TOP
1070
     7
  0
ARC
  5
79B
330
6F8
100
AcDbEntity
  8
P-0000
  6
Continuous
 62
     0
370
     0
100
AcDbCircle
 10
-67.13315394981435
 20
-114.7246775057507
 30
0.0
 40
1.309503544180366
100
AcDbArc
 50
23.46032899247153
 51
156.5396710075285
1001
TOP
1070
     7
  0
LINE
  5
79C
330
6F8
100
AcDbEntity
  8
P-0000
  6
Continuous
 62
     0
370
     0
100
AcDbLine
 10
-68.33440862006644
 20
-114.2033457980831
 30
0.0
 11
-65.93189927956226
 21
-114.2033457980831
 31
0.0
1001
TOP
1070
     7
  0
LINE
  5
79D
330
6F8
100
AcDbEntity
  8
P-0000
  6
Continuous
 62
     0
370
     0
100
AcDbLine
 10
-63.1079911333061
 20
-117.3428811263534
 30
0.0
 11
-63.1079911333061
 21
-114.4153975295534
 31
0.0
1001
TOP
1070
     7
  0
LINE
  5
79E
330
6F8
100
AcDbEntity
  8
P-0000
  6
Continuous
 62
     0
370
     0
100
AcDbLine
 10
-64.2057974821061
 20
-112.4637417983535
 30
0.0
 11
-64.2057974821061
 21
-117.3428811263534
 31
0.0
1001
TOP
1070
     7
  0
LINE
  5
79F
330
6F8
100
AcDbEntity
  8
P-0000
  6
Continuous
 62
     0
370
     0
100
AcDbLine
 10
-64.2057974821061
 20
-117.3428811263534
 30
0.0
 11
-63.1079911333061
 21
-117.3428811263534
 31
0.0
1001
TOP
1070
     7
  0
LINE
  5
7A0
330
6F8
100
AcDbEntity
  8
P-0000
  6
Continuous
 62
     0
370
     0
100
AcDbLine
 10
-63.1079911333061
 20
-112.4637417983535
 30
0.0
 11
-64.2057974821061
 21
-112.4637417983535
 31
0.0
1001
TOP
1070
     7
  0
ARC
  5
7A1
330
6F8
100
AcDbEntity
  8
P-0000
  6
Continuous
 62
     0
370
     0
100
AcDbCircle
 10
-61.5678898700862
 20
-114.1605808182826
 30
0.0
 40
1.700520210299701
100
AcDbArc
 50
93.77067625261986
 51
154.9129671807329
1001
TOP
1070
     7
  0
LINE
  5
7A2
330
6F8
100
AcDbEntity
  8
P-0000
  6
Continuous
 62
     0
370
     0
100
AcDbLine
 10
-63.1079911333061
 20
-113.4395696639535
 30
0.0
 11
-63.1079911333061
 21
-112.4637417983535
 31
0.0
1001
TOP
1070
     7
  0
LINE
  5
7A3
330
6F8
100
AcDbEntity
  8
P-0000
  6
Continuous
 62
     0
370
     0
100
AcDbLine
 10
-63.1079911333061
 20
-112.4637417983535
 30
0.0
 11
-63.1079911333061
 21
-113.4395696639535
 31
0.0
1001
TOP
1070
     7
  0
LINE
  5
7A4
330
6F8
100
AcDbEntity
  8
P-0000
  6
Continuous
 62
     0
370
     0
100
AcDbLine
 10
-59.39496610469735
 20
-117.3428811263534
 30
0.0
 11
-59.39496610469735
 21
-114.4153975295534
 31
0.0
1001
TOP
1070
     7
  0
LINE
  5
7A5
330
6F8
100
AcDbEntity
  8
P-0000
  6
Continuous
 62
     0
370
     0
100
AcDbLine
 10
-60.49277245349801
 20
-112.4637417983535
 30
0.0
 11
-60.49277245349801
 21
-117.3428811263534
 31
0.0
1001
TOP
1070
     7
  0
LINE
  5
7A6
330
6F8
100
AcDbEntity
  8
P-0000
  6
Continuous
 62
     0
370
     0
100
AcDbLine
 10
-60.49277245349801
 20
-117.3428811263534
 30
0.0
 11
-59.39496610469735
 21
-117.3428811263534
 31
0.0
1001
TOP
1070
     7
  0
ARC
  5
7A7
330
6F8
100
AcDbEntity
  8
P-0000
  6
Continuous
 62
     0
370
     0
100
AcDbCircle
 10
-57.8548648414781
 20
-114.1605808182826
 30
0.0
 40
1.700520210299701
100
AcDbArc
 50
93.77067625261986
 51
154.9129671807329
1001
TOP
1070
     7
  0
ARC
  5
7A8
330
6F8
100
AcDbEntity
  8
P-0000
  6
Continuous
 62
     0
370
     0
100
AcDbCircle
 10
-57.51152735555913
 20
-115.7450893416161
 30
0.0
 40
2.30551986259622
100
AcDbArc
 50
89.97705113130741
 51
144.7782320142388
1001
TOP
1070
     7
  0
LINE
  5
7A9
330
6F8
100
AcDbEntity
  8
P-0000
  6
Continuous
 62
     0
370
     0
100
AcDbLine
 10
-59.39496610469735
 20
-113.4395696639535
 30
0.0
 11
-59.39496610469735
 21
-112.4637417983535
 31
0.0
1001
TOP
1070
     7
  0
LINE
  5
7AA
330
6F8
100
AcDbEntity
  8
P-0000
  6
Continuous
 62
     0
370
     0
100
AcDbLine
 10
-61.22362894667041
 20
-113.4395696639535
 30
0.0
 11
-61.22362894667041
 21
-112.4637417983535
 31
0.0
1001
TOP
1070
     7
  0
LINE
  5
7AB
330
6F8
100
AcDbEntity
  8
P-0000
  6
Continuous
 62
     0
370
     0
100
AcDbLine
 10
-59.39496610469735
 20
-112.4637417983535
 30
0.0
 11
-59.39496610469735
 21
-113.4395696639535
 31
0.0
1001
TOP
1070
     7
  0
LINE
  5
7AC
330
6F8
100
AcDbEntity
  8
P-0000
  6
Continuous
 62
     0
370
     0
100
AcDbLine
 10
-59.39496610469735
 20
-112.4637417983535
 30
0.0
 11
-60.49277245349801
 21
-112.4637417983535
 31
0.0
1001
TOP
1070
     7
  0
LINE
  5
7AD
330
6F8
100
AcDbEntity
  8
P-0000
  6
Continuous
 62
     0
370
     0
100
AcDbLine
 10
-57.5106039180623
 20
-113.4395696639535
 30
0.0
 11
-57.5106039180623
 21
-112.4637417983535
 31
0.0
1001
TOP
1070
     7
  0
LINE
  5
7AE
330
6F8
100
AcDbEntity
  8
P-0000
  6
Continuous
 62
     0
370
     0
100
AcDbLine
 10
-57.96669652788599
 20
-112.4637417983535
 30
0.0
 11
-57.5106039180623
 21
-112.4637417983535
 31
0.0
1001
TOP
1070
     7
  0
ARC
  5
7AF
330
6F8
100
AcDbEntity
  8
P-0000
  6
Continuous
 62
     0
370
     0
100
AcDbCircle
 10
-54.83784997234598
 20
-114.7813329791535
 30
0.0
 40
1.463741798400002
100
AcDbArc
 50
194.7813103722914
 51
323.9519363800095
1001
TOP
1070
     7
  0
ARC
  5
7B0
330
6F8
100
AcDbEntity
  8
P-0000
  6
Continuous
 62
     0
370
     0
100
AcDbCircle
 10
-54.83772284325443
 20
-114.7246775057507
 30
0.0
 40
1.309503544180366
100
AcDbArc
 50
23.46032899247153
 51
156.5396710075285
1001
TOP
1070
     7
  0
LINE
  5
7B1
330
6F8
100
AcDbEntity
  8
P-0000
  6
Continuous
 62
     0
370
     0
100
AcDbLine
 10
-56.03897751350586
 20
-114.2033457980831
 30
0.0
 11
-53.63646817300168
 21
-114.2033457980831
 31
0.0
1001
TOP
1070
     7
  0
HATCH
  5
7B2
330
6F8
100
AcDbEntity
  8
P-0000
  6
Continuous
 62
     0
 48
35.0
100
AcDbHatch
 10
0.0
 20
0.0
 30
0.0
210
0.0
220
0.0
230
1.0
  2
SOLID
 70
     1
 71
     0
 91
        4
 92
        7
 72
     1
 73
     1
 93
        5
 10
-94.03728088778988
 20
-125.2235249353502
 42
0.0
 10
-92.28966119657778
 20
-123.3760412617837
 42
-0.2526825286644691
 10
-94.10033621549056
 20
-118.3093524326913
 42
-0.2365496875282557
 10
-91.7614140375581
 20
-113.911556758355
 42
-0.3189181398811662
 10
-83.35033676430748
 20
-113.9115567583528
 42
0.9456749006874259
 97
        0
 92
       23
 72
     1
 73
     1
 93
        3
 10
-91.68042069830406
 20
-122.9606500129607
 42
0.0
 10
-90.71117445104736
 20
-121.9083255159412
 42
-0.9367032511192487
 10
-85.2261793413445
 20
-115.9531879682591
 42
0.991293729556146
 97
        0
 92
       23
 72
     1
 73
     1
 93
        3
 10
-91.37763107440111
 20
-123.2387738267226
 42
0.9912937295513184
 10
-84.92338971744155
 20
-116.2313117820216
 42
0.0
 10
-85.89263596469553
 20
-117.283636279041
 42
-0.9367032511219315
 97
        0
 92
        7
 72
     1
 73
     1
 93
        4
 10
-83.89875797035076
 20
-124.2622092592821
 42
-0.3807594385329842
 10
-93.37171269560638
 20
-125.8488038677993
 42
0.9590989174885454
 10
-82.90217148550416
 20
-114.320869039862
 42
0.0
 10
-84.48030571869711
 20
-115.9543842828061
 42
-0.3704192144445529
 97
        0
 75
     0
 76
     1
 47
0.0537802133905057
 98
        4
 10
-95.28899908413293
 20
-117.9121948253558
 10
-92.51811574438377
 20
-119.1148667670212
 10
-84.53359595731015
 20
-120.3175387086872
 10
-82.20022029262763
 20
-118.4953086011877
1001
TOP
1070
     3
  0
HATCH
  5
7B3
330
6F8
100
AcDbEntity
  8
P-0000
  6
Continuous
 62
     0
 48
35.0
100
AcDbHatch
 10
0.0
 20
0.0
 30
0.0
210
0.0
220
0.0
230
1.0
  2
SOLID
 70
     1
 71
     0
 91
        9
 92
        7
 72
     1
 73
     1
 93
        6
 10
-74.57486599500573
 20
-110.9999999999531
 42
0.0
 10
-77.50234959180421
 20
-110.9999999999531
 42
0.0
 10
-77.50234959180485
 20
-117.3428811263533
 42
0.0
 10
-74.57486599500573
 20
-117.3428811263533
 42
0.4142135623732426
 10
-72.13529633100447
 20
-114.9033114623533
 42
0.0
 10
-72.13529633100447
 20
-113.4395696639534
 42
0.4142135623732917
 97
        0
 92
       22
 72
     1
 73
     1
 93
        6
 10
-76.40454324300486
 20
-112.0978063487534
 42
0.0
 10
-74.81882296140435
 20
-112.0978063487534
 42
-0.4142135623733217
 10
-73.23310267980318
 20
-113.6835266303533
 42
0.0
 10
-73.23310267980318
 20
-114.6593544959533
 42
-0.4142135623732008
 10
-74.81882296140369
 20
-116.2450747775532
 42
0.0
 10
-76.40454324300486
 20
-116.2450747775532
 42
0.0
 97
        0
 92
        7
 72
     0
 73
     1
 93
        4
 10
-71.40252799090825
 20
-117.3428811263533
 10
-70.30472164210562
 20
-117.3428811263534
 10
-70.30472164210562
 20
-112.4637417983535
 10
-71.4025279909076
 20
-112.4637417983534
 97
        0
 92
        7
 72
     1
 73
     1
 93
        4
 10
-68.5485827758606
 20
-115.1547779670432
 42
0.0
 10
-64.70670638553077
 20
-115.1547779670432
 42
19.52759892169242
 10
-64.80845491031548
 20
-115.6426918998433
 42
0.0
 10
-65.94981123892972
 20
-115.6426918998433
 42
-0.6319943824460191
 97
        0
 92
       22
 72
     1
 73
     1
 93
        2
 10
-68.33440862006513
 20
-114.2033457980811
 42
-0.6561238478654379
 10
-65.93189927956356
 20
-114.2033457980831
 42
0.0
 97
        0
 92
        7
 72
     1
 73
     1
 93
        9
 10
-63.1079911333061
 20
-114.4153975295551
 42
-0.2437791817823871
 10
-61.22362894667041
 20
-113.4395696639536
 42
0.0
 10
-61.22362894667041
 20
-112.4637417983535
 42
0.0
 10
-61.6797215564895
 20
-112.4637417983534
 42
0.2732984134248683
 10
-63.1079911333061
 20
-113.4395696639525
 42
0.0
 10
-63.1079911333061
 20
-112.4637417983534
 42
0.0
 10
-64.20579748210546
 20
-112.4637417983534
 42
0.0
 10
-64.2057974821061
 20
-117.3428811263532
 42
0.0
 10
-63.10799113330676
 20
-117.3428811263532
 42
0.0
 97
        0
 92
        7
 72
     1
 73
     1
 93
        9
 10
-60.49277245349736
 20
-117.3428811263533
 42
0.0
 10
-59.3949661046967
 20
-117.3428811263534
 42
0.0
 10
-59.39496610469735
 20
-114.4153975295523
 42
-0.2437791817821463
 10
-57.5106039180623
 20
-113.4395696639536
 42
0.0
 10
-57.5106039180623
 20
-112.4637417983535
 42
0.0
 10
-57.9666965278814
 20
-112.4637417983534
 42
0.2732984134246251
 10
-59.39496610469735
 20
-113.4395696639511
 42
0.0
 10
-59.39496610469735
 20
-112.4637417983534
 42
0.0
 10
-60.49277245349801
 20
-112.4637417983535
 42
0.0
 97
        0
 92
        7
 72
     1
 73
     1
 93
        4
 10
-52.41127527897084
 20
-115.1547779670432
 42
19.52759892169242
 10
-52.51302380375555
 20
-115.6426918998433
 42
0.0
 10
-53.65438013237048
 20
-115.6426918998433
 42
-0.631994382445661
 10
-56.25315166930069
 20
-115.1547779670432
 42
0.0
 97
        0
 92
       22
 72
     1
 73
     1
 93
        2
 10
-56.03897751350586
 20
-114.2033457980832
 42
-0.6561238478663365
 10
-53.63646817300299
 20
-114.2033457980831
 42
0.0
 97
        0
 75
     0
 76
     1
 47
0.1054092179442032
 98
        9
 10
-77.30509361450609
 20
-111.652214293695
 10
-77.30509361450609
 20
-111.652214293695
 10
-70.92517770860029
 20
-114.0180230722183
 10
-68.97004263540313
 20
-114.9952049659171
 10
-68.97004263540313
 20
-114.9952049659171
 10
-63.41334181494616
 20
-115.2523580455926
 10
-60.12048197631124
 20
-115.1494968773671
 10
-55.90150541812637
 20
-114.429468063343
 10
-55.90150541812637
 20
-114.429468063343
1001
TOP
1070
     5
  0
MTEXT
  5
7B4
330
6F8
100
AcDbEntity
  8
P-0000
  6
Continuous
 62
     0
100
AcDbMText
 10
-77.50752909622914
 20
-125.390962447158
 30
0.0
 40
1.5
 41
15.89275572328779
 71
     1
 72
     5
  1
{\f@Arial Unicode MS|b0|i0|c0|p34;\H2x;Group\H0.5x; srl}
  7
ROMANS
 73
     1
 44
1.0
1001
TOP
1070
     7
1001
ACAD
1000
MTEXTBEGIN
1070
    73
1070
     1
1070
    44
1040
1.0
1070
    74
1070
     0
1000
MTEXTEND
  0
LINE
  5
7B5
330
6F8
100
AcDbEntity
  8
P-0000
  6
Continuous
 62
     0
100
AcDbLine
 10
-60.31400746853627
 20
-118.6190131723036
 30
0.0
 11
-65.10163245619105
 21
-118.6190131723036
 31
0.0
1001
TOP
1070
     7
  0
LINE
  5
7B6
330
6F8
100
AcDbEntity
  8
P-0000
  6
Continuous
 62
     0
100
AcDbLine
 10
-65.10163245619105
 20
-118.6190131723036
 30
0.0
 11
-60.31400746853627
 21
-118.6190131723036
 31
0.0
1001
TOP
1070
     7
  0
LINE
  5
7B7
330
6F8
100
AcDbEntity
  8
P-0000
  6
Continuous
 62
     0
100
AcDbLine
 10
-60.60899754084211
 20
-122.4817401737899
 30
0.0
 11
-59.78513540320495
 21
-121.2719230596353
 31
0.0
1001
TOP
1070
     7
  0
LINE
  5
7B8
330
6F8
100
AcDbEntity
  8
P-0000
  6
Continuous
 62
     0
100
AcDbLine
 10
-60.60899754084211
 20
-122.4817401737899
 30
0.0
 11
-59.78513540320495
 21
-121.2719230596353
 31
0.0
1001
TOP
1070
     7
  0
LINE
  5
7B9
330
6F8
100
AcDbEntity
  8
P-0000
  6
Continuous
 62
     0
100
AcDbLine
 10
-60.60899754084211
 20
-122.4817401737899
 30
0.0
 11
-58.9612732655678
 21
-122.4817401737899
 31
0.0
1001
TOP
1070
     7
  0
LINE
  5
7BA
330
6F8
100
AcDbEntity
  8
P-0000
  6
Continuous
 62
     0
100
AcDbLine
 10
-58.9612732655678
 20
-122.4817401737899
 30
0.0
 11
-60.60899754084211
 21
-122.4817401737899
 31
0.0
1001
TOP
1070
     7
  0
LINE
  5
7BB
330
6F8
100
AcDbEntity
  8
P-0000
  6
Continuous
 62
     0
100
AcDbLine
 10
-63.4872398605242
 20
-124.055443766988
 30
0.0
 11
-56.08303094588571
 21
-124.055443766988
 31
0.0
1001
TOP
1070
     7
  0
LINE
  5
7BC
330
6F8
100
AcDbEntity
  8
P-0000
  6
Continuous
 62
     0
100
AcDbLine
 10
-63.4872398605242
 20
-124.055443766988
 30
0.0
 11
-56.08303094588571
 21
-124.055443766988
 31
0.0
1001
TOP
1070
     7
  0
LINE
  5
7BD
330
6F8
100
AcDbEntity
  8
P-0000
  6
Continuous
 62
     0
100
AcDbLine
 10
-61.88263947056615
 20
-120.9225027431548
 30
0.0
 11
-60.31400746853627
 21
-118.6190131723036
 31
0.0
1001
TOP
1070
     7
  0
LINE
  5
7BE
330
6F8
100
AcDbEntity
  8
P-0000
  6
Continuous
 62
     0
100
AcDbLine
 10
-61.88263947056615
 20
-120.9225027431548
 30
0.0
 11
-60.31400746853627
 21
-118.6190131723036
 31
0.0
1001
TOP
1070
     7
  0
LINE
  5
7BF
330
6F8
100
AcDbEntity
  8
P-0000
  6
Continuous
 62
     0
100
AcDbLine
 10
-63.4872398605242
 20
-124.055443766988
 30
0.0
 11
-59.78513540320495
 21
-118.6190131723036
 31
0.0
1001
TOP
1070
     7
  0
LINE
  5
7C0
330
6F8
100
AcDbEntity
  8
P-0000
  6
Continuous
 62
     0
100
AcDbLine
 10
-59.78513540320495
 20
-118.6190131723036
 30
0.0
 11
-63.4872398605242
 21
-124.055443766988
 31
0.0
1001
TOP
1070
     7
  0
LINE
  5
7C1
330
6F8
100
AcDbEntity
  8
P-0000
  6
Continuous
 62
     0
100
AcDbLine
 10
-72.47806497115667
 20
-118.6190131723036
 30
0.0
 11
-68.77596051383742
 21
-118.6190131723036
 31
0.0
1001
TOP
1070
     7
  0
LINE
  5
7C2
330
6F8
100
AcDbEntity
  8
P-0000
  6
Continuous
 62
     0
100
AcDbLine
 10
-72.47806497115667
 20
-118.6190131723036
 30
0.0
 11
-68.77596051383742
 21
-118.6190131723036
 31
0.0
1001
TOP
1070
     7
  0
LINE
  5
7C3
330
6F8
100
AcDbEntity
  8
P-0000
  6
Continuous
 62
     0
100
AcDbLine
 10
-71.94919290582532
 20
-124.055443766988
 30
0.0
 11
-68.24708844850608
 21
-118.6190131723036
 31
0.0
1001
TOP
1070
     7
  0
LINE
  5
7C4
330
6F8
100
AcDbEntity
  8
P-0000
  6
Continuous
 62
     0
100
AcDbLine
 10
-72.47806497115667
 20
-124.055443766988
 30
0.0
 11
-68.77596051383742
 21
-118.6190131723036
 31
0.0
1001
TOP
1070
     7
  0
LINE
  5
7C5
330
6F8
100
AcDbEntity
  8
P-0000
  6
Continuous
 62
     0
100
AcDbLine
 10
-71.94919290582532
 20
-124.055443766988
 30
0.0
 11
-68.24708844850608
 21
-118.6190131723036
 31
0.0
1001
TOP
1070
     7
  0
LINE
  5
7C6
330
6F8
100
AcDbEntity
  8
P-0000
  6
Continuous
 62
     0
100
AcDbLine
 10
-68.77596051383742
 20
-118.6190131723036
 30
0.0
 11
-72.47806497115667
 21
-124.055443766988
 31
0.0
1001
TOP
1070
     7
  0
LINE
  5
7C7
330
6F8
100
AcDbEntity
  8
P-0000
  6
Continuous
 62
     0
100
AcDbLine
 10
-71.94919290582532
 20
-124.055443766988
 30
0.0
 11
-64.54498399118683
 21
-124.055443766988
 31
0.0
1001
TOP
1070
     7
  0
LINE
  5
7C8
330
6F8
100
AcDbEntity
  8
P-0000
  6
Continuous
 62
     0
100
AcDbLine
 10
-64.54498399118683
 20
-124.055443766988
 30
0.0
 11
-71.94919290582532
 21
-124.055443766988
 31
0.0
1001
TOP
1070
     7
  0
LINE
  5
7C9
330
6F8
100
AcDbEntity
  8
P-0000
  6
Continuous
 62
     0
100
AcDbLine
 10
-77.50234959180421
 20
-118.6190131723036
 30
0.0
 11
-75.2546433141461
 21
-118.6190131723036
 31
0.0
1001
TOP
1070
     7
  0
LINE
  5
7CA
330
6F8
100
AcDbEntity
  8
P-0000
  6
Continuous
 62
     0
100
AcDbLine
 10
-77.50234959180421
 20
-124.055443766988
 30
0.0
 11
-75.2546433141461
 21
-124.055443766988
 31
0.0
1001
TOP
1070
     7
  0
LINE
  5
7CB
330
6F8
100
AcDbEntity
  8
P-0000
  6
Continuous
 62
     0
100
AcDbLine
 10
-75.2546433141461
 20
-124.055443766988
 30
0.0
 11
-77.50234959180421
 21
-124.055443766988
 31
0.0
1001
TOP
1070
     7
  0
LINE
  5
7CC
330
6F8
100
AcDbEntity
  8
P-0000
  6
Continuous
 62
     0
100
AcDbLine
 10
-77.50234959180421
 20
-118.6190131723036
 30
0.0
 11
-75.2546433141461
 21
-118.6190131723036
 31
0.0
1001
TOP
1070
     7
  0
LINE
  5
7CD
330
6F8
100
AcDbEntity
  8
P-0000
  6
Continuous
 62
     0
100
AcDbLine
 10
-77.50234959180421
 20
-124.055443766988
 30
0.0
 11
-77.50234959180421
 21
-118.6190131723036
 31
0.0
1001
TOP
1070
     7
  0
LINE
  5
7CE
330
6F8
100
AcDbEntity
  8
P-0000
  6
Continuous
 62
     0
100
AcDbLine
 10
-77.50234959180421
 20
-124.055443766988
 30
0.0
 11
-77.50234959180421
 21
-118.6190131723036
 31
0.0
1001
TOP
1070
     7
  0
LINE
  5
7CF
330
6F8
100
AcDbEntity
  8
P-0000
  6
Continuous
 62
     0
100
AcDbLine
 10
-72.47806497115667
 20
-121.7664203586998
 30
0.0
 11
-73.8663541426514
 21
-124.055443766988
 31
0.0
1001
TOP
1070
     7
  0
LINE
  5
7D0
330
6F8
100
AcDbEntity
  8
P-0000
  6
Continuous
 62
     0
100
AcDbLine
 10
-72.47806497115667
 20
-121.7664203586998
 30
0.0
 11
-72.47806497115667
 21
-124.055443766988
 31
0.0
1001
TOP
1070
     7
  0
LINE
  5
7D1
330
6F8
100
AcDbEntity
  8
P-0000
  6
Continuous
 62
     0
100
AcDbLine
 10
-72.47806497115667
 20
-121.7664203586998
 30
0.0
 11
-73.8663541426514
 21
-124.055443766988
 31
0.0
1001
TOP
1070
     7
  0
LINE
  5
7D2
330
6F8
100
AcDbEntity
  8
P-0000
  6
Continuous
 62
     0
100
AcDbLine
 10
-72.47806497115667
 20
-124.055443766988
 30
0.0
 11
-72.47806497115667
 21
-121.7664203586998
 31
0.0
1001
TOP
1070
     7
  0
LINE
  5
7D3
330
6F8
100
AcDbEntity
  8
P-0000
  6
Continuous
 62
     0
100
AcDbLine
 10
-75.2546433141461
 20
-124.055443766988
 30
0.0
 11
-75.2546433141461
 21
-121.7664203586998
 31
0.0
1001
TOP
1070
     7
  0
LINE
  5
7D4
330
6F8
100
AcDbEntity
  8
P-0000
  6
Continuous
 62
     0
100
AcDbLine
 10
-75.2546433141461
 20
-121.7664203586998
 30
0.0
 11
-75.2546433141461
 21
-124.055443766988
 31
0.0
1001
TOP
1070
     7
  0
LINE
  5
7D5
330
6F8
100
AcDbEntity
  8
P-0000
  6
Continuous
 62
     0
100
AcDbLine
 10
-75.2546433141461
 20
-121.7664203586998
 30
0.0
 11
-73.8663541426514
 21
-124.055443766988
 31
0.0
1001
TOP
1070
     7
  0
LINE
  5
7D6
330
6F8
100
AcDbEntity
  8
P-0000
  6
Continuous
 62
     0
100
AcDbLine
 10
-73.8663541426514
 20
-124.055443766988
 30
0.0
 11
-75.2546433141461
 21
-121.7664203586998
 31
0.0
1001
TOP
1070
     7
  0
LINE
  5
7D7
330
6F8
100
AcDbEntity
  8
P-0000
  6
Continuous
 62
     0
100
AcDbLine
 10
-72.47806497115667
 20
-118.6190131723036
 30
0.0
 11
-73.8663541426514
 21
-120.9080365805917
 31
0.0
1001
TOP
1070
     7
  0
LINE
  5
7D8
330
6F8
100
AcDbEntity
  8
P-0000
  6
Continuous
 62
     0
100
AcDbLine
 10
-73.8663541426514
 20
-120.9080365805917
 30
0.0
 11
-72.47806497115667
 21
-118.6190131723036
 31
0.0
1001
TOP
1070
     7
  0
LINE
  5
7D9
330
6F8
100
AcDbEntity
  8
P-0000
  6
Continuous
 62
     0
100
AcDbLine
 10
-75.2546433141461
 20
-118.6190131723036
 30
0.0
 11
-73.8663541426514
 21
-120.9080365805917
 31
0.0
1001
TOP
1070
     7
  0
LINE
  5
7DA
330
6F8
100
AcDbEntity
  8
P-0000
  6
Continuous
 62
     0
100
AcDbLine
 10
-75.2546433141461
 20
-118.6190131723036
 30
0.0
 11
-73.8663541426514
 21
-120.9080365805917
 31
0.0
1001
TOP
1070
     7
  0
ELLIPSE
  5
7DB
330
6F8
100
AcDbEntity
  8
P-0000
  6
Continuous
 62
     0
100
AcDbEllipse
 10
-65.10163245619105
 20
-120.0496528024836
 30
0.0
 11
-0.0000000000000277
 21
1.430639630180138
 31
0.0
210
0.0
220
0.0
230
-1.0
 40
0.9241881291669729
 41
4.077362244994374
 42
6.283185307179586
1001
TOP
1070
     7
  0
LINE
  5
7DC
330
6F8
100
AcDbEntity
  8
P-0000
  6
Continuous
 62
     0
100
AcDbLine
 10
-64.54498399118683
 20
-124.055443766988
 30
0.0
 11
-68.24708844850608
 21
-118.6190131723036
 31
0.0
1001
TOP
1070
     7
  0
LINE
  5
7DD
330
6F8
100
AcDbEntity
  8
P-0000
  6
Continuous
 62
     0
100
AcDbLine
 10
-68.24708844850608
 20
-118.6190131723036
 30
0.0
 11
-64.54498399118683
 21
-124.055443766988
 31
0.0
1001
TOP
1070
     7
  0
ELLIPSE
  5
7DE
330
6F8
100
AcDbEntity
  8
P-0000
  6
Continuous
 62
     0
100
AcDbEllipse
 10
-65.10163245619105
 20
-120.0496528024836
 30
0.0
 11
0.0000000000000073
 21
1.430639630180138
 31
0.0
210
0.0
220
0.0
230
1.0
 40
0.9241881291669608
 41
0.0000000000000056
 42
2.205823062185215
1001
TOP
1070
     7
  0
LINE
  5
7DF
330
6F8
100
AcDbEntity
  8
P-0000
  6
Continuous
 62
     0
100
AcDbLine
 10
-64.01611192585551
 20
-124.055443766988
 30
0.0
 11
-66.16606131471133
 21
-120.8983068549025
 31
0.0
1001
TOP
1070
     7
  0
LINE
  5
7E0
330
6F8
100
AcDbEntity
  8
P-0000
  6
Continuous
 62
     0
100
AcDbLine
 10
-66.16606131471133
 20
-120.8983068549025
 30
0.0
 11
-64.01611192585551
 21
-124.055443766988
 31
0.0
1001
TOP
1070
     7
  0
LINE
  5
7E1
330
6F8
100
AcDbEntity
  8
P-0000
  6
Continuous
 62
     0
100
AcDbLine
 10
-67.42322631086892
 20
-122.4817401737899
 30
0.0
 11
-68.24708844850608
 21
-121.2719230596353
 31
0.0
1001
TOP
1070
     7
  0
LINE
  5
7E2
330
6F8
100
AcDbEntity
  8
P-0000
  6
Continuous
 62
     0
100
AcDbLine
 10
-68.24708844850608
 20
-121.2719230596353
 30
0.0
 11
-67.42322631086892
 21
-122.4817401737899
 31
0.0
1001
TOP
1070
     7
  0
LINE
  5
7E3
330
6F8
100
AcDbEntity
  8
P-0000
  6
Continuous
 62
     0
100
AcDbLine
 10
-69.07095058614323
 20
-122.4817401737899
 30
0.0
 11
-68.24708844850608
 21
-121.2719230596353
 31
0.0
1001
TOP
1070
     7
  0
LINE
  5
7E4
330
6F8
100
AcDbEntity
  8
P-0000
  6
Continuous
 62
     0
100
AcDbLine
 10
-69.07095058614323
 20
-122.4817401737899
 30
0.0
 11
-68.24708844850608
 21
-121.2719230596353
 31
0.0
1001
TOP
1070
     7
  0
LINE
  5
7E5
330
6F8
100
AcDbEntity
  8
P-0000
  6
Continuous
 62
     0
100
AcDbLine
 10
-69.07095058614323
 20
-122.4817401737899
 30
0.0
 11
-67.42322631086892
 21
-122.4817401737899
 31
0.0
1001
TOP
1070
     7
  0
LINE
  5
7E6
330
6F8
100
AcDbEntity
  8
P-0000
  6
Continuous
 62
     0
100
AcDbLine
 10
-67.42322631086892
 20
-122.4817401737899
 30
0.0
 11
-69.07095058614323
 21
-122.4817401737899
 31
0.0
1001
TOP
1070
     7
  0
LINE
  5
7E7
330
6F8
100
AcDbEntity
  8
P-0000
  6
Continuous
 62
     0
100
AcDbLine
 10
-64.01611192585551
 20
-124.055443766988
 30
0.0
 11
-62.44747992382563
 21
-121.7519541961368
 31
0.0
1001
TOP
1070
     7
  0
LINE
  5
7E8
330
6F8
100
AcDbEntity
  8
P-0000
  6
Continuous
 62
     0
100
AcDbLine
 10
-64.01611192585551
 20
-124.055443766988
 30
0.0
 11
-62.44747992382563
 21
-121.7519541961368
 31
0.0
1001
TOP
1070
     7
  0
LINE
  5
7E9
330
6F8
100
AcDbEntity
  8
P-0000
  6
Continuous
 62
     0
100
AcDbLine
 10
-62.44747992382563
 20
-121.7519541961368
 30
0.0
 11
-63.46925566656012
 21
-121.7519541961368
 31
0.0
1001
TOP
1070
     7
  0
LINE
  5
7EA
330
6F8
100
AcDbEntity
  8
P-0000
  6
Continuous
 62
     0
100
AcDbLine
 10
-63.46925566656012
 20
-120.9225027431548
 30
0.0
 11
-61.88263947056615
 21
-120.9225027431548
 31
0.0
1001
TOP
1070
     7
  0
LINE
  5
7EB
330
6F8
100
AcDbEntity
  8
P-0000
  6
Continuous
 62
     0
100
AcDbLine
 10
-62.44747992382563
 20
-121.7519541961368
 30
0.0
 11
-63.46925566656012
 21
-121.7519541961368
 31
0.0
1001
TOP
1070
     7
  0
LINE
  5
7EC
330
6F8
100
AcDbEntity
  8
P-0000
  6
Continuous
 62
     0
100
AcDbLine
 10
-61.88263947056615
 20
-120.9225027431548
 30
0.0
 11
-63.46925566656012
 21
-120.9225027431548
 31
0.0
1001
TOP
1070
     7
  0
ELLIPSE
  5
7ED
330
6F8
100
AcDbEntity
  8
P-0000
  6
Continuous
 62
     0
100
AcDbEllipse
 10
-63.46925566656012
 20
-121.3372284696458
 30
0.0
 11
0.0000000000000016
 21
0.4147257264910956
 31
0.0
210
0.0
220
0.0
230
-1.0
 40
0.9241881291669779
 41
3.141592653589793
 42
6.283185307179586
1001
TOP
1070
     7
  0
ELLIPSE
  5
7EE
330
6F8
100
AcDbEntity
  8
P-0000
  6
Continuous
 62
     0
100
AcDbEllipse
 10
-63.46925566656012
 20
-121.3372284696458
 30
0.0
 11
-0.0000000000000201
 21
0.4147257264910956
 31
0.0
210
0.0
220
0.0
230
1.0
 40
0.9241881291669438
 41
-0.0000000000000524
 42
3.14159265358974
1001
TOP
1070
     7
  0
ELLIPSE
  5
7EF
330
6F8
100
AcDbEntity
  8
P-0000
  6
Continuous
 62
     0
100
AcDbEllipse
 10
-55.55415888055438
 20
-120.3357807285197
 30
0.0
 11
-0.0000000000001066
 21
0.6294814372792618
 31
0.0
210
0.0
220
0.0
230
1.0
 40
0.9241881291669697
 41
3.141592653589633
 42
6.283185307179426
1001
TOP
1070
     7
  0
ELLIPSE
  5
7F0
330
6F8
100
AcDbEntity
  8
P-0000
  6
Continuous
 62
     0
100
AcDbEllipse
 10
-55.55415888055438
 20
-120.3357807285197
 30
0.0
 11
0.0000000000000215
 21
0.6294814372792617
 31
0.0
210
0.0
220
0.0
230
-1.0
 40
0.9241881291669697
 41
0.0
 42
3.141592653589793
1001
TOP
1070
     7
  0
ELLIPSE
  5
7F1
330
6F8
100
AcDbEntity
  8
P-0000
  6
Continuous
 62
     0
100
AcDbEllipse
 10
-55.55415888055438
 20
-120.3357807285197
 30
0.0
 11
0.0000000000000215
 21
1.716767556216168
 31
0.0
210
0.0
220
0.0
230
1.0
 40
0.9241881291669681
 41
3.141592653589806
 42
6.283185307179599
1001
TOP
1070
     7
  0
ELLIPSE
  5
7F2
330
6F8
100
AcDbEntity
  8
P-0000
  6
Continuous
 62
     0
100
AcDbEllipse
 10
-55.55415888055438
 20
-120.3357807285197
 30
0.0
 11
0.0000000000000018
 21
1.716767556216167
 31
0.0
210
0.0
220
0.0
230
-1.0
 40
0.9241881291669688
 41
0.0
 42
3.141592653589793
1001
TOP
1070
     7
  0
LINE
  5
7F3
330
6F8
100
AcDbEntity
  8
P-0000
  6
Continuous
 62
     0
100
AcDbLine
 10
-59.78513540320495
 20
-121.2719230596353
 30
0.0
 11
-58.9612732655678
 21
-122.4817401737899
 31
0.0
1001
TOP
1070
     7
  0
LINE
  5
7F4
330
6F8
100
AcDbEntity
  8
P-0000
  6
Continuous
 62
     0
100
AcDbLine
 10
-58.9612732655678
 20
-122.4817401737899
 30
0.0
 11
-59.78513540320495
 21
-121.2719230596353
 31
0.0
1001
TOP
1070
     7
  0
LINE
  5
7F5
330
6F8
100
AcDbEntity
  8
P-0000
  6
Continuous
 62
     0
100
AcDbLine
 10
-56.08303094588571
 20
-124.055443766988
 30
0.0
 11
-59.78513540320495
 21
-118.6190131723036
 31
0.0
1001
TOP
1070
     7
  0
LINE
  5
7F6
330
6F8
100
AcDbEntity
  8
P-0000
  6
Continuous
 62
     0
100
AcDbLine
 10
-55.55415888055438
 20
-124.055443766988
 30
0.0
 11
-59.25626333787364
 21
-118.6190131723036
 31
0.0
1001
TOP
1070
     7
  0
LINE
  5
7F7
330
6F8
100
AcDbEntity
  8
P-0000
  6
Continuous
 62
     0
100
AcDbLine
 10
-55.55415888055438
 20
-124.055443766988
 30
0.0
 11
-59.25626333787364
 21
-118.6190131723036
 31
0.0
1001
TOP
1070
     7
  0
LINE
  5
7F8
330
6F8
100
AcDbEntity
  8
P-0000
  6
Continuous
 62
     0
100
AcDbLine
 10
-56.08303094588571
 20
-124.055443766988
 30
0.0
 11
-59.78513540320495
 21
-118.6190131723036
 31
0.0
1001
TOP
1070
     7
  0
LINE
  5
7F9
330
6F8
100
AcDbEntity
  8
P-0000
  6
Continuous
 62
     0
100
AcDbLine
 10
-55.55415888055438
 20
-124.055443766988
 30
0.0
 11
-55.55415888055438
 21
-122.0525482847359
 31
0.0
1001
TOP
1070
     7
  0
LINE
  5
7FA
330
6F8
100
AcDbEntity
  8
P-0000
  6
Continuous
 62
     0
100
AcDbLine
 10
-55.55415888055438
 20
-122.0525482847359
 30
0.0
 11
-55.55415888055438
 21
-124.055443766988
 31
0.0
1001
TOP
1070
     7
  0
LINE
  5
7FB
330
6F8
100
AcDbEntity
  8
P-0000
  6
Continuous
 62
     0
100
AcDbLine
 10
-59.25626333787364
 20
-118.6190131723036
 30
0.0
 11
-55.55415888055438
 21
-118.6190131723036
 31
0.0
1001
TOP
1070
     7
  0
LINE
  5
7FC
330
6F8
100
AcDbEntity
  8
P-0000
  6
Continuous
 62
     0
100
AcDbLine
 10
-59.25626333787364
 20
-118.6190131723036
 30
0.0
 11
-55.55415888055438
 21
-118.6190131723036
 31
0.0
1001
TOP
1070
     7
  0
LINE
  5
7FD
330
6F8
100
AcDbEntity
  8
P-0000
  6
Continuous
 62
     0
100
AcDbLine
 10
-55.55415888055438
 20
-119.7062992912404
 30
0.0
 11
-56.41148833382832
 21
-119.7062992912404
 31
0.0
1001
TOP
1070
     7
  0
LINE
  5
7FE
330
6F8
100
AcDbEntity
  8
P-0000
  6
Continuous
 62
     0
100
AcDbLine
 10
-56.41148833382832
 20
-119.7062992912404
 30
0.0
 11
-55.55415888055438
 21
-119.7062992912404
 31
0.0
1001
TOP
1070
     7
  0
LINE
  5
7FF
330
6F8
100
AcDbEntity
  8
P-0000
  6
Continuous
 62
     0
100
AcDbLine
 10
-55.55415888055438
 20
-120.9652621657989
 30
0.0
 11
-56.41148833382832
 21
-119.7062992912404
 31
0.0
1001
TOP
1070
     7
  0
LINE
  5
800
330
6F8
100
AcDbEntity
  8
P-0000
  6
Continuous
 62
     0
100
AcDbLine
 10
-55.55415888055438
 20
-120.9652621657989
 30
0.0
 11
-56.41148833382832
 21
-119.7062992912404
 31
0.0
1001
TOP
1070
     7
  0
LINE
  5
801
330
6F8
100
AcDbEntity
  8
0
 62
     0
 48
35.0
100
AcDbLine
 10
7.000000000000056
 20
142.5
 30
0.0
 11
98.00000000000004
 21
142.5
 31
0.0
1001
TOP
1070
     1
  0
LINE
  5
802
330
6F8
100
AcDbEntity
  8
0
 62
     0
100
AcDbLine
 10
7.000000000000056
 20
143.5
 30
0.0
 11
100.0
 21
143.5
 31
0.0
1001
TOP
1070
   256
  0
ARC
  5
803
330
6F8
100
AcDbEntity
  8
0
 62
     0
 48
35.0
100
AcDbCircle
 10
98.00000000000004
 20
141.5
 30
0.0
 40
1.0
100
AcDbArc
 50
0.0
 51
90.0
1001
TOP
1070
     1
  0
LINE
  5
804
330
6F8
100
AcDbEntity
  8
0
 62
     0
 48
35.0
100
AcDbLine
 10
99.00000000000003
 20
141.5
 30
0.0
 11
99.00000000000005
 21
113.5
 31
0.0
1001
TOP
1070
     1
  0
LINE
  5
805
330
6F8
100
AcDbEntity
  8
0
 62
     0
100
AcDbLine
 10
100.0
 20
143.5
 30
0.0
 11
100.0
 21
113.5
 31
0.0
1001
TOP
1070
   256
  0
ARC
  5
806
330
6F8
100
AcDbEntity
  8
0
 62
     0
 48
35.0
100
AcDbCircle
 10
98.00000000000006
 20
113.5
 30
0.0
 40
1.0
100
AcDbArc
 50
270.0
 51
0.0
1001
TOP
1070
     1
  0
ARC
  5
807
330
6F8
100
AcDbEntity
  8
0
 62
     0
100
AcDbCircle
 10
98.00000000000006
 20
113.5
 30
0.0
 40
2.0
100
AcDbArc
 50
270.0
 51
0.0
1001
TOP
1070
   256
  0
LINE
  5
808
330
6F8
100
AcDbEntity
  8
0
 62
     0
 48
35.0
100
AcDbLine
 10
98.00000000000006
 20
112.5
 30
0.0
 11
7.000000000000056
 21
112.5
 31
0.0
1001
TOP
1070
     1
  0
LINE
  5
809
330
6F8
100
AcDbEntity
  8
0
 62
     0
100
AcDbLine
 10
98.00000000000006
 20
111.4999999999999
 30
0.0
 11
7.000000000000056
 21
111.5
 31
0.0
1001
TOP
1070
   256
  0
ARC
  5
80A
330
6F8
100
AcDbEntity
  8
0
 62
     0
 48
35.0
100
AcDbCircle
 10
7.000000000000056
 20
113.5
 30
0.0
 40
1.0
100
AcDbArc
 50
180.0
 51
270.0
1001
TOP
1070
     1
  0
ARC
  5
80B
330
6F8
100
AcDbEntity
  8
0
 62
     0
100
AcDbCircle
 10
7.000000000000056
 20
113.5
 30
0.0
 40
2.0
100
AcDbArc
 50
180.0
 51
270.0
1001
TOP
1070
   256
  0
LINE
  5
80C
330
6F8
100
AcDbEntity
  8
0
 62
     0
 48
35.0
100
AcDbLine
 10
6.000000000000056
 20
113.5
 30
0.0
 11
6.000000000000056
 21
141.5
 31
0.0
1001
TOP
1070
     1
  0
LINE
  5
80D
330
6F8
100
AcDbEntity
  8
0
 62
     0
100
AcDbLine
 10
5.000000000000056
 20
113.5
 30
0.0
 11
5.000000000000056
 21
141.5
 31
0.0
1001
TOP
1070
   256
  0
ARC
  5
80E
330
6F8
100
AcDbEntity
  8
0
 62
     0
 48
35.0
100
AcDbCircle
 10
7.000000000000056
 20
141.5
 30
0.0
 40
1.0
100
AcDbArc
 50
90.0
 51
180.0
1001
TOP
1070
     1
  0
ARC
  5
80F
330
6F8
100
AcDbEntity
  8
0
 62
     0
100
AcDbCircle
 10
7.000000000000056
 20
141.5
 30
0.0
 40
2.0
100
AcDbArc
 50
90.0
 51
180.0
1001
TOP
1070
   256
  0
MTEXT
  5
810
330
6F8
100
AcDbEntity
  8
0
 62
     0
100
AcDbMText
 10
29.58535811428735
 20
135.6251466847724
 30
0.0
 40
6.0
 41
54.93080742428151
 71
     1
 72
     5
  1
{\fVrinda|b0|i0|c0|p2;BAR CODE\PMontaggio}
 73
     1
 44
1.0
1001
TOP
1070
   256
1001
ACAD
1000
MTEXTBEGIN
1070
    73
1070
     1
1070
    44
1040
1.0
1070
    74
1070
     0
1000
MTEXTEND
  0
ENDBLK
  5
814
330
6F8
100
AcDbEntity
  8
0
 62
     7
100
AcDbBlockEnd
  0
BLOCK
  5
E1E
330
E1D
100
AcDbEntity
  8
0
 62
     3
100
AcDbBlockBegin
  2
*D1
 70
     1
 10
0.0
 20
0.0
 30
0.0
  3
*D1
  1

  0
LINE
  5
EDF
330
E1D
100
AcDbEntity
  8
P-09EB
  6
Continuous
 62
     0
370
    -2
100
AcDbLine
 10
-38.87218901563938
 20
-151.2981302188955
 30
0.0
 11
-38.87218901563939
 21
-346.3248361036358
 31
0.0
  0
LINE
  5
EE0
330
E1D
100
AcDbEntity
  8
P-09EB
  6
Continuous
 62
     0
370
    -2
100
AcDbLine
 10
161.1278109843606
 20
-151.2981302188955
 30
0.0
 11
161.1278109843606
 21
-346.3248361036358
 31
0.0
  0
LINE
  5
EE1
330
E1D
100
AcDbEntity
  8
P-09EB
  6
Continuous
 62
     0
370
    -2
100
AcDbLine
 10
-13.87218901563939
 20
-341.3248361036358
 30
0.0
 11
136.1278109843606
 21
-341.3248361036358
 31
0.0
  0
SOLID
  5
EE2
330
E1D
100
AcDbEntity
  8
P-09EB
  6
Continuous
 62
     0
100
AcDbTrace
 10
-13.87218901563939
 20
-337.1581694369691
 30
0.0
 11
-13.87218901563939
 21
-345.4915027703025
 31
0.0
 12
-38.87218901563939
 22
-341.3248361036358
 32
0.0
 13
-38.87218901563939
 23
-341.3248361036358
 33
0.0
  0
SOLID
  5
EE3
330
E1D
100
AcDbEntity
  8
P-09EB
  6
Continuous
 62
     0
100
AcDbTrace
 10
136.1278109843606
 20
-337.1581694369691
 30
0.0
 11
136.1278109843606
 21
-345.4915027703025
 31
0.0
 12
161.1278109843606
 22
-341.3248361036358
 32
0.0
 13
161.1278109843606
 23
-341.3248361036358
 33
0.0
  0
MTEXT
  5
EE4
330
E1D
100
AcDbEntity
  8
P-09EB
  6
Continuous
 62
     0
100
AcDbMText
 10
61.12781098436061
 20
-319.6343599131596
 30
0.0
 40
25.0
 41
0.0
 71
     5
 72
     1
  1
\A1;Q.20
  7
SIMPLEX
 73
     1
 44
1.0
1001
ACAD
1000
MTEXTBEGIN
1070
    73
1070
     1
1070
    44
1040
1.0
1070
    74
1070
     0
1000
MTEXTEND
  0
POINT
  5
EE5
330
E1D
100
AcDbEntity
  8
Defpoints
  6
Continuous
 62
     0
100
AcDbPoint
 10
-38.87218901563938
 20
-121.2981302188955
 30
0.0
  0
POINT
  5
EE6
330
E1D
100
AcDbEntity
  8
Defpoints
  6
Continuous
 62
     0
100
AcDbPoint
 10
161.1278109843606
 20
-121.2981302188955
 30
0.0
  0
POINT
  5
EE7
330
E1D
100
AcDbEntity
  8
Defpoints
  6
Continuous
 62
     0
100
AcDbPoint
 10
161.1278109843606
 20
-341.3248361036358
 30
0.0
  0
ENDBLK
  5
E1F
330
E1D
100
AcDbEntity
  8
0
 62
     3
100
AcDbBlockEnd
  0
BLOCK
  5
E2A
330
E29
100
AcDbEntity
  8
0
 62
     3
100
AcDbBlockBegin
  2
*D2
 70
     1
 10
0.0
 20
0.0
 30
0.0
  3
*D2
  1

  0
LINE
  5
ED6
330
E29
100
AcDbEntity
  8
P-09EB
  6
Continuous
 62
     0
370
    -2
100
AcDbLine
 10
1.127810984360619
 20
459.1819294025399
 30
0.0
 11
1.127810984360609
 21
294.325226751067
 31
0.0
  0
LINE
  5
ED7
330
E29
100
AcDbEntity
  8
P-09EB
  6
Continuous
 62
     0
370
    -2
100
AcDbLine
 10
121.1278109843606
 20
459.1819294025399
 30
0.0
 11
121.1278109843606
 21
294.325226751067
 31
0.0
  0
LINE
  5
ED8
330
E29
100
AcDbEntity
  8
P-09EB
  6
Continuous
 62
     0
370
    -2
100
AcDbLine
 10
26.12781098436061
 20
299.325226751067
 30
0.0
 11
96.12781098436061
 21
299.325226751067
 31
0.0
  0
SOLID
  5
ED9
330
E29
100
AcDbEntity
  8
P-09EB
  6
Continuous
 62
     0
100
AcDbTrace
 10
26.12781098436061
 20
303.4918934177337
 30
0.0
 11
26.12781098436061
 21
295.1585600844003
 31
0.0
 12
1.12781098436061
 22
299.325226751067
 32
0.0
 13
1.12781098436061
 23
299.325226751067
 33
0.0
  0
SOLID
  5
EDA
330
E29
100
AcDbEntity
  8
P-09EB
  6
Continuous
 62
     0
100
AcDbTrace
 10
96.12781098436061
 20
303.4918934177337
 30
0.0
 11
96.12781098436061
 21
295.1585600844003
 31
0.0
 12
121.1278109843606
 22
299.325226751067
 32
0.0
 13
121.1278109843606
 23
299.325226751067
 33
0.0
  0
MTEXT
  5
EDB
330
E29
100
AcDbEntity
  8
P-09EB
  6
Continuous
 62
     0
100
AcDbMText
 10
61.12781098436061
 20
321.0157029415432
 30
0.0
 40
25.0
 41
0.0
 71
     5
 72
     1
  1
\A1;Q.12
  7
SIMPLEX
 73
     1
 44
1.0
1001
ACAD
1000
MTEXTBEGIN
1070
    73
1070
     1
1070
    44
1040
1.0
1070
    74
1070
     0
1000
MTEXTEND
  0
POINT
  5
EDC
330
E29
100
AcDbEntity
  8
Defpoints
  6
Continuous
 62
     0
100
AcDbPoint
 10
1.127810984360621
 20
489.1819294025399
 30
0.0
  0
POINT
  5
EDD
330
E29
100
AcDbEntity
  8
Defpoints
  6
Continuous
 62
     0
100
AcDbPoint
 10
121.1278109843606
 20
489.1819294025399
 30
0.0
  0
POINT
  5
EDE
330
E29
100
AcDbEntity
  8
Defpoints
  6
Continuous
 62
     0
100
AcDbPoint
 10
121.1278109843606
 20
299.325226751067
 30
0.0
  0
ENDBLK
  5
E2B
330
E29
100
AcDbEntity
  8
0
 62
     3
100
AcDbBlockEnd
  0
BLOCK
  5
E36
330
E35
100
AcDbEntity
  8
0
 62
     3
100
AcDbBlockBegin
  2
*D3
 70
     1
 10
0.0
 20
0.0
 30
0.0
  3
*D3
  1

  0
LINE
  5
ECD
330
E35
100
AcDbEntity
  8
P-09EB
  6
Continuous
 62
     0
370
    -2
100
AcDbLine
 10
-28.87218901563938
 20
489.1819294025399
 30
0.0
 11
-241.5672735010121
 21
489.18192940254
 31
0.0
  0
LINE
  5
ECE
330
E35
100
AcDbEntity
  8
P-09EB
  6
Continuous
 62
     0
370
    -2
100
AcDbLine
 10
-68.87218901563939
 20
599.1819294025399
 30
0.0
 11
-241.5672735010121
 21
599.1819294025399
 31
0.0
  0
LINE
  5
ECF
330
E35
100
AcDbEntity
  8
P-09EB
  6
Continuous
 62
     0
370
    -2
100
AcDbLine
 10
-236.5672735010121
 20
514.1819294025399
 30
0.0
 11
-236.5672735010121
 21
574.1819294025399
 31
0.0
  0
SOLID
  5
ED0
330
E35
100
AcDbEntity
  8
P-09EB
  6
Continuous
 62
     0
100
AcDbTrace
 10
-240.7339401676788
 20
514.1819294025399
 30
0.0
 11
-232.4006068343455
 21
514.1819294025399
 31
0.0
 12
-236.5672735010121
 22
489.18192940254
 32
0.0
 13
-236.5672735010121
 23
489.18192940254
 33
0.0
  0
SOLID
  5
ED1
330
E35
100
AcDbEntity
  8
P-09EB
  6
Continuous
 62
     0
100
AcDbTrace
 10
-240.7339401676788
 20
574.1819294025399
 30
0.0
 11
-232.4006068343455
 21
574.1819294025399
 31
0.0
 12
-236.5672735010121
 22
599.1819294025399
 32
0.0
 13
-236.5672735010121
 23
599.1819294025399
 33
0.0
  0
MTEXT
  5
ED2
330
E35
100
AcDbEntity
  8
P-09EB
  6
Continuous
 62
     0
100
AcDbMText
 10
-257.0672735010122
 20
544.1819294025399
 30
0.0
 40
25.0
 41
0.0
 71
     5
 72
     1
  1
\A1;11
  7
SIMPLEX
 11
0.0000000000000001
 21
1.0
 31
0.0
 73
     1
 44
1.0
1001
ACAD
1000
MTEXTBEGIN
1070
    73
1070
     1
1070
    44
1040
1.0
1070
    74
1070
     0
1000
MTEXTEND
  0
POINT
  5
ED3
330
E35
100
AcDbEntity
  8
Defpoints
  6
Continuous
 62
     0
100
AcDbPoint
 10
1.127810984360621
 20
489.1819294025399
 30
0.0
  0
POINT
  5
ED4
330
E35
100
AcDbEntity
  8
Defpoints
  6
Continuous
 62
     0
100
AcDbPoint
 10
-38.87218901563938
 20
599.1819294025399
 30
0.0
  0
POINT
  5
ED5
330
E35
100
AcDbEntity
  8
Defpoints
  6
Continuous
 62
     0
100
AcDbPoint
 10
-236.5672735010121
 20
599.1819294025399
 30
0.0
  0
ENDBLK
  5
E37
330
E35
100
AcDbEntity
  8
0
 62
     3
100
AcDbBlockEnd
  0
BLOCK
  5
E42
330
E41
100
AcDbEntity
  8
0
 62
     3
100
AcDbBlockBegin
  2
*D4
 70
     1
 10
0.0
 20
0.0
 30
0.0
  3
*D4
  1

  0
LINE
  5
EC2
330
E41
100
AcDbEntity
  8
P-09EB
  6
Continuous
 62
     0
370
    -2
100
AcDbLine
 10
-68.87218901563939
 20
599.1819294025399
 30
0.0
 11
-241.5672735010121
 21
599.1819294025399
 31
0.0
  0
LINE
  5
EC3
330
E41
100
AcDbEntity
  8
P-09EB
  6
Continuous
 62
     0
370
    -2
100
AcDbLine
 10
-58.87218901563961
 20
649.1819294025394
 30
0.0
 11
-241.5672735010121
 21
649.1819294025394
 31
0.0
  0
LINE
  5
EC4
330
E41
100
AcDbEntity
  8
P-09EB
  6
Continuous
 62
     0
370
    -2
100
AcDbLine
 10
-236.5672735010121
 20
574.1819294025399
 30
0.0
 11
-236.5672735010121
 21
549.1819294025399
 31
0.0
  0
LINE
  5
EC5
330
E41
100
AcDbEntity
  8
P-09EB
  6
Continuous
 62
     0
370
    -2
100
AcDbLine
 10
-236.5672735010121
 20
674.1819294025394
 30
0.0
 11
-236.5672735010121
 21
699.1819294025394
 31
0.0
  0
LINE
  5
EC6
330
E41
100
AcDbEntity
  8
P-09EB
  6
Continuous
 62
     0
370
    -2
100
AcDbLine
 10
-236.5672735010121
 20
599.1819294025399
 30
0.0
 11
-236.5672735010121
 21
649.1819294025394
 31
0.0
  0
SOLID
  5
EC7
330
E41
100
AcDbEntity
  8
P-09EB
  6
Continuous
 62
     0
100
AcDbTrace
 10
-240.7339401676788
 20
574.1819294025399
 30
0.0
 11
-232.4006068343455
 21
574.1819294025399
 31
0.0
 12
-236.5672735010121
 22
599.1819294025399
 32
0.0
 13
-236.5672735010121
 23
599.1819294025399
 33
0.0
  0
SOLID
  5
EC8
330
E41
100
AcDbEntity
  8
P-09EB
  6
Continuous
 62
     0
100
AcDbTrace
 10
-240.7339401676788
 20
674.1819294025394
 30
0.0
 11
-232.4006068343454
 21
674.1819294025394
 31
0.0
 12
-236.5672735010121
 22
649.1819294025394
 32
0.0
 13
-236.5672735010121
 23
649.1819294025394
 33
0.0
  0
MTEXT
  5
EC9
330
E41
100
AcDbEntity
  8
P-09EB
  6
Continuous
 62
     0
100
AcDbMText
 10
-257.0672735010122
 20
624.1819294025397
 30
0.0
 40
25.0
 41
0.0
 71
     5
 72
     1
  1
\A1;5
  7
SIMPLEX
 11
0.0000000000000001
 21
1.0
 31
0.0
 73
     1
 44
1.0
1001
ACAD
1000
MTEXTBEGIN
1070
    73
1070
     1
1070
    44
1040
1.0
1070
    74
1070
     0
1000
MTEXTEND
  0
POINT
  5
ECA
330
E41
100
AcDbEntity
  8
Defpoints
  6
Continuous
 62
     0
100
AcDbPoint
 10
-38.87218901563938
 20
599.1819294025399
 30
0.0
  0
POINT
  5
ECB
330
E41
100
AcDbEntity
  8
Defpoints
  6
Continuous
 62
     0
100
AcDbPoint
 10
-28.87218901563961
 20
649.1819294025394
 30
0.0
  0
POINT
  5
ECC
330
E41
100
AcDbEntity
  8
Defpoints
  6
Continuous
 62
     0
100
AcDbPoint
 10
-236.5672735010121
 20
649.1819294025394
 30
0.0
  0
ENDBLK
  5
E43
330
E41
100
AcDbEntity
  8
0
 62
     3
100
AcDbBlockEnd
  0
BLOCK
  5
E50
330
E4F
100
AcDbEntity
  8
0
 62
     3
100
AcDbBlockBegin
  2
*D5
 70
     1
 10
0.0
 20
0.0
 30
0.0
  3
*D5
  1

  0
LINE
  5
EB9
330
E4F
100
AcDbEntity
  8
P-09EB
  6
Continuous
 62
     0
370
    -2
100
AcDbLine
 10
-58.87218901563961
 20
649.1819294025394
 30
0.0
 11
-299.4598331913091
 21
649.1819294025396
 31
0.0
  0
LINE
  5
EBA
330
E4F
100
AcDbEntity
  8
P-09EB
  6
Continuous
 62
     0
370
    -2
100
AcDbLine
 10
-28.87218901563938
 20
489.1819294025399
 30
0.0
 11
-299.4598331913092
 21
489.18192940254
 31
0.0
  0
LINE
  5
EBB
330
E4F
100
AcDbEntity
  8
P-09EB
  6
Continuous
 62
     0
370
    -2
100
AcDbLine
 10
-294.4598331913091
 20
624.1819294025396
 30
0.0
 11
-294.4598331913091
 21
514.18192940254
 31
0.0
  0
SOLID
  5
EBC
330
E4F
100
AcDbEntity
  8
P-09EB
  6
Continuous
 62
     0
100
AcDbTrace
 10
-298.6264998579758
 20
624.1819294025396
 30
0.0
 11
-290.2931665246425
 21
624.1819294025396
 31
0.0
 12
-294.4598331913091
 22
649.1819294025396
 32
0.0
 13
-294.4598331913091
 23
649.1819294025396
 33
0.0
  0
SOLID
  5
EBD
330
E4F
100
AcDbEntity
  8
P-09EB
  6
Continuous
 62
     0
100
AcDbTrace
 10
-298.6264998579758
 20
514.18192940254
 30
0.0
 11
-290.2931665246425
 21
514.18192940254
 31
0.0
 12
-294.4598331913091
 22
489.18192940254
 32
0.0
 13
-294.4598331913091
 23
489.18192940254
 33
0.0
  0
MTEXT
  5
EBE
330
E4F
100
AcDbEntity
  8
P-09EB
  6
Continuous
 62
     0
100
AcDbMText
 10
-314.9598331913092
 20
569.1819294025397
 30
0.0
 40
25.0
 41
0.0
 71
     5
 72
     1
  1
\A1;16
  7
SIMPLEX
 11
0.0000000000000001
 21
1.0
 31
0.0
 73
     1
 44
1.0
1001
ACAD
1000
MTEXTBEGIN
1070
    73
1070
     1
1070
    44
1040
1.0
1070
    74
1070
     0
1000
MTEXTEND
  0
POINT
  5
EBF
330
E4F
100
AcDbEntity
  8
Defpoints
  6
Continuous
 62
     0
100
AcDbPoint
 10
-28.87218901563961
 20
649.1819294025394
 30
0.0
  0
POINT
  5
EC0
330
E4F
100
AcDbEntity
  8
Defpoints
  6
Continuous
 62
     0
100
AcDbPoint
 10
1.127810984360621
 20
489.1819294025399
 30
0.0
  0
POINT
  5
EC1
330
E4F
100
AcDbEntity
  8
Defpoints
  6
Continuous
 62
     0
100
AcDbPoint
 10
-294.4598331913091
 20
489.18192940254
 30
0.0
  0
ENDBLK
  5
E51
330
E4F
100
AcDbEntity
  8
0
 62
     3
100
AcDbBlockEnd
  0
BLOCK
  5
F21
330
F20
100
AcDbEntity
  8
0
 62
     7
100
AcDbBlockBegin
  2
*D6
 70
     1
 10
0.0
 20
0.0
 30
0.0
  3
*D6
  1

  0
LINE
  5
F2D
330
F20
100
AcDbEntity
  8
P-0000
  6
Continuous
 62
     2
370
    -2
100
AcDbLine
 10
-38.87218901563961
 20
649.1819294025394
 30
0.0
 11
-467.4250384640417
 21
649.1819294025396
 31
0.0
  0
LINE
  5
F2E
330
F20
100
AcDbEntity
  8
P-0000
  6
Continuous
 62
     2
370
    -2
100
AcDbLine
 10
-38.87218901563964
 20
489.1819294025399
 30
0.0
 11
-467.4250384640417
 21
489.18192940254
 31
0.0
  0
LINE
  5
F2F
330
F20
100
AcDbEntity
  8
P-0000
  6
Continuous
 62
     2
370
    -2
100
AcDbLine
 10
-452.4250384640417
 20
629.1819294025396
 30
0.0
 11
-452.4250384640417
 21
509.18192940254
 31
0.0
  0
SOLID
  5
F30
330
F20
100
AcDbEntity
  8
P-0000
  6
Continuous
 62
     2
100
AcDbTrace
 10
-455.758371797375
 20
629.1819294025396
 30
0.0
 11
-449.0917051307085
 21
629.1819294025396
 31
0.0
 12
-452.4250384640417
 22
649.1819294025396
 32
0.0
 13
-452.4250384640417
 23
649.1819294025396
 33
0.0
  0
SOLID
  5
F31
330
F20
100
AcDbEntity
  8
P-0000
  6
Continuous
 62
     2
100
AcDbTrace
 10
-455.758371797375
 20
509.18192940254
 30
0.0
 11
-449.0917051307085
 21
509.18192940254
 31
0.0
 12
-452.4250384640417
 22
489.18192940254
 32
0.0
 13
-452.4250384640417
 23
489.18192940254
 33
0.0
  0
MTEXT
  5
F32
330
F20
100
AcDbEntity
  8
P-0000
  6
Continuous
 62
     1
100
AcDbMText
 10
-472.6509859859077
 20
569.1819294025397
 30
0.0
 40
20.0
 41
0.0
 71
     5
 72
     1
  1
\A1;160
  7
Stile_Quota
 11
0.0000000000000001
 21
1.0
 31
0.0
 73
     1
 44
1.0
1001
ACAD
1000
MTEXTBEGIN
1070
    73
1070
     1
1070
    44
1040
1.0
1070
    74
1070
     0
1000
MTEXTEND
  0
POINT
  5
F33
330
F20
100
AcDbEntity
  8
Defpoints
  6
Continuous
 62
     0
100
AcDbPoint
 10
-28.87218901563961
 20
649.1819294025394
 30
0.0
  0
POINT
  5
F34
330
F20
100
AcDbEntity
  8
Defpoints
  6
Continuous
 62
     0
100
AcDbPoint
 10
-28.87218901563964
 20
489.1819294025399
 30
0.0
  0
POINT
  5
F35
330
F20
100
AcDbEntity
  8
Defpoints
  6
Continuous
 62
     0
100
AcDbPoint
 10
-452.4250384640417
 20
489.18192940254
 30
0.0
  0
ENDBLK
  5
F22
330
F20
100
AcDbEntity
  8
0
 62
     7
100
AcDbBlockEnd
  0
ENDSEC
  0
SECTION
  2
ENTITIES
  0
LINE
  5
DD3
330
2
100
AcDbEntity
  8
P-09EB
  6
Continuous
 62
   144
100
AcDbLine
 10
-38.87218901563938
 20
599.1819294025399
 30
0.0
 11
61.12781098436062
 21
599.1819294025399
 31
0.0
1001
TOP
1070
     7
  0
LINE
  5
DD4
102
{ACAD_REACTORS
330
E15
102
}
330
2
100
AcDbEntity
  8
P-09EB
  6
Continuous
 62
   144
100
AcDbLine
 10
161.1278109843606
 20
599.1819294025399
 30
0.0
 11
161.1278109843606
 21
639.1819294025395
 31
0.0
1001
TOP
1070
     7
  0
LINE
  5
DD5
102
{ACAD_REACTORS
330
E15
102
}
330
2
100
AcDbEntity
  8
P-09EB
  6
Continuous
 62
   144
100
AcDbLine
 10
151.1278109843606
 20
649.1819294025394
 30
0.0
 11
-28.87218901563961
 21
649.1819294025394
 31
0.0
1001
TOP
1070
     7
  0
LINE
  5
DD6
330
2
100
AcDbEntity
  8
P-09EB
  6
Continuous
 62
   144
100
AcDbLine
 10
-38.87218901563961
 20
639.1819294025395
 30
0.0
 11
-38.87218901563938
 21
599.1819294025399
 31
0.0
1001
TOP
1070
     7
  0
LINE
  5
DD7
102
{ACAD_REACTORS
330
E15
102
}
330
2
100
AcDbEntity
  8
P-09EB
  6
ASSI
 62
   144
100
AcDbLine
 10
61.12781098436062
 20
691.5051869512462
 30
0.0
 11
61.12781098436062
 21
350.6306009105119
 31
0.0
1001
TOP
1070
     2
  0
LINE
  5
DD8
102
{ACAD_REACTORS
330
E15
102
}
330
2
100
AcDbEntity
  8
P-09EB
  6
Continuous
 62
   144
100
AcDbLine
 10
121.1278109843606
 20
599.1819294025399
 30
0.0
 11
121.1278109843606
 21
579.1819294025399
 31
0.0
1001
TOP
1070
     7
  0
LINE
  5
DD9
330
2
100
AcDbEntity
  8
P-09EB
  6
Continuous
 62
   144
100
AcDbLine
 10
1.127810984360621
 20
599.1819294025399
 30
0.0
 11
1.127810984360621
 21
579.1819294025399
 31
0.0
1001
TOP
1070
     7
  0
ARC
  5
DDA
330
2
100
AcDbEntity
  8
P-09EB
  6
Continuous
 62
   144
100
AcDbCircle
 10
-28.87218901563961
 20
639.1819294025395
 30
0.0
 40
10.0
100
AcDbArc
 50
90.0
 51
180.0
1001
TOP
1070
     7
  0
ARC
  5
DDB
102
{ACAD_REACTORS
330
E15
102
}
330
2
100
AcDbEntity
  8
P-09EB
  6
Continuous
 62
   144
100
AcDbCircle
 10
151.1278109843606
 20
639.1819294025395
 30
0.0
 40
10.0
100
AcDbArc
 50
0.0
 51
90.0
1001
TOP
1070
     7
  0
LINE
  5
DDC
330
2
100
AcDbEntity
  8
P-09EB
  6
Continuous
 62
   144
100
AcDbLine
 10
1.127810984360621
 20
489.1819294025399
 30
0.0
 11
61.12781098436062
 21
489.1819294025399
 31
0.0
1001
TOP
1070
     7
  0
LINE
  5
DDD
330
2
100
AcDbEntity
  8
P-09EB
  6
Continuous
 62
   144
100
AcDbLine
 10
-28.87218901563915
 20
579.1819294025399
 30
0.0
 11
61.12781098436062
 21
579.1819294025394
 31
0.0
1001
TOP
1070
     7
  0
LINE
  5
DDE
330
2
100
AcDbEntity
  8
P-09EB
  6
Continuous
 62
   144
100
AcDbLine
 10
1.127810984361076
 20
559.1819294025399
 30
0.0
 11
61.12781098436062
 21
559.1819294025395
 31
0.0
1001
TOP
1070
     7
  0
LINE
  5
DDF
330
2
100
AcDbEntity
  8
P-09EB
  6
Continuous
 62
   144
100
AcDbLine
 10
-28.87218901563938
 20
549.1819294025399
 30
0.0
 11
61.12781098436062
 21
549.1819294025399
 31
0.0
1001
TOP
1070
     7
  0
LINE
  5
DE0
330
2
100
AcDbEntity
  8
P-09EB
  6
Continuous
 62
   144
100
AcDbLine
 10
1.127810984360166
 20
529.1819294025399
 30
0.0
 11
61.12781098436062
 21
529.1819294025399
 31
0.0
1001
TOP
1070
     7
  0
LINE
  5
DE1
330
2
100
AcDbEntity
  8
P-09EB
  6
Continuous
 62
   144
100
AcDbLine
 10
-28.87218901563961
 20
519.1819294025399
 30
0.0
 11
61.12781098436062
 21
519.1819294025399
 31
0.0
1001
TOP
1070
     7
  0
LINE
  5
DE2
330
2
100
AcDbEntity
  8
P-09EB
  6
Continuous
 62
   144
100
AcDbLine
 10
1.127810984360621
 20
499.1819294025399
 30
0.0
 11
61.12781098436062
 21
499.1819294025394
 31
0.0
1001
TOP
1070
     7
  0
LINE
  5
DE3
102
{ACAD_REACTORS
330
E15
102
}
330
2
100
AcDbEntity
  8
P-09EB
  6
Continuous
 62
   144
100
AcDbLine
 10
121.1278109843606
 20
499.1819294025399
 30
0.0
 11
151.1278109843601
 21
519.1819294025399
 31
0.0
1001
TOP
1070
     7
  0
LINE
  5
DE4
102
{ACAD_REACTORS
330
E15
102
}
330
2
100
AcDbEntity
  8
P-09EB
  6
Continuous
 62
   144
100
AcDbLine
 10
121.1278109843606
 20
529.1819294025399
 30
0.0
 11
151.127810984361
 21
549.1819294025399
 31
0.0
1001
TOP
1070
     7
  0
LINE
  5
DE5
102
{ACAD_REACTORS
330
E15
102
}
330
2
100
AcDbEntity
  8
P-09EB
  6
Continuous
 62
   144
100
AcDbLine
 10
121.1278109843606
 20
559.1819294025399
 30
0.0
 11
151.1278109843601
 21
579.1819294025399
 31
0.0
1001
TOP
1070
     7
  0
LINE
  5
DE6
330
2
100
AcDbEntity
  8
P-09EB
  6
Continuous
 62
   144
100
AcDbLine
 10
1.127810984360394
 20
499.1819294025399
 30
0.0
 11
-28.87218901563961
 21
519.1819294025399
 31
0.0
1001
TOP
1070
     7
  0
LINE
  5
DE7
330
2
100
AcDbEntity
  8
P-09EB
  6
Continuous
 62
   144
100
AcDbLine
 10
1.127810984360394
 20
529.1819294025399
 30
0.0
 11
-28.87218901563938
 21
549.1819294025399
 31
0.0
1001
TOP
1070
     7
  0
LINE
  5
DE8
330
2
100
AcDbEntity
  8
P-09EB
  6
Continuous
 62
   144
100
AcDbLine
 10
1.127810984360621
 20
559.1819294025399
 30
0.0
 11
-28.87218901563915
 21
579.1819294025399
 31
0.0
1001
TOP
1070
     7
  0
LINE
  5
DE9
330
2
100
AcDbEntity
  8
P-09EB
  6
Continuous
 62
   144
100
AcDbLine
 10
1.127810984360621
 20
559.1819294025399
 30
0.0
 11
1.127810984360849
 21
549.1819294025394
 31
0.0
1001
TOP
1070
     7
  0
LINE
  5
DEA
102
{ACAD_REACTORS
330
E15
102
}
330
2
100
AcDbEntity
  8
P-09EB
  6
Continuous
 62
   144
100
AcDbLine
 10
121.1278109843606
 20
559.1819294025399
 30
0.0
 11
121.1278109843606
 21
549.1819294025394
 31
0.0
1001
TOP
1070
     7
  0
LINE
  5
DEB
102
{ACAD_REACTORS
330
E15
102
}
330
2
100
AcDbEntity
  8
P-09EB
  6
Continuous
 62
   144
100
AcDbLine
 10
121.1278109843606
 20
529.1819294025399
 30
0.0
 11
121.1278109843606
 21
519.1819294025399
 31
0.0
1001
TOP
1070
     7
  0
LINE
  5
DEC
330
2
100
AcDbEntity
  8
P-09EB
  6
Continuous
 62
   144
100
AcDbLine
 10
1.127810984360621
 20
529.1819294025399
 30
0.0
 11
1.127810984360621
 21
519.1819294025399
 31
0.0
1001
TOP
1070
     7
  0
LINE
  5
DED
330
2
100
AcDbEntity
  8
P-09EB
  6
Continuous
 62
   144
100
AcDbLine
 10
1.127810984360621
 20
499.1819294025394
 30
0.0
 11
1.127810984360621
 21
489.1819294025399
 31
0.0
1001
TOP
1070
     7
  0
LINE
  5
DEE
102
{ACAD_REACTORS
330
E15
102
}
330
2
100
AcDbEntity
  8
P-09EB
  6
Continuous
 62
   144
100
AcDbLine
 10
121.1278109843606
 20
499.1819294025399
 30
0.0
 11
121.1278109843606
 21
489.1819294025399
 31
0.0
1001
TOP
1070
     7
  0
LINE
  5
DEF
102
{ACAD_REACTORS
330
E15
102
}
330
2
100
AcDbEntity
  8
P-09EB
  6
Continuous
 62
   144
100
AcDbLine
 10
61.12781098436062
 20
489.1819294025399
 30
0.0
 11
121.1278109843606
 21
489.1819294025399
 31
0.0
1001
TOP
1070
     7
  0
LINE
  5
DF0
102
{ACAD_REACTORS
330
E15
102
}
330
2
100
AcDbEntity
  8
P-09EB
  6
Continuous
 62
   144
100
AcDbLine
 10
121.1278109843606
 20
519.1819294025399
 30
0.0
 11
151.1278109843601
 21
519.1819294025399
 31
0.0
1001
TOP
1070
     7
  0
LINE
  5
DF1
102
{ACAD_REACTORS
330
E15
102
}
330
2
100
AcDbEntity
  8
P-09EB
  6
Continuous
 62
   144
100
AcDbLine
 10
151.127810984361
 20
549.1819294025399
 30
0.0
 11
121.1278109843606
 21
549.1819294025394
 31
0.0
1001
TOP
1070
     7
  0
LINE
  5
DF2
102
{ACAD_REACTORS
330
E15
102
}
330
2
100
AcDbEntity
  8
P-09EB
  6
Continuous
 62
   144
100
AcDbLine
 10
121.1278109843606
 20
579.1819294025399
 30
0.0
 11
151.1278109843601
 21
579.1819294025399
 31
0.0
1001
TOP
1070
     7
  0
LINE
  5
DF3
102
{ACAD_REACTORS
330
E15
102
}
330
2
100
AcDbEntity
  8
P-09EB
  6
Continuous
 62
   144
100
AcDbLine
 10
68.62781098436062
 20
629.1819294025404
 30
0.0
 11
68.62781098436062
 21
489.1819294025399
 31
0.0
1001
TOP
1070
     7
  0
LINE
  5
DF4
102
{ACAD_REACTORS
330
E15
102
}
330
2
100
AcDbEntity
  8
P-09EB
  6
Continuous
 62
   144
100
AcDbLine
 10
68.62781098436062
 20
629.1819294025404
 30
0.0
 11
111.1278109843606
 21
629.1819294025399
 31
0.0
1001
TOP
1070
     7
  0
LINE
  5
DF5
102
{ACAD_REACTORS
330
E15
102
}
330
2
100
AcDbEntity
  8
P-09EB
  6
Continuous
 62
   144
100
AcDbLine
 10
111.1278109843606
 20
629.1819294025399
 30
0.0
 11
111.1278109843606
 21
489.1819294025403
 31
0.0
1001
TOP
1070
     7
  0
LINE
  5
DF6
102
{ACAD_REACTORS
330
E15
102
}
330
2
100
AcDbEntity
  8
P-09EB
  6
Continuous
 62
   144
100
AcDbLine
 10
121.1278109843606
 20
599.1819294025394
 30
0.0
 11
161.1278109843606
 21
599.1819294025399
 31
0.0
1001
TOP
1070
     7
  0
LINE
  5
DF7
330
2
100
AcDbEntity
  8
P-09EB
  6
Continuous
 62
   144
100
AcDbLine
 10
161.1278109843606
 20
28.70186978110473
 30
0.0
 11
161.1278109843606
 21
-121.2981302188955
 31
0.0
1001
TOP
1070
     7
  0
LINE
  5
DF8
330
2
100
AcDbEntity
  8
P-09EB
  6
Continuous
 62
   144
100
AcDbLine
 10
-38.87218901563915
 20
28.70186978110451
 30
0.0
 11
-38.87218901563938
 21
-121.2981302188955
 31
0.0
1001
TOP
1070
     7
  0
LINE
  5
DF9
330
2
100
AcDbEntity
  8
P-09EB
  6
Continuous
 62
   144
100
AcDbLine
 10
-13.87218901563915
 20
53.7018697811045
 30
0.0
 11
136.1278109843606
 21
53.70186978110473
 31
0.0
1001
TOP
1070
     7
  0
LINE
  5
DFA
330
2
100
AcDbEntity
  8
P-09EB
  6
Continuous
 62
   144
100
AcDbLine
 10
-13.87218901563938
 20
-146.2981302188955
 30
0.0
 11
136.1278109843606
 21
-146.2981302188955
 31
0.0
1001
TOP
1070
     7
  0
ARC
  5
DFB
330
2
100
AcDbEntity
  8
P-09EB
  6
Continuous
 62
   144
100
AcDbCircle
 10
-13.87218901563938
 20
-121.2981302188955
 30
0.0
 40
25.0
100
AcDbArc
 50
180.0
 51
270.0
1001
TOP
1070
     7
  0
ARC
  5
DFC
330
2
100
AcDbEntity
  8
P-09EB
  6
Continuous
 62
   144
100
AcDbCircle
 10
-13.87218901563915
 20
28.70186978110451
 30
0.0
 40
25.0
100
AcDbArc
 50
90.0
 51
180.0
1001
TOP
1070
     7
  0
ARC
  5
DFD
330
2
100
AcDbEntity
  8
P-09EB
  6
Continuous
 62
   144
100
AcDbCircle
 10
136.1278109843606
 20
28.70186978110473
 30
0.0
 40
25.0
100
AcDbArc
 50
0.0
 51
90.0
1001
TOP
1070
     7
  0
ARC
  5
DFE
330
2
100
AcDbEntity
  8
P-09EB
  6
Continuous
 62
   144
100
AcDbCircle
 10
136.1278109843606
 20
-121.2981302188955
 30
0.0
 40
25.0
100
AcDbArc
 50
270.0
 51
0.0
1001
TOP
1070
     7
  0
LINE
  5
DFF
330
2
100
AcDbEntity
  8
P-09EB
  6
DASHED
 62
   144
100
AcDbLine
 10
1.127810984360849
 20
8.701869781104505
 30
0.0
 11
1.127810984360849
 21
-101.2981302188955
 31
0.0
1001
TOP
1070
     3
  0
LINE
  5
E00
330
2
100
AcDbEntity
  8
P-09EB
  6
DASHED
 62
   144
100
AcDbLine
 10
121.1278109843606
 20
8.701869781104278
 30
0.0
 11
121.1278109843606
 21
-101.2981302188957
 31
0.0
1001
TOP
1070
     3
  0
LINE
  5
E01
330
2
100
AcDbEntity
  8
P-09EB
  6
ASSI
 62
   144
100
AcDbLine
 10
280.0299513091504
 20
-46.29813021889549
 30
0.0
 11
-144.1015743505613
 21
-46.29813021889549
 31
0.0
1001
TOP
1070
     2
  0
LINE
  5
E02
330
2
100
AcDbEntity
  8
P-09EB
  6
DASHED
 62
   144
100
AcDbLine
 10
116.1278109843606
 20
13.70186978110428
 30
0.0
 11
6.127810984360849
 21
13.7018697811045
 31
0.0
1001
TOP
1070
     3
  0
LINE
  5
E03
330
2
100
AcDbEntity
  8
P-09EB
  6
DASHED
 62
   144
100
AcDbLine
 10
116.1278109843606
 20
-106.2981302188957
 30
0.0
 11
6.127810984360849
 21
-106.2981302188955
 31
0.0
1001
TOP
1070
     3
  0
ARC
  5
E04
330
2
100
AcDbEntity
  8
P-09EB
  6
DASHED
 62
   144
100
AcDbCircle
 10
6.127810984360849
 20
-101.2981302188955
 30
0.0
 40
5.0
100
AcDbArc
 50
180.0
 51
270.0
1001
TOP
1070
     3
  0
ARC
  5
E05
330
2
100
AcDbEntity
  8
P-09EB
  6
DASHED
 62
   144
100
AcDbCircle
 10
6.127810984360849
 20
8.701869781104505
 30
0.0
 40
5.0
100
AcDbArc
 50
90.0
 51
180.0
1001
TOP
1070
     3
  0
ARC
  5
E06
330
2
100
AcDbEntity
  8
P-09EB
  6
DASHED
 62
   144
100
AcDbCircle
 10
116.1278109843606
 20
8.701869781104278
 30
0.0
 40
5.0
100
AcDbArc
 50
0.0
 51
90.0
1001
TOP
1070
     3
  0
ARC
  5
E07
330
2
100
AcDbEntity
  8
P-09EB
  6
DASHED
 62
   144
100
AcDbCircle
 10
116.1278109843606
 20
-101.2981302188957
 30
0.0
 40
5.0
100
AcDbArc
 50
270.0
 51
0.0
1001
TOP
1070
     3
  0
LINE
  5
E08
330
2
100
AcDbEntity
  8
P-09EB
  6
DASHED
 62
   144
100
AcDbLine
 10
111.1278109843606
 20
3.701869781104051
 30
0.0
 11
111.1278109843606
 21
-96.2981302188955
 31
0.0
1001
TOP
1070
     3
  0
LINE
  5
E09
330
2
100
AcDbEntity
  8
P-09EB
  6
DASHED
 62
   144
100
AcDbLine
 10
111.1278109843606
 20
3.701869781104051
 30
0.0
 11
11.12781098436085
 21
3.70186978110496
 31
0.0
1001
TOP
1070
     3
  0
LINE
  5
E0A
330
2
100
AcDbEntity
  8
P-09EB
  6
DASHED
 62
   144
100
AcDbLine
 10
11.12781098436085
 20
3.70186978110496
 30
0.0
 11
11.12781098436085
 21
-96.2981302188955
 31
0.0
1001
TOP
1070
     3
  0
LINE
  5
E0B
330
2
100
AcDbEntity
  8
P-09EB
  6
DASHED
 62
   144
100
AcDbLine
 10
111.1278109843606
 20
-96.2981302188955
 30
0.0
 11
11.12781098436085
 21
-96.2981302188955
 31
0.0
1001
TOP
1070
     3
  0
LINE
  5
E0C
330
2
100
AcDbEntity
  8
P-09EB
  6
ASSI
 62
   144
100
AcDbLine
 10
61.12781098436062
 20
112.8886525036387
 30
0.0
 11
61.12781098436062
 21
-209.641252483706
 31
0.0
1001
TOP
1070
     2
  0
LINE
  5
E0D
330
2
100
AcDbEntity
  8
P-09EB
  6
DASHED
 62
   144
100
AcDbLine
 10
68.62781098436062
 20
3.701869781104278
 30
0.0
 11
68.62781098436039
 21
-38.7981302188955
 31
0.0
1001
TOP
1070
     3
  0
LINE
  5
E0E
330
2
100
AcDbEntity
  8
P-09EB
  6
DASHED
 62
   144
100
AcDbLine
 10
53.62781098436062
 20
3.701869781104505
 30
0.0
 11
53.62781098436062
 21
-38.7981302188955
 31
0.0
1001
TOP
1070
     3
  0
LINE
  5
E0F
330
2
100
AcDbEntity
  8
P-09EB
  6
DASHED
 62
   144
100
AcDbLine
 10
111.1278109843606
 20
-38.79813021889527
 30
0.0
 11
68.62781098436062
 21
-38.79813021889527
 31
0.0
1001
TOP
1070
     3
  0
LINE
  5
E10
330
2
100
AcDbEntity
  8
P-09EB
  6
DASHED
 62
   144
100
AcDbLine
 10
111.1278109843606
 20
-53.79813021889527
 30
0.0
 11
68.62781098436039
 21
-53.7981302188955
 31
0.0
1001
TOP
1070
     3
  0
LINE
  5
E11
330
2
100
AcDbEntity
  8
P-09EB
  6
DASHED
 62
   144
100
AcDbLine
 10
53.62781098436039
 20
-38.79813021889572
 30
0.0
 11
11.12781098436085
 21
-38.79813021889572
 31
0.0
1001
TOP
1070
     3
  0
LINE
  5
E12
330
2
100
AcDbEntity
  8
P-09EB
  6
DASHED
 62
   144
100
AcDbLine
 10
68.62781098436039
 20
-53.7981302188955
 30
0.0
 11
68.62781098436039
 21
-96.2981302188955
 31
0.0
1001
TOP
1070
     3
  0
LINE
  5
E13
330
2
100
AcDbEntity
  8
P-09EB
  6
DASHED
 62
   144
100
AcDbLine
 10
53.62781098436062
 20
-53.79813021889572
 30
0.0
 11
11.12781098436085
 21
-53.79813021889572
 31
0.0
1001
TOP
1070
     3
  0
LINE
  5
E14
330
2
100
AcDbEntity
  8
P-09EB
  6
DASHED
 62
   144
100
AcDbLine
 10
53.62781098436039
 20
-53.79813021889572
 30
0.0
 11
53.62781098436039
 21
-96.29813021889573
 31
0.0
1001
TOP
1070
     3
  0
HATCH
  5
E15
330
2
100
AcDbEntity
  8
P-09EB
  6
Continuous
 62
   144
100
AcDbHatch
 10
0.0
 20
0.0
 30
0.0
210
0.0
220
0.0
230
1.0
  2
_U
 70
     0
 71
     1
 91
        1
 92
        7
 72
     1
 73
     1
 93
       20
 10
61.12781098436062
 20
649.1819294025394
 42
0.0
 10
61.12781098436063
 20
489.1819294025398
 42
0.0
 10
68.62781098436062
 20
489.1819294025398
 42
0.0
 10
68.62781098436062
 20
629.1819294025405
 42
0.0
 10
111.1278109843606
 20
629.1819294025399
 42
0.0
 10
111.1278109843606
 20
489.1819294025399
 42
0.0
 10
121.1278109843606
 20
489.18192940254
 42
0.0
 10
121.1278109843606
 20
499.1819294025399
 42
0.0
 10
151.1278109843602
 20
519.1819294025399
 42
0.0
 10
121.1278109843606
 20
519.1819294025398
 42
0.0
 10
121.1278109843606
 20
529.1819294025399
 42
0.0
 10
151.127810984361
 20
549.1819294025399
 42
0.0
 10
121.1278109843606
 20
549.1819294025394
 42
0.0
 10
121.1278109843606
 20
559.18192940254
 42
0.0
 10
151.12781098436
 20
579.1819294025399
 42
0.0
 10
121.1278109843606
 20
579.1819294025399
 42
0.0
 10
121.1278109843606
 20
599.1819294025394
 42
0.0
 10
161.1278109843606
 20
599.1819294025399
 42
0.0
 10
161.1278109843606
 20
639.1819294025395
 42
0.4142135623730951
 10
151.1278109843606
 20
649.1819294025394
 42
0.0
 97
       19
330
DDB
330
DD5
330
DD7
330
DEF
330
DF3
330
DF4
330
DF5
330
DEE
330
DE3
330
DF0
330
DEB
330
DE4
330
DF1
330
DEA
330
DE5
330
DF2
330
DD8
330
DF6
330
DD4
 75
     0
 76
     0
 52
45.0
 41
12.0
 77
     0
 78
     1
 53
45.0
 43
1197.895379803027
 44
-1781.377478511007
 45
-8.485281374238569
 46
8.485281374238571
 79
     0
 47
1.611717000705629
 98
        1
 10
143.6867996823821
 20
636.7234428093006
1001
TOP
1070
     6
  0
ENDSEC
  0
SECTION
  2
OBJECTS
  0
DICTIONARY
  5
1A
330
0
100
AcDbDictionary
281
     1
  3
ACAD_2007HEADERVARS_RT
350
F3B
  3
ACAD_COLOR
350
2C5
  3
ACAD_GROUP
350
18
  3
ACAD_LAYOUT
350
45
  3
ACAD_MATERIAL
350
2B0
  3
ACAD_MLEADERSTYLE
350
354
  3
ACAD_MLINESTYLE
350
19
  3
ACAD_PLOTSETTINGS
350
46
  3
ACAD_PLOTSTYLENAME
350
43
  3
ACAD_SCALELIST
350
332
  3
ACAD_TABLESTYLE
350
2C6
  3
ACAD_VISUALSTYLE
350
2B4
  3
ACDB_RECOMPOSE_DATA
350
F39
  3
AcDbVariableDictionary
350
2AA
  3
AEC_PROPERTY_SET_DEFS
350
6EA
  3
DWGPROPS
350
F3A
  3
qs_topprt_diz
350
50
  3
QSCATDICT
350
6D9
  3
QsPallStyleDict
350
6EB
  3
QsTop499
350
F03
  3
TopSpotLight
350
6E0
  0
DICTIONARY
  5
300
330
12
100
AcDbDictionary
280
     1
281
     1
  0
DICTIONARY
  5
6F6
330
A
100
AcDbDictionary
280
     1
281
     1
  3
ACAD_LAYERSTATES
360
6F7
  0
DICTIONARY
  5
37B
330
4
100
AcDbDictionary
280
     1
281
     1
  3
ADSK_XREC_LAYER_RECONCILED
360
99C
  0
DICTIONARY
  5
99D
330
6DB
100
AcDbDictionary
280
     1
281
     1
  3
ADSK_XREC_LAYER_RECONCILED
360
99E
  0
DICTIONARY
  5
99F
330
6ED
100
AcDbDictionary
280
     1
281
     1
  3
ADSK_XREC_LAYER_RECONCILED
360
9A0
  0
DICTIONARY
  5
9A9
330
8C4
100
AcDbDictionary
280
     1
281
     1
  3
ADSK_XREC_LAYER_RECONCILED
360
9AA
  0
DICTIONARY
  5
9AB
330
99B
100
AcDbDictionary
280
     1
281
     1
  3
ADSK_XREC_LAYER_RECONCILED
360
9AC
  0
DICTIONARY
  5
EF3
330
EF2
100
AcDbDictionary
280
     1
281
     1
  0
DICTIONARY
  5
811
330
6F8
100
AcDbDictionary
280
     1
281
     1
  3
ACAD_SORTENTS
360
812
  0
DICTIONARY
  5
F3B
102
{ACAD_REACTORS
330
1A
102
}
330
1A
100
AcDbDictionary
281
     1
  3
INTERFEREVPVS
350
F3C
  0
DICTIONARY
  5
2C5
102
{ACAD_REACTORS
330
1A
102
}
330
1A
100
AcDbDictionary
281
     1
  0
DICTIONARY
  5
18
102
{ACAD_REACTORS
330
1A
102
}
330
1A
100
AcDbDictionary
281
     1
  0
DICTIONARY
  5
45
102
{ACAD_REACTORS
330
1A
102
}
330
1A
100
AcDbDictionary
281
     1
  3
Layout1
350
48
  3
Model
350
47
  0
DICTIONARY
  5
2B0
102
{ACAD_REACTORS
330
1A
102
}
330
1A
100
AcDbDictionary
281
     1
  3
ByBlock
350
2B2
  3
ByLayer
350
2B1
  3
Global
350
2B3
  0
DICTIONARY
  5
354
102
{ACAD_REACTORS
330
1A
102
}
330
1A
100
AcDbDictionary
281
     1
  3
Standard
350
355
  0
DICTIONARY
  5
19
102
{ACAD_REACTORS
330
1A
102
}
330
1A
100
AcDbDictionary
281
     1
  3
STANDARD
350
1C
  0
DICTIONARY
  5
46
102
{ACAD_REACTORS
330
1A
102
}
330
1A
100
AcDbDictionary
281
     1
  3
Kyocera_1010 OR
350
DCB
  3
Kyocera_1010 VER
350
DCC
  3
Olivetti_200 A3
350
DCD
  3
Olivetti_200 A4
350
DCE
  3
PLOTTER
350
DCF
  0
ACDBDICTIONARYWDFLT
  5
43
102
{ACAD_REACTORS
330
1A
102
}
330
1A
100
AcDbDictionary
281
     1
  3
Normal
350
44
100
AcDbDictionaryWithDefault
340
44
  0
DICTIONARY
  5
332
102
{ACAD_REACTORS
330
1A
102
}
330
1A
100
AcDbDictionary
281
     1
  3
A0
350
333
  3
A1
350
334
  3
A2
350
335
  3
A3
350
336
  3
A4
350
337
  3
A5
350
338
  3
A6
350
339
  3
A7
350
33A
  3
A8
350
33B
  3
A9
350
33C
  3
B0
350
33D
  3
B1
350
33E
  3
B2
350
33F
  3
B3
350
340
  3
B4
350
341
  3
B5
350
342
  3
B6
350
343
  3
B7
350
344
  3
B8
350
345
  3
B9
350
346
  3
C0
350
347
  3
C1
350
348
  3
C2
350
349
  3
C3
350
34A
  3
C4
350
34B
  3
C5
350
34C
  3
C6
350
34D
  3
C7
350
34E
  3
C8
350
34F
  3
C9
350
350
  3
D0
350
351
  3
D1
350
352
  3
D2
350
353
  0
DICTIONARY
  5
2C6
102
{ACAD_REACTORS
330
1A
102
}
330
1A
100
AcDbDictionary
281
     1
  3
Standard
350
2C7
  0
DICTIONARY
  5
2B4
102
{ACAD_REACTORS
330
1A
102
}
330
1A
100
AcDbDictionary
281
     1
  3
2dWireframe
350
2BA
  3
3D Hidden
350
2BC
  3
3dWireframe
350
2BB
  3
Basic
350
2B9
  3
Brighten
350
2C0
  3
ColorChange
350
2C4
  3
Conceptual
350
2BD
  3
Dim
350
2BF
  3
EdgeColorOff
350
F14
  3
Facepattern
350
2C3
  3
Flat
350
2B5
  3
FlatWithEdges
350
2B6
  3
Gouraud
350
2B7
  3
GouraudWithEdges
350
2B8
  3
Hidden
350
F0C
  3
JitterOff
350
F12
  3
Linepattern
350
2C2
  3
OverhangOff
350
F13
  3
Realistic
350
2BE
  3
Shaded
350
F11
  3
Shaded with edges
350
F10
  3
Shades of Gray
350
F0D
  3
Sketchy
350
F0E
  3
Thicken
350
2C1
  3
Wireframe
350
F0B
  3
X-Ray
350
F0F
  0
XRECORD
  5
F39
102
{ACAD_REACTORS
330
1A
102
}
330
1A
100
AcDbXrecord
280
     1
 90
        1
330
2C7
  0
DICTIONARY
  5
2AA
102
{ACAD_REACTORS
330
1A
102
}
330
1A
100
AcDbDictionary
281
     1
  3
CANNOSCALE
350
36B
  3
CMLEADERSTYLE
350
369
  3
CTABLESTYLE
350
312
  3
DIMASSOC
350
2AB
  3
DRAWORDERCTL
350
BE8
  3
INDEXCTL
350
314
  3
LAYEREVAL
350
BEA
  3
LAYERNOTIFY
350
BEB
  3
LIGHTINGUNITS
350
36C
  3
MLEADERSCALE
350
BE9
  3
MSLTSCALE
350
36A
  3
SORTENTS
350
313
  3
XCLIPFRAME
350
F37
  0
DICTIONARY
  5
6EA
102
{ACAD_REACTORS
330
1A
102
}
330
1A
100
AcDbDictionary
281
     1
  0
XRECORD
  5
F3A
102
{ACAD_REACTORS
330
1A
102
}
330
1A
100
AcDbXrecord
280
     1
  1
DWGPROPS COOKIE
  2

  3

  4

  6

  7

  8
mpistoia
  9

300
=
301
=
302
=
303
=
304
=
305
=
306
=
307
=
308
=
309
=
 40
0.227482511574074
 41
2455103.54535029
 42
2455650.447511413
  1

 90
        0
  0
DICTIONARY
  5
50
102
{ACAD_REACTORS
330
1A
102
}
330
1A
100
AcDbDictionary
281
     1
  3
UCNT
350
51
  0
DICTIONARY
  5
6D9
102
{ACAD_REACTORS
330
1A
102
}
330
1A
100
AcDbDictionary
280
     1
281
     1
  3
DEFAULT
360
6DA
  0
DICTIONARY
  5
6EB
102
{ACAD_REACTORS
330
1A
102
}
330
1A
100
AcDbDictionary
281
     1
  3
DEFAULT
350
6EC
  0
DICTIONARY
  5
F03
102
{ACAD_REACTORS
330
1A
102
}
330
1A
100
AcDbDictionary
281
     1
  3
TOP
350
F08
  3
X2a6c
350
F05
  3
X2ec3
350
F04
  3
X5357
350
F06
  3
X754f
350
F07
  0
DICTIONARY
  5
6E0
102
{ACAD_REACTORS
330
1A
102
}
330
1A
100
AcDbDictionary
281
     1
  3
colors
350
6E1
  0
DICTIONARY
  5
6F7
102
{ACAD_REACTORS
330
6F6
102
}
330
6F6
100
AcDbDictionary
281
     1
  0
XRECORD
  5
99C
102
{ACAD_REACTORS
330
37B
102
}
330
37B
100
AcDbXrecord
280
     1
290
     1
  0
XRECORD
  5
99E
102
{ACAD_REACTORS
330
99D
102
}
330
99D
100
AcDbXrecord
280
     1
290
     1
  0
XRECORD
  5
9A0
102
{ACAD_REACTORS
330
99F
102
}
330
99F
100
AcDbXrecord
280
     1
290
     1
  0
XRECORD
  5
9AA
102
{ACAD_REACTORS
330
9A9
102
}
330
9A9
100
AcDbXrecord
280
     1
290
     1
  0
XRECORD
  5
9AC
102
{ACAD_REACTORS
330
9AB
102
}
330
9AB
100
AcDbXrecord
280
     1
290
     1
  0
SORTENTSTABLE
  5
812
102
{ACAD_REACTORS
330
811
102
}
330
811
100
AcDbSortentsTable
330
6F8
331
72B
  5
74A
331
743
  5
71F
331
72F
  5
74E
331
747
  5
723
331
74B
  5
70F
331
74F
  5
716
331
710
  5
72D
331
6FC
  5
700
331
714
  5
72F
331
730
  5
74F
331
718
  5
735
331
700
  5
6FC
331
734
  5
754
331
71C
  5
738
331
750
  5
717
331
720
  5
73C
331
738
  5
710
331
754
  5
753
331
724
  5
743
331
70C
  5
72A
331
73C
  5
724
331
728
  5
747
331
740
  5
71C
331
744
  5
720
331
72C
  5
74B
331
748
  5
718
331
74C
  5
712
331
6F9
  5
6FD
331
711
  5
72C
331
6FD
  5
6F9
331
715
  5
731
331
731
  5
750
331
719
  5
734
331
735
  5
756
331
71D
  5
739
331
751
  5
70B
331
739
  5
741
331
721
  5
73D
331
709
  5
727
331
755
  5
70A
331
725
  5
744
331
70D
  5
72B
331
73D
  5
725
331
729
  5
748
331
741
  5
71D
331
72D
  5
74C
331
745
  5
721
331
749
  5
719
331
74D
  5
713
331
6FA
  5
6FE
331
712
  5
72E
331
6FE
  5
6FA
331
716
  5
732
331
732
  5
751
331
71A
  5
736
331
736
  5
709
331
71E
  5
73A
331
752
  5
70E
331
722
  5
73E
331
70A
  5
728
331
73A
  5
742
331
756
  5
755
331
726
  5
745
331
70E
  5
711
331
73E
  5
726
331
72A
  5
749
331
742
  5
71E
331
746
  5
722
331
72E
  5
74D
331
74A
  5
71A
331
74E
  5
715
331
6FB
  5
6FF
331
713
  5
730
331
6FF
  5
6FB
331
717
  5
733
331
733
  5
752
331
71B
  5
737
331
737
  5
70C
331
71F
  5
73B
331
753
  5
70D
331
73B
  5
73F
331
723
  5
740
331
70B
  5
729
331
727
  5
746
331
70F
  5
714
331
73F
  5
71B
  0
XRECORD
  5
F3C
102
{ACAD_REACTORS
330
F3B
102
}
330
F3B
100
AcDbXrecord
280
     1
340
2BB
  0
LAYOUT
  5
48
102
{ACAD_XDICTIONARY
360
F3F
102
}
102
{ACAD_REACTORS
330
45
102
}
330
45
100
AcDbPlotSettings
  1

  2
RICOH Aficio 270 PCL 6 A4
  4

  6

 40
0.0
 41
0.0
 42
0.0
 43
0.0
 44
0.0
 45
0.0
 46
0.0
 47
0.0
 48
0.0
 49
0.0
140
0.0
141
0.0
142
1.0
143
1.0
 70
   688
 72
     0
 73
     0
 74
     5
  7
monochrome.ctb
 75
    16
147
1.0
148
0.0
149
0.0
100
AcDbLayout
  1
Layout1
 70
     0
 71
     1
 10
0.0
 20
0.0
 11
12.0
 21
9.0
 12
0.0
 22
0.0
 32
0.0
 14
1.000000000000000E+20
 24
1.000000000000000E+20
 34
1.000000000000000E+20
 15
-1.000000000000000E+20
 25
-1.000000000000000E+20
 35
-1.000000000000000E+20
146
0.0
 13
0.0
 23
0.0
 33
0.0
 16
1.0
 26
0.0
 36
0.0
 17
0.0
 27
1.0
 37
0.0
 76
     0
330
7
  0
LAYOUT
  5
47
102
{ACAD_XDICTIONARY
360
F3D
102
}
102
{ACAD_REACTORS
330
45
102
}
330
45
100
AcDbPlotSettings
  1
Olivetti_200 A4
  2
Olivetti_200.pc3
  4
A4
  6

 40
4.984749794006347
 41
5.154074668884277
 42
5.111740112304687
 43
4.9847412109375
 44
210.0156707763672
 45
297.0106506347656
 46
51.67548120477697
 47
0.0
 48
0.0
 49
0.0
140
0.0
141
0.0
142
1.0
143
0.4718508448115938
 70
 11956
 72
     1
 73
     0
 74
     1
  7
monochrome.ctb
 75
     0
147
2.119313785268927
148
-222.4649060220283
149
-239.0808115236937
100
AcDbLayout
  1
Model
 70
     1
 71
     0
 10
0.0
 20
0.0
 11
12.0
 21
9.0
 12
0.0
 22
0.0
 32
0.0
 14
0.0
 24
0.0
 34
0.0
 15
0.0
 25
0.0
 35
0.0
146
0.0
 13
0.0
 23
0.0
 33
0.0
 16
1.0
 26
0.0
 36
0.0
 17
0.0
 27
1.0
 37
0.0
 76
     0
330
2
331
2AE
1001
ACAD_PSEXT
1000
Olivetti_200.pc3
1000
Olivetti d-Copia 200MF KX
1000
IP_192.168.1.151
1000

1070
     0
  0
MATERIAL
  5
2B2
102
{ACAD_XDICTIONARY
360
F43
102
}
102
{ACAD_REACTORS
330
2B0
102
}
330
2B0
100
AcDbMaterial
  1
ByBlock
 73
     1
 78
     1
172
     1
176
     1
270
     1
274
     1
  0
MATERIAL
  5
2B1
102
{ACAD_XDICTIONARY
360
F41
102
}
102
{ACAD_REACTORS
330
2B0
102
}
330
2B0
100
AcDbMaterial
  1
ByLayer
 73
     1
 78
     1
172
     1
176
     1
270
     1
274
     1
  0
MATERIAL
  5
2B3
102
{ACAD_XDICTIONARY
360
F45
102
}
102
{ACAD_REACTORS
330
2B0
102
}
330
2B0
100
AcDbMaterial
  1
Global
 73
     1
 78
     1
172
     1
176
     1
270
     1
274
     1
  0
MLEADERSTYLE
  5
355
102
{ACAD_REACTORS
330
354
102
}
330
354
100
AcDbMLeaderStyle
170
     2
171
     1
172
     0
 90
        2
 40
0.0
 41
0.0
173
     1
 91
-1056964608
340
E
 92
       -2
290
     1
 42
2.0
291
     1
 43
0.36
  3
Standard
 44
4.0
300

342
C
174
     1
178
     6
175
     1
176
     0
 93
-1056964608
 45
4.0
292
     0
297
     0
 46
4.0
 94
-1056964608
 47
1.0
 49
1.0
140
1.0
293
     1
141
0.0
294
     1
177
     0
142
1.0
295
     0
296
     0
143
0.125
1001
ACAD_MLEADERVER
1070
     2
  0
MLINESTYLE
  5
1C
102
{ACAD_REACTORS
330
19
102
}
330
19
100
AcDbMlineStyle
  2
STANDARD
 70
     0
  3

 62
     0
 51
90.0
 52
90.0
 71
     2
 49
0.5
 62
   256
  6
BYLAYER
 49
-0.5
 62
   256
  6
BYLAYER
  0
PLOTSETTINGS
  5
DCB
102
{ACAD_XDICTIONARY
360
F68
102
}
102
{ACAD_REACTORS
330
46
102
}
330
46
100
AcDbPlotSettings
  1
Kyocera_1010 OR
  2
Kyocera_1010.pc3
  4
A4
  6

 40
4.984749794006347
 41
5.154074668884277
 42
5.111740112304687
 43
4.9847412109375
 44
210.0156707763672
 45
297.0106506347656
 46
0.0
 47
109.7870247470818
 48
0.0
 49
0.0
140
0.0
141
0.0
142
1.0
143
0.6770771918566143
 70
 11956
 72
     1
 73
     1
 74
     1
  7
DIERRE BN.ctb
 75
     0
147
1.476936473458659
148
-222.4649060220283
149
-239.0808115236937
1001
ACAD_PSEXT
1000
Kyocera_1010.pc3
1000
Kyocera Mita FS-1010 KX
1000
\\PC5
1000

1070
     0
  0
PLOTSETTINGS
  5
DCC
102
{ACAD_XDICTIONARY
360
F6A
102
}
102
{ACAD_REACTORS
330
46
102
}
330
46
100
AcDbPlotSettings
  1
Kyocera_1010 VER
  2
Kyocera_1010.pc3
  4
A4
  6

 40
4.984749794006347
 41
5.154074668884277
 42
5.111740112304687
 43
4.9847412109375
 44
210.0156707763672
 45
297.0106506347656
 46
51.67548120477697
 47
0.0
 48
0.0
 49
0.0
140
0.0
141
0.0
142
1.0
143
0.4718508448115938
 70
 11956
 72
     1
 73
     0
 74
     1
  7
DIERRE BN.ctb
 75
     0
147
2.119313785268927
148
-222.4649060220283
149
-239.0808115236937
1001
ACAD_PSEXT
1000
Kyocera_1010.pc3
1000
Kyocera Mita FS-1010 KX
1000
\\PC5
1000

1070
     0
  0
PLOTSETTINGS
  5
DCD
102
{ACAD_XDICTIONARY
360
F6C
102
}
102
{ACAD_REACTORS
330
46
102
}
330
46
100
AcDbPlotSettings
  1
Olivetti_200 A3
  2
Olivetti_200.pc3
  4
A3
  6

 40
4.984749794006347
 41
5.111746788024902
 42
5.154083251953125
 43
4.9847412109375
 44
297.0106506347656
 45
419.9889831542968
 46
0.0
 47
156.6621412366913
 48
0.0
 49
0.0
140
0.0
141
0.0
142
1.0
143
0.4718508730467012
 70
 11956
 72
     1
 73
     1
 74
     1
  7
DIERRE BN.ctb
 75
     0
147
2.119313658451206
148
-222.4649060220283
149
-239.0808115236937
1001
ACAD_PSEXT
1000
Olivetti_200.pc3
1000
Olivetti d-Copia 200MF KX
1000
IP_192.168.1.151
1000

1070
     0
  0
PLOTSETTINGS
  5
DCE
102
{ACAD_XDICTIONARY
360
F6E
102
}
102
{ACAD_REACTORS
330
46
102
}
330
46
100
AcDbPlotSettings
  1
Olivetti_200 A4
  2
Olivetti_200.pc3
  4
A4
  6

 40
4.984749794006347
 41
5.154074668884277
 42
5.111740112304687
 43
4.9847412109375
 44
210.0156707763672
 45
297.0106506347656
 46
51.67548120477697
 47
0.0
 48
0.0
 49
0.0
140
0.0
141
0.0
142
1.0
143
0.4718508448115938
 70
 11956
 72
     1
 73
     0
 74
     1
  7
DIERRE BN.ctb
 75
     0
147
2.119313785268927
148
-222.4649060220283
149
-239.0808115236937
1001
ACAD_PSEXT
1000
Olivetti_200.pc3
1000
Olivetti d-Copia 200MF KX
1000
IP_192.168.1.151
1000

1070
     0
  0
PLOTSETTINGS
  5
DCF
102
{ACAD_XDICTIONARY
360
F70
102
}
102
{ACAD_REACTORS
330
46
102
}
330
46
100
AcDbPlotSettings
  1
PLOTTER
  2
PLOTTER.pc3
  4
User622
  6

 40
0.0
 41
0.0
 42
0.0
 43
0.0
 44
841.0
 45
1189.0
 46
0.0
 47
0.0
 48
0.0
 49
0.0
140
0.0
141
0.0
142
1.0
143
1.0
 70
 11936
 72
     1
 73
     0
 74
     1
  7
DIERRE BN.ctb
 75
     0
147
2.194137304425714
148
-222.4649060220283
149
-239.0808115236937
1001
ACAD_PSEXT
1000
PLOTTER.pc3
1000
HP DesignJet 430 (E/A0) by HP
1000
\\SERVER2003
1000

1070
     0
  0
ACDBPLACEHOLDER
  5
44
102
{ACAD_REACTORS
330
43
102
}
330
43
  0
SCALE
  5
333
102
{ACAD_REACTORS
330
332
102
}
330
332
100
AcDbScale
 70
     0
300
1:1
140
1.0
141
1.0
290
     1
  0
SCALE
  5
334
102
{ACAD_REACTORS
330
332
102
}
330
332
100
AcDbScale
 70
     0
300
1:2
140
1.0
141
2.0
290
     0
  0
SCALE
  5
335
102
{ACAD_REACTORS
330
332
102
}
330
332
100
AcDbScale
 70
     0
300
1:4
140
1.0
141
4.0
290
     0
  0
SCALE
  5
336
102
{ACAD_REACTORS
330
332
102
}
330
332
100
AcDbScale
 70
     0
300
1:5
140
1.0
141
5.0
290
     0
  0
SCALE
  5
337
102
{ACAD_REACTORS
330
332
102
}
330
332
100
AcDbScale
 70
     0
300
1:8
140
1.0
141
8.0
290
     0
  0
SCALE
  5
338
102
{ACAD_REACTORS
330
332
102
}
330
332
100
AcDbScale
 70
     0
300
1:10
140
1.0
141
10.0
290
     0
  0
SCALE
  5
339
102
{ACAD_REACTORS
330
332
102
}
330
332
100
AcDbScale
 70
     0
300
1:16
140
1.0
141
16.0
290
     0
  0
SCALE
  5
33A
102
{ACAD_REACTORS
330
332
102
}
330
332
100
AcDbScale
 70
     0
300
1:20
140
1.0
141
20.0
290
     0
  0
SCALE
  5
33B
102
{ACAD_REACTORS
330
332
102
}
330
332
100
AcDbScale
 70
     0
300
1:30
140
1.0
141
30.0
290
     0
  0
SCALE
  5
33C
102
{ACAD_REACTORS
330
332
102
}
330
332
100
AcDbScale
 70
     0
300
1:40
140
1.0
141
40.0
290
     0
  0
SCALE
  5
33D
102
{ACAD_REACTORS
330
332
102
}
330
332
100
AcDbScale
 70
     0
300
1:50
140
1.0
141
50.0
290
     0
  0
SCALE
  5
33E
102
{ACAD_REACTORS
330
332
102
}
330
332
100
AcDbScale
 70
     0
300
1:100
140
1.0
141
100.0
290
     0
  0
SCALE
  5
33F
102
{ACAD_REACTORS
330
332
102
}
330
332
100
AcDbScale
 70
     0
300
2:1
140
2.0
141
1.0
290
     0
  0
SCALE
  5
340
102
{ACAD_REACTORS
330
332
102
}
330
332
100
AcDbScale
 70
     0
300
4:1
140
4.0
141
1.0
290
     0
  0
SCALE
  5
341
102
{ACAD_REACTORS
330
332
102
}
330
332
100
AcDbScale
 70
     0
300
8:1
140
8.0
141
1.0
290
     0
  0
SCALE
  5
342
102
{ACAD_REACTORS
330
332
102
}
330
332
100
AcDbScale
 70
     0
300
10:1
140
10.0
141
1.0
290
     0
  0
SCALE
  5
343
102
{ACAD_REACTORS
330
332
102
}
330
332
100
AcDbScale
 70
     0
300
100:1
140
100.0
141
1.0
290
     0
  0
SCALE
  5
344
102
{ACAD_REACTORS
330
332
102
}
330
332
100
AcDbScale
 70
     0
300
1/128" = 1'-0"
140
0.0078125
141
12.0
290
     0
  0
SCALE
  5
345
102
{ACAD_REACTORS
330
332
102
}
330
332
100
AcDbScale
 70
     0
300
1/64" = 1'-0"
140
0.015625
141
12.0
290
     0
  0
SCALE
  5
346
102
{ACAD_REACTORS
330
332
102
}
330
332
100
AcDbScale
 70
     0
300
1/32" = 1'-0"
140
0.03125
141
12.0
290
     0
  0
SCALE
  5
347
102
{ACAD_REACTORS
330
332
102
}
330
332
100
AcDbScale
 70
     0
300
1/16" = 1'-0"
140
0.0625
141
12.0
290
     0
  0
SCALE
  5
348
102
{ACAD_REACTORS
330
332
102
}
330
332
100
AcDbScale
 70
     0
300
3/32" = 1'-0"
140
0.09375
141
12.0
290
     0
  0
SCALE
  5
349
102
{ACAD_REACTORS
330
332
102
}
330
332
100
AcDbScale
 70
     0
300
1/8" = 1'-0"
140
0.125
141
12.0
290
     0
  0
SCALE
  5
34A
102
{ACAD_REACTORS
330
332
102
}
330
332
100
AcDbScale
 70
     0
300
3/16" = 1'-0"
140
0.1875
141
12.0
290
     0
  0
SCALE
  5
34B
102
{ACAD_REACTORS
330
332
102
}
330
332
100
AcDbScale
 70
     0
300
1/4" = 1'-0"
140
0.25
141
12.0
290
     0
  0
SCALE
  5
34C
102
{ACAD_REACTORS
330
332
102
}
330
332
100
AcDbScale
 70
     0
300
3/8" = 1'-0"
140
0.375
141
12.0
290
     0
  0
SCALE
  5
34D
102
{ACAD_REACTORS
330
332
102
}
330
332
100
AcDbScale
 70
     0
300
1/2" = 1'-0"
140
0.5
141
12.0
290
     0
  0
SCALE
  5
34E
102
{ACAD_REACTORS
330
332
102
}
330
332
100
AcDbScale
 70
     0
300
3/4" = 1'-0"
140
0.75
141
12.0
290
     0
  0
SCALE
  5
34F
102
{ACAD_REACTORS
330
332
102
}
330
332
100
AcDbScale
 70
     0
300
1" = 1'-0"
140
1.0
141
12.0
290
     0
  0
SCALE
  5
350
102
{ACAD_REACTORS
330
332
102
}
330
332
100
AcDbScale
 70
     0
300
1-1/2" = 1'-0"
140
1.5
141
12.0
290
     0
  0
SCALE
  5
351
102
{ACAD_REACTORS
330
332
102
}
330
332
100
AcDbScale
 70
     0
300
3" = 1'-0"
140
3.0
141
12.0
290
     0
  0
SCALE
  5
352
102
{ACAD_REACTORS
330
332
102
}
330
332
100
AcDbScale
 70
     0
300
6" = 1'-0"
140
6.0
141
12.0
290
     0
  0
SCALE
  5
353
102
{ACAD_REACTORS
330
332
102
}
330
332
100
AcDbScale
 70
     0
300
1'-0" = 1'-0"
140
12.0
141
12.0
290
     0
  0
TABLESTYLE
  5
2C7
102
{ACAD_XDICTIONARY
360
362
102
}
102
{ACAD_REACTORS
330
2C6
102
}
330
2C6
100
AcDbTableStyle
  3
Standard
 70
     0
 71
     0
 40
1.5
 41
1.5
280
     0
281
     0
  7
STANDARD
140
4.5
170
     2
 62
     0
 63
     7
283
     0
274
    -2
284
     1
 64
     0
275
    -2
285
     1
 65
     0
276
    -2
286
     1
 66
     0
277
    -2
287
     1
 67
     0
278
    -2
288
     1
 68
     0
279
    -2
289
     1
 69
     0
  7
STANDARD
140
6.0
170
     5
 62
     0
 63
     7
283
     0
274
    -2
284
     1
 64
     0
275
    -2
285
     1
 65
     0
276
    -2
286
     1
 66
     0
277
    -2
287
     1
 67
     0
278
    -2
288
     1
 68
     0
279
    -2
289
     1
 69
     0
  7
STANDARD
140
4.5
170
     5
 62
     0
 63
     7
283
     0
274
    -2
284
     1
 64
     0
275
    -2
285
     1
 65
     0
276
    -2
286
     1
 66
     0
277
    -2
287
     1
 67
     0
278
    -2
288
     1
 68
     0
279
    -2
289
     1
 69
     0
  0
VISUALSTYLE
  5
2BA
102
{ACAD_XDICTIONARY
360
F51
102
}
102
{ACAD_REACTORS
330
2B4
102
}
330
2B4
100
AcDbVisualStyle
  2
2dWireframe
 70
     4
 71
     0
 72
     2
 73
     0
 90
        0
 40
-0.6
 41
-30.0
 62
     5
 63
     7
 74
     1
 91
        4
 64
     7
 65
   257
 75
     1
175
     1
 42
1.0
 92
        0
 66
   257
 43
1.0
 76
     1
 77
     6
 78
     2
 67
     7
 79
     5
170
     0
171
     0
290
     0
174
     0
 93
        1
 44
0.0
173
     0
291
     0
 45
0.0
1001
ACAD
1000
AcDbSavedByObjectVersion
1070
     0
  0
VISUALSTYLE
  5
2BC
102
{ACAD_XDICTIONARY
360
F55
102
}
102
{ACAD_REACTORS
330
2B4
102
}
330
2B4
100
AcDbVisualStyle
  2
3D Hidden
 70
     6
 71
     1
 72
     2
 73
     2
 90
        0
 40
-0.6
 41
-30.0
 62
     5
 63
     7
 74
     2
 91
        2
 64
     7
 65
   257
 75
     2
175
     1
 42
40.0
 92
        0
 66
   257
 43
1.0
 76
     1
 77
     6
 78
     2
 67
     7
 79
     3
170
     0
171
     0
290
     0
174
     0
 93
        1
 44
0.0
173
     0
291
     0
 45
0.0
1001
ACAD
1000
AcDbSavedByObjectVersion
1070
     0
  0
VISUALSTYLE
  5
2BB
102
{ACAD_XDICTIONARY
360
F53
102
}
102
{ACAD_REACTORS
330
2B4
102
}
330
2B4
100
AcDbVisualStyle
  2
3dWireframe
 70
     5
 71
     0
 72
     2
 73
     0
 90
        0
 40
-0.6
 41
-30.0
 62
     5
 63
     7
 74
     1
 91
        4
 64
     7
 65
   257
 75
     1
175
     1
 42
1.0
 92
        0
 66
   257
 43
1.0
 76
     1
 77
     6
 78
     2
 67
     7
 79
     5
170
     0
171
     0
290
     0
174
     0
 93
        1
 44
0.0
173
     0
291
     0
 45
0.0
1001
ACAD
1000
AcDbSavedByObjectVersion
1070
     0
  0
VISUALSTYLE
  5
2B9
102
{ACAD_XDICTIONARY
360
F4F
102
}
102
{ACAD_REACTORS
330
2B4
102
}
330
2B4
100
AcDbVisualStyle
  2
Basic
 70
     7
 71
     1
 72
     0
 73
     1
 90
        0
 40
-0.6
 41
-30.0
 62
     5
 63
     7
 74
     0
 91
        4
 64
     7
 65
   257
 75
     1
175
     1
 42
1.0
 92
        8
 66
     7
 43
1.0
 76
     1
 77
     6
 78
     2
 67
     7
 79
     5
170
     0
171
     0
290
     0
174
     0
 93
        1
 44
0.0
173
     0
291
     1
 45
0.0
1001
ACAD
1000
AcDbSavedByObjectVersion
1070
     0
  0
VISUALSTYLE
  5
2C0
102
{ACAD_XDICTIONARY
360
F5D
102
}
102
{ACAD_REACTORS
330
2B4
102
}
330
2B4
100
AcDbVisualStyle
  2
Brighten
 70
    12
 71
     2
 72
     2
 73
     0
 90
        0
 40
-0.6
 41
-30.0
 62
     5
 63
     7
 74
     1
 91
        4
 64
     7
 65
   257
 75
     1
175
     1
 42
1.0
 92
        8
 66
     7
 43
1.0
 76
     1
 77
     6
 78
     2
 67
     7
 79
     5
170
     0
171
     0
290
     0
174
     0
 93
        1
 44
50.0
173
     0
291
     1
 45
0.0
1001
ACAD
1000
AcDbSavedByObjectVersion
1070
     0
  0
VISUALSTYLE
  5
2C4
102
{ACAD_XDICTIONARY
360
F65
102
}
102
{ACAD_REACTORS
330
2B4
102
}
330
2B4
100
AcDbVisualStyle
  2
ColorChange
 70
    16
 71
     2
 72
     2
 73
     3
 90
        0
 40
-0.6
 41
-30.0
 62
     5
 63
     8
 74
     1
 91
        4
 64
     7
 65
   257
 75
     1
175
     1
 42
1.0
 92
        8
 66
     8
 43
1.0
 76
     1
 77
     6
 78
     2
 67
     7
 79
     5
170
     0
171
     0
290
     0
174
     0
 93
        1
 44
0.0
173
     0
291
     1
 45
0.0
1001
ACAD
1000
AcDbSavedByObjectVersion
1070
     0
  0
VISUALSTYLE
  5
2BD
102
{ACAD_XDICTIONARY
360
F57
102
}
102
{ACAD_REACTORS
330
2B4
102
}
330
2B4
100
AcDbVisualStyle
  2
Conceptual
 70
     9
 71
     3
 72
     2
 73
     0
 90
        0
 40
-0.6
 41
-30.0
 62
     5
 63
     7
 74
     2
 91
        2
 64
     7
 65
   257
 75
     1
175
     1
 42
40.0
 92
        8
 66
     7
 43
1.0
 76
     1
 77
     6
 78
     2
 67
     7
 79
     3
170
     0
171
     0
290
     0
174
     0
 93
        1
 44
0.0
173
     0
291
     0
 45
0.0
1001
ACAD
1000
AcDbSavedByObjectVersion
1070
     0
  0
VISUALSTYLE
  5
2BF
102
{ACAD_XDICTIONARY
360
F5B
102
}
102
{ACAD_REACTORS
330
2B4
102
}
330
2B4
100
AcDbVisualStyle
  2
Dim
 70
    11
 71
     2
 72
     2
 73
     0
 90
        0
 40
-0.6
 41
-30.0
 62
     5
 63
     7
 74
     1
 91
        4
 64
     7
 65
   257
 75
     1
175
     1
 42
1.0
 92
        8
 66
     7
 43
1.0
 76
     1
 77
     6
 78
     2
 67
     7
 79
     5
170
     0
171
     0
290
     0
174
     0
 93
        1
 44
-50.0
173
     0
291
     1
 45
0.0
1001
ACAD
1000
AcDbSavedByObjectVersion
1070
     0
  0
VISUALSTYLE
  5
F14
102
{ACAD_XDICTIONARY
360
F84
102
}
102
{ACAD_REACTORS
330
2B4
102
}
330
2B4
100
AcDbVisualStyle
  2
EdgeColorOff
 70
    22
 71
     2
 72
     2
 73
     0
 90
        0
 40
-0.6
 41
-30.0
 62
     5
 63
     7
 74
     1
 91
        4
 64
     7
 65
   257
 75
     1
175
     1
 42
1.0
 92
        8
 66
     7
 43
1.0
 76
     1
 77
     6
 78
     2
 67
     7
 79
     5
170
     0
171
     0
290
     0
174
     0
 93
        1
 44
0.0
173
     0
291
     1
 45
0.0
1001
ACAD
1000
AcDbSavedByObjectVersion
1070
     0
  0
VISUALSTYLE
  5
2C3
102
{ACAD_XDICTIONARY
360
F63
102
}
102
{ACAD_REACTORS
330
2B4
102
}
330
2B4
100
AcDbVisualStyle
  2
Facepattern
 70
    15
 71
     2
 72
     2
 73
     0
 90
        0
 40
-0.6
 41
-30.0
 62
     5
 63
     7
 74
     1
 91
        4
 64
     7
 65
   257
 75
     1
175
     1
 42
1.0
 92
        8
 66
     7
 43
1.0
 76
     1
 77
     6
 78
     2
 67
     7
 79
     5
170
     0
171
     0
290
     0
174
     0
 93
        1
 44
0.0
173
     0
291
     1
 45
0.0
1001
ACAD
1000
AcDbSavedByObjectVersion
1070
     0
  0
VISUALSTYLE
  5
2B5
102
{ACAD_XDICTIONARY
360
F47
102
}
102
{ACAD_REACTORS
330
2B4
102
}
330
2B4
100
AcDbVisualStyle
  2
Flat
 70
     0
 71
     2
 72
     1
 73
     1
 90
        2
 40
-0.6
 41
30.0
 62
     5
 63
     7
 74
     0
 91
        4
 64
     7
 65
   257
 75
     1
175
     1
 42
1.0
 92
        8
 66
     7
 43
1.0
 76
     1
 77
     6
 78
     2
 67
     7
 79
     5
170
     0
171
     0
290
     0
174
     0
 93
       13
 44
0.0
173
     0
291
     1
 45
0.0
1001
ACAD
1000
AcDbSavedByObjectVersion
1070
     0
  0
VISUALSTYLE
  5
2B6
102
{ACAD_XDICTIONARY
360
F49
102
}
102
{ACAD_REACTORS
330
2B4
102
}
330
2B4
100
AcDbVisualStyle
  2
FlatWithEdges
 70
     1
 71
     2
 72
     1
 73
     1
 90
        2
 40
-0.6
 41
30.0
 62
     5
 63
     7
 74
     1
 91
        4
 64
     7
 65
   257
 75
     1
175
     1
 42
1.0
 92
        0
 66
   257
 43
1.0
 76
     1
 77
     6
 78
     2
 67
     7
 79
     5
170
     0
171
     0
290
     0
174
     0
 93
       13
 44
0.0
173
     0
291
     1
 45
0.0
1001
ACAD
1000
AcDbSavedByObjectVersion
1070
     0
  0
VISUALSTYLE
  5
2B7
102
{ACAD_XDICTIONARY
360
F4B
102
}
102
{ACAD_REACTORS
330
2B4
102
}
330
2B4
100
AcDbVisualStyle
  2
Gouraud
 70
     2
 71
     2
 72
     2
 73
     1
 90
        2
 40
-0.6
 41
30.0
 62
     5
 63
     7
 74
     0
 91
        4
 64
     7
 65
   257
 75
     1
175
     1
 42
1.0
 92
        0
 66
     7
 43
1.0
 76
     1
 77
     6
 78
     2
 67
     7
 79
     5
170
     0
171
     0
290
     0
174
     0
 93
       13
 44
0.0
173
     0
291
     1
 45
0.0
1001
ACAD
1000
AcDbSavedByObjectVersion
1070
     0
  0
VISUALSTYLE
  5
2B8
102
{ACAD_XDICTIONARY
360
F4D
102
}
102
{ACAD_REACTORS
330
2B4
102
}
330
2B4
100
AcDbVisualStyle
  2
GouraudWithEdges
 70
     3
 71
     2
 72
     2
 73
     1
 90
        2
 40
-0.6
 41
30.0
 62
     5
 63
     7
 74
     1
 91
        4
 64
     7
 65
   257
 75
     1
175
     1
 42
1.0
 92
        0
 66
   257
 43
1.0
 76
     1
 77
     6
 78
     2
 67
     7
 79
     5
170
     0
171
     0
290
     0
174
     0
 93
       13
 44
0.0
173
     0
291
     1
 45
0.0
1001
ACAD
1000
AcDbSavedByObjectVersion
1070
     0
  0
VISUALSTYLE
  5
F0C
102
{ACAD_XDICTIONARY
360
F74
102
}
102
{ACAD_REACTORS
330
2B4
102
}
330
2B4
100
AcDbVisualStyle
  2
Hidden
 70
     6
 71
     1
 72
     2
 73
     2
 90
        0
 40
-0.6
 41
-30.0
 62
     5
 63
     7
 74
     2
 91
        2
 64
     7
 65
   257
 75
     2
175
     1
 42
40.0
 92
        0
 66
   257
 43
1.0
 76
     1
 77
     6
 78
     2
 67
     7
 79
     3
170
     0
171
     0
290
     0
174
     0
 93
        1
 44
0.0
173
     0
291
     0
 45
0.0
1001
ACAD
1000
AcDbSavedByObjectVersion
1070
     0
  0
VISUALSTYLE
  5
F12
102
{ACAD_XDICTIONARY
360
F80
102
}
102
{ACAD_REACTORS
330
2B4
102
}
330
2B4
100
AcDbVisualStyle
  2
JitterOff
 70
    20
 71
     2
 72
     2
 73
     0
 90
        0
 40
-0.6
 41
-30.0
 62
     5
 63
     7
 74
     1
 91
        4
 64
     7
 65
   257
 75
     1
175
     1
 42
1.0
 92
       10
 66
     7
 43
1.0
 76
     1
 77
     6
 78
     2
 67
     7
 79
     5
170
     0
171
     0
290
     0
174
     0
 93
        1
 44
0.0
173
     0
291
     1
 45
0.0
1001
ACAD
1000
AcDbSavedByObjectVersion
1070
     0
  0
VISUALSTYLE
  5
2C2
102
{ACAD_XDICTIONARY
360
F61
102
}
102
{ACAD_REACTORS
330
2B4
102
}
330
2B4
100
AcDbVisualStyle
  2
Linepattern
 70
    14
 71
     2
 72
     2
 73
     0
 90
        0
 40
-0.6
 41
-30.0
 62
     5
 63
     7
 74
     1
 91
        4
 64
     7
 65
   257
 75
     7
175
     7
 42
1.0
 92
        8
 66
     7
 43
1.0
 76
     1
 77
     6
 78
     2
 67
     7
 79
     5
170
     0
171
     0
290
     0
174
     0
 93
        1
 44
0.0
173
     0
291
     1
 45
0.0
1001
ACAD
1000
AcDbSavedByObjectVersion
1070
     0
  0
VISUALSTYLE
  5
F13
102
{ACAD_XDICTIONARY
360
F82
102
}
102
{ACAD_REACTORS
330
2B4
102
}
330
2B4
100
AcDbVisualStyle
  2
OverhangOff
 70
    21
 71
     2
 72
     2
 73
     0
 90
        0
 40
-0.6
 41
-30.0
 62
     5
 63
     7
 74
     1
 91
        4
 64
     7
 65
   257
 75
     1
175
     1
 42
1.0
 92
        9
 66
     7
 43
1.0
 76
     1
 77
     6
 78
     2
 67
     7
 79
     5
170
     0
171
     0
290
     0
174
     0
 93
        1
 44
0.0
173
     0
291
     1
 45
0.0
1001
ACAD
1000
AcDbSavedByObjectVersion
1070
     0
  0
VISUALSTYLE
  5
2BE
102
{ACAD_XDICTIONARY
360
F59
102
}
102
{ACAD_REACTORS
330
2B4
102
}
330
2B4
100
AcDbVisualStyle
  2
Realistic
 70
     8
 71
     2
 72
     2
 73
     0
 90
        0
 40
-0.6
 41
-30.0
 62
     5
 63
     7
 74
     1
 91
        0
 64
     7
 65
   257
 75
     1
175
     1
 42
1.0
 92
        8
 66
     8
 43
1.0
 76
     1
 77
     6
 78
     2
 67
     7
 79
     5
170
     0
171
     0
290
     0
174
     0
 93
       13
 44
0.0
173
     0
291
     0
 45
0.0
1001
ACAD
1000
AcDbSavedByObjectVersion
1070
     0
  0
VISUALSTYLE
  5
F11
102
{ACAD_XDICTIONARY
360
F7E
102
}
102
{ACAD_REACTORS
330
2B4
102
}
330
2B4
100
AcDbVisualStyle
  2
Shaded
 70
    27
 71
     2
 72
     2
 73
     1
 90
        2
 40
-0.6
 41
30.0
 62
     5
 63
     7
 74
     0
 91
        4
 64
     7
 65
   257
 75
     1
175
     1
 42
1.0
 92
        8
 66
   257
 43
1.0
 76
     1
 77
     6
 78
     2
 67
     8
 79
     3
170
     0
171
     0
290
     0
174
     0
 93
        5
 44
0.0
173
     0
291
     0
 45
0.0
1001
ACAD
1000
AcDbSavedByObjectVersion
1070
     0
  0
VISUALSTYLE
  5
F10
102
{ACAD_XDICTIONARY
360
F7C
102
}
102
{ACAD_REACTORS
330
2B4
102
}
330
2B4
100
AcDbVisualStyle
  2
Shaded with edges
 70
    26
 71
     2
 72
     2
 73
     1
 90
        2
 40
-0.6
 41
30.0
 62
     5
 63
     7
 74
     1
 91
       10
 64
     7
 65
   257
 75
     2
175
     1
 42
1.0
 92
        8
 66
   257
 43
1.0
 76
     1
 77
     6
 78
     2
 67
     7
 79
     3
170
     0
171
     0
290
     0
174
     0
 93
        5
 44
0.0
173
     0
291
     0
 45
0.0
1001
ACAD
1000
AcDbSavedByObjectVersion
1070
     0
  0
VISUALSTYLE
  5
F0D
102
{ACAD_XDICTIONARY
360
F76
102
}
102
{ACAD_REACTORS
330
2B4
102
}
330
2B4
100
AcDbVisualStyle
  2
Shades of Gray
 70
    23
 71
     2
 72
     2
 73
     3
 90
        0
 40
-0.6
 41
-30.0
 62
     5
 63
     7
 74
     2
 91
        2
 64
     7
 65
     7
 75
     1
175
     1
 42
40.0
 92
        8
 66
     7
 43
1.0
 76
     1
 77
     6
 78
     2
 67
     7
 79
     3
170
     0
171
     0
290
     0
174
     0
 93
        1
 44
0.0
173
     0
291
     0
 45
0.0
1001
ACAD
1000
AcDbSavedByObjectVersion
1070
     0
  0
VISUALSTYLE
  5
F0E
102
{ACAD_XDICTIONARY
360
F78
102
}
102
{ACAD_REACTORS
330
2B4
102
}
330
2B4
100
AcDbVisualStyle
  2
Sketchy
 70
    24
 71
     1
 72
     2
 73
     2
 90
        0
 40
-0.6
 41
-30.0
 62
     5
 63
     7
 74
     2
 91
        2
 64
     7
 65
     7
 75
     1
175
     1
 42
40.0
 92
       11
 66
     7
 43
1.0
 76
     1
 77
     6
 78
     2
 67
     7
 79
     6
170
     0
171
     0
290
     0
174
     0
 93
        1
 44
0.0
173
     0
291
     0
 45
0.0
1001
ACAD
1000
AcDbSavedByObjectVersion
1070
     0
  0
VISUALSTYLE
  5
2C1
102
{ACAD_XDICTIONARY
360
F5F
102
}
102
{ACAD_REACTORS
330
2B4
102
}
330
2B4
100
AcDbVisualStyle
  2
Thicken
 70
    13
 71
     2
 72
     2
 73
     0
 90
        0
 40
-0.6
 41
-30.0
 62
     5
 63
     7
 74
     1
 91
        4
 64
     7
 65
   257
 75
     1
175
     1
 42
1.0
 92
       12
 66
     7
 43
1.0
 76
     1
 77
     6
 78
     2
 67
     7
 79
     5
170
     0
171
     0
290
     0
174
     0
 93
        1
 44
0.0
173
     0
291
     1
 45
0.0
1001
ACAD
1000
AcDbSavedByObjectVersion
1070
     0
  0
VISUALSTYLE
  5
F0B
102
{ACAD_XDICTIONARY
360
F72
102
}
102
{ACAD_REACTORS
330
2B4
102
}
330
2B4
100
AcDbVisualStyle
  2
Wireframe
 70
     5
 71
     0
 72
     2
 73
     0
 90
        0
 40
-0.6
 41
-30.0
 62
     5
 63
     7
 74
     1
 91
        4
 64
     7
 65
   257
 75
     1
175
     1
 42
1.0
 92
        0
 66
   257
 43
1.0
 76
     1
 77
     6
 78
     2
 67
     7
 79
     3
170
     0
171
     0
290
     0
174
     0
 93
        1
 44
0.0
173
     0
291
     0
 45
0.0
1001
ACAD
1000
AcDbSavedByObjectVersion
1070
     0
  0
VISUALSTYLE
  5
F0F
102
{ACAD_XDICTIONARY
360
F7A
102
}
102
{ACAD_REACTORS
330
2B4
102
}
330
2B4
100
AcDbVisualStyle
  2
X-Ray
 70
    25
 71
     2
 72
     2
 73
     1
 90
        1
 40
0.5
 41
-30.0
 62
     5
 63
     7
 74
     1
 91
        0
 64
     7
 65
   257
 75
     1
175
     1
 42
1.0
 92
        8
 66
     7
 43
1.0
 76
     1
 77
     6
 78
     2
 67
     7
 79
     3
170
     0
171
     0
290
     0
174
     0
 93
       13
 44
0.0
173
     0
291
     0
 45
0.0
1001
ACAD
1000
AcDbSavedByObjectVersion
1070
     0
  0
DICTIONARYVAR
  5
36B
102
{ACAD_REACTORS
330
2AA
102
}
330
2AA
100
DictionaryVariables
280
     0
  1
1:1
  0
DICTIONARYVAR
  5
369
102
{ACAD_REACTORS
330
2AA
102
}
330
2AA
100
DictionaryVariables
280
     0
  1
STANDARD
  0
DICTIONARYVAR
  5
312
102
{ACAD_REACTORS
330
2AA
102
}
330
2AA
100
DictionaryVariables
280
     0
  1
STANDARD
  0
DICTIONARYVAR
  5
2AB
102
{ACAD_REACTORS
330
2AA
102
}
330
2AA
100
DictionaryVariables
280
     0
  1
2
  0
DICTIONARYVAR
  5
BE8
102
{ACAD_REACTORS
330
2AA
102
}
330
2AA
100
DictionaryVariables
280
     0
  1
0
  0
DICTIONARYVAR
  5
314
102
{ACAD_REACTORS
330
2AA
102
}
330
2AA
100
DictionaryVariables
280
     0
  1
0
  0
DICTIONARYVAR
  5
BEA
102
{ACAD_REACTORS
330
2AA
102
}
330
2AA
100
DictionaryVariables
280
     0
  1
1
  0
DICTIONARYVAR
  5
BEB
102
{ACAD_REACTORS
330
2AA
102
}
330
2AA
100
DictionaryVariables
280
     0
  1
15
  0
DICTIONARYVAR
  5
36C
102
{ACAD_REACTORS
330
2AA
102
}
330
2AA
100
DictionaryVariables
280
     0
  1
0
  0
DICTIONARYVAR
  5
BE9
102
{ACAD_REACTORS
330
2AA
102
}
330
2AA
100
DictionaryVariables
280
     0
  1
10.000000
  0
DICTIONARYVAR
  5
36A
102
{ACAD_REACTORS
330
2AA
102
}
330
2AA
100
DictionaryVariables
280
     0
  1
0
  0
DICTIONARYVAR
  5
313
102
{ACAD_REACTORS
330
2AA
102
}
330
2AA
100
DictionaryVariables
280
     0
  1
127
  0
DICTIONARYVAR
  5
F37
102
{ACAD_REACTORS
330
2AA
102
}
330
2AA
100
DictionaryVariables
280
     0
  1
0
  0
XRECORD
  5
51
102
{ACAD_REACTORS
330
50
102
}
330
50
100
AcDbXrecord
280
     1
 91
        0
  0
ACAD_PROXY_OBJECT
  5
6DA
102
{ACAD_REACTORS
330
6D9
102
}
330
6D9
100
AcDbProxyObject
 90
      499
 91
      512
 95
  3276827
 70
     0
 93
      153
310
407907440045004600410055004C0054007A00CC
 94
        0
1001
ACAD
1000
AcRTDxfName
1000
ACDBQSCATEGORY
  0
ACAD_PROXY_OBJECT
  5
6EC
102
{ACAD_REACTORS
330
6EB
102
}
330
6EB
100
AcDbProxyObject
 90
      499
 91
      513
 95
  3276827
 70
     0
 93
     2908
310
40B520280D55480A0281203520280A0280C0000000000000A200000000000000448080C00000000000019200000000000000688120280A0280A0E88008A008C008200AA009800A80082280027802980170020E88008A008C008200AA009800A80080A180202860120C86009E008800920086008A008A220024802680228027
310
00298024802780270024802F8022002480268018801680220024802680190024EA2007400B800A200A600BE00A4008A00A8008A00B80082009A00840092008A009C00A8009200B800A8009E00A000BE00880092008A00A400A4008A00B800A8008200840060005C008800AE008E0095A8801D002E00288029802F802900228
310
02A0022802E002080268021002480228027002A0024802E002A00278028002F802200248022802900290022802E002A00278028002F802800208026002600170022002B80238020C86009E008800920086008A0085A200228029802180290024802D00248027802700228050413C
 94
        0
1001
ACAD
1000
AcRTDxfName
1000
ACDBQSPALLSTYLE
  0
XRECORD
  5
F08
102
{ACAD_REACTORS
330
F03
102
}
330
F03
100
AcDbXrecord
280
     1
  9
X2ec3
  0
XRECORD
  5
F05
102
{ACAD_REACTORS
330
F03
102
}
330
F03
100
AcDbXrecord
280
     1
  2
TAPPO Q20 # 2 GRIGIO
  3
P-5837
  6
X2ec3
280
     1
310
6465736372697A696F6E6500544150504F20513230202320322047524947494F00444154410032382F30392F30390064697365676E61746F7265004D6172636F20412E00717461003100554D004E52005245560030004445534352495A494F4E453200303034470024736F7572636500416E61677261666963612047657374696F6E616C6500434F44494345005843333031323047004D4154455249414C45004E594C4F4E0000
 10
611.4515461533046
 20
750.7993981286124
 30
0.0
  0
XRECORD
  5
F04
102
{ACAD_REACTORS
330
F03
102
}
330
F03
100
AcDbXrecord
280
     1
  2
TAPPO Q20 /PE RAL 7039
  3
P-0000
280
     1
310
6465736372697A696F6E6500544150504F20513230202F50452052414C203730333900444154410032382F30392F303900554D004E520052455600300044495345474E41544F5245004D6172636F20412E005343414C4100313A3130005154410031004D4154455249414C450050452052414C203730333900434F44494345005843333031323047002E666D7400340000
 10
0.0
 20
0.0
 30
0.0
  0
XRECORD
  5
F06
102
{ACAD_REACTORS
330
F03
102
}
330
F03
100
AcDbXrecord
280
     1
  2
.1
  3
P-09EB
  6
X2ec3
280
     1
310
6465736372697A696F6E65002E3100444154410032382F30392F30390064697365676E61746F7265004D6172636F20412E00717461003100554D004E520052455600300000
 10
0.0
 20
0.0
 30
0.0
  0
XRECORD
  5
F07
102
{ACAD_REACTORS
330
F03
102
}
330
F03
100
AcDbXrecord
280
     1
  2
.cart
  3
P-6B8B
  6
X2ec3
280
     1
310
6465736372697A696F6E65002E6361727400444154410032382F30392F30390064697365676E61746F7265004D6172636F20412E00717461003100554D004E52005245560030005343414C4100313A31300000
 10
0.0
 20
0.0
 30
0.0
  0
XRECORD
  5
6E1
102
{ACAD_REACTORS
330
6E0
102
}
330
6E0
100
AcDbXrecord
280
     1
 90
      202
 91
      144
  0
DICTIONARY
  5
F3F
330
48
100
AcDbDictionary
280
     1
281
     1
  3
ACAD_XREC_ROUNDTRIP
360
F40
  0
DICTIONARY
  5
F3D
330
47
100
AcDbDictionary
280
     1
281
     1
  3
ACAD_XREC_ROUNDTRIP
360
F3E
  0
DICTIONARY
  5
F43
330
2B2
100
AcDbDictionary
280
     1
281
     1
  3
ACAD_XREC_ROUNDTRIP
360
F44
  0
DICTIONARY
  5
F41
330
2B1
100
AcDbDictionary
280
     1
281
     1
  3
ACAD_XREC_ROUNDTRIP
360
F42
  0
DICTIONARY
  5
F45
330
2B3
100
AcDbDictionary
280
     1
281
     1
  3
ACAD_XREC_ROUNDTRIP
360
F46
  0
DICTIONARY
  5
F68
330
DCB
100
AcDbDictionary
280
     1
281
     1
  3
ACAD_XREC_ROUNDTRIP
360
F69
  0
DICTIONARY
  5
F6A
330
DCC
100
AcDbDictionary
280
     1
281
     1
  3
ACAD_XREC_ROUNDTRIP
360
F6B
  0
DICTIONARY
  5
F6C
330
DCD
100
AcDbDictionary
280
     1
281
     1
  3
ACAD_XREC_ROUNDTRIP
360
F6D
  0
DICTIONARY
  5
F6E
330
DCE
100
AcDbDictionary
280
     1
281
     1
  3
ACAD_XREC_ROUNDTRIP
360
F6F
  0
DICTIONARY
  5
F70
330
DCF
100
AcDbDictionary
280
     1
281
     1
  3
ACAD_XREC_ROUNDTRIP
360
F71
  0
DICTIONARY
  5
362
330
2C7
100
AcDbDictionary
280
     1
281
     1
  3
ACAD_ROUNDTRIP_2008_TABLESTYLE_CELLSTYLEMAP
360
F38
  3
ACAD_XREC_ROUNDTRIP
360
F67
  0
DICTIONARY
  5
F51
330
2BA
100
AcDbDictionary
280
     1
281
     1
  3
ACAD_XREC_ROUNDTRIP
360
F52
  0
DICTIONARY
  5
F55
330
2BC
100
AcDbDictionary
280
     1
281
     1
  3
ACAD_XREC_ROUNDTRIP
360
F56
  0
DICTIONARY
  5
F53
330
2BB
100
AcDbDictionary
280
     1
281
     1
  3
ACAD_XREC_ROUNDTRIP
360
F54
  0
DICTIONARY
  5
F4F
330
2B9
100
AcDbDictionary
280
     1
281
     1
  3
ACAD_XREC_ROUNDTRIP
360
F50
  0
DICTIONARY
  5
F5D
330
2C0
100
AcDbDictionary
280
     1
281
     1
  3
ACAD_XREC_ROUNDTRIP
360
F5E
  0
DICTIONARY
  5
F65
330
2C4
100
AcDbDictionary
280
     1
281
     1
  3
ACAD_XREC_ROUNDTRIP
360
F66
  0
DICTIONARY
  5
F57
330
2BD
100
AcDbDictionary
280
     1
281
     1
  3
ACAD_XREC_ROUNDTRIP
360
F58
  0
DICTIONARY
  5
F5B
330
2BF
100
AcDbDictionary
280
     1
281
     1
  3
ACAD_XREC_ROUNDTRIP
360
F5C
  0
DICTIONARY
  5
F84
330
F14
100
AcDbDictionary
280
     1
281
     1
  3
ACAD_XREC_ROUNDTRIP
360
F85
  0
DICTIONARY
  5
F63
330
2C3
100
AcDbDictionary
280
     1
281
     1
  3
ACAD_XREC_ROUNDTRIP
360
F64
  0
DICTIONARY
  5
F47
330
2B5
100
AcDbDictionary
280
     1
281
     1
  3
ACAD_XREC_ROUNDTRIP
360
F48
  0
DICTIONARY
  5
F49
330
2B6
100
AcDbDictionary
280
     1
281
     1
  3
ACAD_XREC_ROUNDTRIP
360
F4A
  0
DICTIONARY
  5
F4B
330
2B7
100
AcDbDictionary
280
     1
281
     1
  3
ACAD_XREC_ROUNDTRIP
360
F4C
  0
DICTIONARY
  5
F4D
330
2B8
100
AcDbDictionary
280
     1
281
     1
  3
ACAD_XREC_ROUNDTRIP
360
F4E
  0
DICTIONARY
  5
F74
330
F0C
100
AcDbDictionary
280
     1
281
     1
  3
ACAD_XREC_ROUNDTRIP
360
F75
  0
DICTIONARY
  5
F80
330
F12
100
AcDbDictionary
280
     1
281
     1
  3
ACAD_XREC_ROUNDTRIP
360
F81
  0
DICTIONARY
  5
F61
330
2C2
100
AcDbDictionary
280
     1
281
     1
  3
ACAD_XREC_ROUNDTRIP
360
F62
  0
DICTIONARY
  5
F82
330
F13
100
AcDbDictionary
280
     1
281
     1
  3
ACAD_XREC_ROUNDTRIP
360
F83
  0
DICTIONARY
  5
F59
330
2BE
100
AcDbDictionary
280
     1
281
     1
  3
ACAD_XREC_ROUNDTRIP
360
F5A
  0
DICTIONARY
  5
F7E
330
F11
100
AcDbDictionary
280
     1
281
     1
  3
ACAD_XREC_ROUNDTRIP
360
F7F
  0
DICTIONARY
  5
F7C
330
F10
100
AcDbDictionary
280
     1
281
     1
  3
ACAD_XREC_ROUNDTRIP
360
F7D
  0
DICTIONARY
  5
F76
330
F0D
100
AcDbDictionary
280
     1
281
     1
  3
ACAD_XREC_ROUNDTRIP
360
F77
  0
DICTIONARY
  5
F78
330
F0E
100
AcDbDictionary
280
     1
281
     1
  3
ACAD_XREC_ROUNDTRIP
360
F79
  0
DICTIONARY
  5
F5F
330
2C1
100
AcDbDictionary
280
     1
281
     1
  3
ACAD_XREC_ROUNDTRIP
360
F60
  0
DICTIONARY
  5
F72
330
F0B
100
AcDbDictionary
280
     1
281
     1
  3
ACAD_XREC_ROUNDTRIP
360
F73
  0
DICTIONARY
  5
F7A
330
F0F
100
AcDbDictionary
280
     1
281
     1
  3
ACAD_XREC_ROUNDTRIP
360
F7B
  0
XRECORD
  5
F40
102
{ACAD_REACTORS
330
F3F
102
}
330
F3F
100
AcDbXrecord
280
     1
102
SHADEPLOT
 70
     0
102
SHADEPLOTRESLEVEL
 70
     2
102
SHADEPLOTCUSTOMDPI
 70
   300
  0
XRECORD
  5
F3E
102
{ACAD_REACTORS
330
F3D
102
}
330
F3D
100
AcDbXrecord
280
     1
102
SHADEPLOT
 70
     0
102
SHADEPLOTRESLEVEL
 70
     2
102
SHADEPLOTCUSTOMDPI
 70
   300
  0
XRECORD
  5
F44
102
{ACAD_REACTORS
330
F43
102
}
330
F43
100
AcDbXrecord
280
     1
102
MATERIAL
148
0.0
149
0.0
149
0.0
 93
        0
 94
       63
282
     0
 72
     1
 77
     1
171
     1
175
     1
179
     1
273
     0
  0
XRECORD
  5
F42
102
{ACAD_REACTORS
330
F41
102
}
330
F41
100
AcDbXrecord
280
     1
102
MATERIAL
148
0.0
149
0.0
149
0.0
 93
        0
 94
       63
282
     0
 72
     1
 77
     1
171
     1
175
     1
179
     1
273
     0
  0
XRECORD
  5
F46
102
{ACAD_REACTORS
330
F45
102
}
330
F45
100
AcDbXrecord
280
     1
102
MATERIAL
148
0.0
149
0.0
149
0.0
 93
        0
 94
       63
282
     0
 72
     1
 77
     1
171
     1
175
     1
179
     1
273
     0
  0
XRECORD
  5
F69
102
{ACAD_REACTORS
330
F68
102
}
330
F68
100
AcDbXrecord
280
     1
102
SHADEPLOT
 70
     0
102
SHADEPLOTRESLEVEL
 70
     2
102
SHADEPLOTCUSTOMDPI
 70
   300
  0
XRECORD
  5
F6B
102
{ACAD_REACTORS
330
F6A
102
}
330
F6A
100
AcDbXrecord
280
     1
102
SHADEPLOT
 70
     0
102
SHADEPLOTRESLEVEL
 70
     2
102
SHADEPLOTCUSTOMDPI
 70
   300
  0
XRECORD
  5
F6D
102
{ACAD_REACTORS
330
F6C
102
}
330
F6C
100
AcDbXrecord
280
     1
102
SHADEPLOT
 70
     0
102
SHADEPLOTRESLEVEL
 70
     2
102
SHADEPLOTCUSTOMDPI
 70
   300
  0
XRECORD
  5
F6F
102
{ACAD_REACTORS
330
F6E
102
}
330
F6E
100
AcDbXrecord
280
     1
102
SHADEPLOT
 70
     0
102
SHADEPLOTRESLEVEL
 70
     2
102
SHADEPLOTCUSTOMDPI
 70
   300
  0
XRECORD
  5
F71
102
{ACAD_REACTORS
330
F70
102
}
330
F70
100
AcDbXrecord
280
     1
102
SHADEPLOT
 70
     0
102
SHADEPLOTRESLEVEL
 70
     2
102
SHADEPLOTCUSTOMDPI
 70
   300
  0
CELLSTYLEMAP
  5
F38
102
{ACAD_REACTORS
330
362
102
}
330
362
100
AcDbCellStyleMap
 90
        3
300
CELLSTYLE
  1
TABLEFORMAT_BEGIN
 90
        5
170
     1
 91
        0
 92
    32768
 62
   257
 93
        1
300
CONTENTFORMAT
  1
CONTENTFORMAT_BEGIN
 90
        0
 91
        0
 92
      512
 93
        0
300

 40
0.0
140
1.0
 94
        5
 62
     0
340
C
144
6.0
309
CONTENTFORMAT_END
171
     1
301
MARGIN
  1
CELLMARGIN_BEGIN
 40
1.5
 40
1.5
 40
1.5
 40
1.5
 40
0.18
 40
0.18
309
CELLMARGIN_END
 94
        6
 95
        1
302
GRIDFORMAT
  1
GRIDFORMAT_BEGIN
 90
        0
 91
        1
 62
     0
 92
       -2
340
0
 93
        0
 40
0.045
309
GRIDFORMAT_END
 95
        2
302
GRIDFORMAT
  1
GRIDFORMAT_BEGIN
 90
        0
 91
        1
 62
     0
 92
       -2
340
0
 93
        0
 40
0.045
309
GRIDFORMAT_END
 95
        4
302
GRIDFORMAT
  1
GRIDFORMAT_BEGIN
 90
        0
 91
        1
 62
     0
 92
       -2
340
0
 93
        0
 40
0.045
309
GRIDFORMAT_END
 95
        8
302
GRIDFORMAT
  1
GRIDFORMAT_BEGIN
 90
        0
 91
        1
 62
     0
 92
       -2
340
0
 93
        0
 40
0.045
309
GRIDFORMAT_END
 95
       16
302
GRIDFORMAT
  1
GRIDFORMAT_BEGIN
 90
        0
 91
        1
 62
     0
 92
       -2
340
0
 93
        0
 40
0.045
309
GRIDFORMAT_END
 95
       32
302
GRIDFORMAT
  1
GRIDFORMAT_BEGIN
 90
        0
 91
        1
 62
     0
 92
       -2
340
0
 93
        0
 40
0.045
309
GRIDFORMAT_END
309
TABLEFORMAT_END
  1
CELLSTYLE_BEGIN
 90
        1
 91
        1
300
_TITLE
309
CELLSTYLE_END
300
CELLSTYLE
  1
TABLEFORMAT_BEGIN
 90
        5
170
     1
 91
        0
 92
        0
 62
   257
 93
        1
300
CONTENTFORMAT
  1
CONTENTFORMAT_BEGIN
 90
        0
 91
        0
 92
      512
 93
        0
300

 40
0.0
140
1.0
 94
        5
 62
     0
340
C
144
4.5
309
CONTENTFORMAT_END
171
     1
301
MARGIN
  1
CELLMARGIN_BEGIN
 40
1.5
 40
1.5
 40
1.5
 40
1.5
 40
0.18
 40
0.18
309
CELLMARGIN_END
 94
        6
 95
        1
302
GRIDFORMAT
  1
GRIDFORMAT_BEGIN
 90
        0
 91
        1
 62
     0
 92
       -2
340
0
 93
        0
 40
0.045
309
GRIDFORMAT_END
 95
        2
302
GRIDFORMAT
  1
GRIDFORMAT_BEGIN
 90
        0
 91
        1
 62
     0
 92
       -2
340
0
 93
        0
 40
0.045
309
GRIDFORMAT_END
 95
        4
302
GRIDFORMAT
  1
GRIDFORMAT_BEGIN
 90
        0
 91
        1
 62
     0
 92
       -2
340
0
 93
        0
 40
0.045
309
GRIDFORMAT_END
 95
        8
302
GRIDFORMAT
  1
GRIDFORMAT_BEGIN
 90
        0
 91
        1
 62
     0
 92
       -2
340
0
 93
        0
 40
0.045
309
GRIDFORMAT_END
 95
       16
302
GRIDFORMAT
  1
GRIDFORMAT_BEGIN
 90
        0
 91
        1
 62
     0
 92
       -2
340
0
 93
        0
 40
0.045
309
GRIDFORMAT_END
 95
       32
302
GRIDFORMAT
  1
GRIDFORMAT_BEGIN
 90
        0
 91
        1
 62
     0
 92
       -2
340
0
 93
        0
 40
0.045
309
GRIDFORMAT_END
309
TABLEFORMAT_END
  1
CELLSTYLE_BEGIN
 90
        2
 91
        1
300
_HEADER
309
CELLSTYLE_END
300
CELLSTYLE
  1
TABLEFORMAT_BEGIN
 90
        5
170
     1
 91
        0
 92
        0
 62
   257
 93
        1
300
CONTENTFORMAT
  1
CONTENTFORMAT_BEGIN
 90
        0
 91
        0
 92
      512
 93
        0
300

 40
0.0
140
1.0
 94
        2
 62
     0
340
C
144
4.5
309
CONTENTFORMAT_END
171
     1
301
MARGIN
  1
CELLMARGIN_BEGIN
 40
1.5
 40
1.5
 40
1.5
 40
1.5
 40
0.18
 40
0.18
309
CELLMARGIN_END
 94
        6
 95
        1
302
GRIDFORMAT
  1
GRIDFORMAT_BEGIN
 90
        0
 91
        1
 62
     0
 92
       -2
340
0
 93
        0
 40
0.045
309
GRIDFORMAT_END
 95
        2
302
GRIDFORMAT
  1
GRIDFORMAT_BEGIN
 90
        0
 91
        1
 62
     0
 92
       -2
340
0
 93
        0
 40
0.045
309
GRIDFORMAT_END
 95
        4
302
GRIDFORMAT
  1
GRIDFORMAT_BEGIN
 90
        0
 91
        1
 62
     0
 92
       -2
340
0
 93
        0
 40
0.045
309
GRIDFORMAT_END
 95
        8
302
GRIDFORMAT
  1
GRIDFORMAT_BEGIN
 90
        0
 91
        1
 62
     0
 92
       -2
340
0
 93
        0
 40
0.045
309
GRIDFORMAT_END
 95
       16
302
GRIDFORMAT
  1
GRIDFORMAT_BEGIN
 90
        0
 91
        1
 62
     0
 92
       -2
340
0
 93
        0
 40
0.045
309
GRIDFORMAT_END
 95
       32
302
GRIDFORMAT
  1
GRIDFORMAT_BEGIN
 90
        0
 91
        1
 62
     0
 92
       -2
340
0
 93
        0
 40
0.045
309
GRIDFORMAT_END
309
TABLEFORMAT_END
  1
CELLSTYLE_BEGIN
 90
        3
 91
        2
300
_DATA
309
CELLSTYLE_END
  0
XRECORD
  5
F67
102
{ACAD_REACTORS
330
362
102
}
330
362
100
AcDbXrecord
280
     1
102
ACAD_ROUNDTRIP_PRE2007_TABLESTYLE
 90
      512
 91
        0
  1

 92
      512
 93
        0
  2

 94
      512
 95
        0
  3

  0
XRECORD
  5
F52
102
{ACAD_REACTORS
330
F51
102
}
330
F51
100
AcDbXrecord
280
     1
102
RTVSPropertyOp0
 70
     1
102
RTVSPropertyOp1
 70
     1
102
RTVSPropertyOp2
 70
     1
102
RTVSPropertyOp3
 70
     1
102
RTVSPropertyOp4
 70
     1
102
RTVSPropertyOp5
 70
     1
102
RTVSPropertyOp6
 70
     1
102
RTVSPropertyOp7
 70
     1
102
RTVSPropertyOp8
 70
     1
102
RTVSPropertyOp9
 70
     1
102
RTVSPropertyOp10
 70
     1
102
RTVSPropertyOp11
 70
     1
102
RTVSPropertyOp12
 70
     1
102
RTVSPropertyOp13
 70
     1
102
RTVSPropertyOp14
 70
     1
102
RTVSPropertyOp15
 70
     1
102
RTVSPropertyOp16
 70
     1
102
RTVSPropertyOp17
 70
     1
102
RTVSPropertyOp18
 70
     1
102
RTVSPropertyOp19
 70
     1
102
RTVSPropertyOp20
 70
     1
102
RTVSPropertyOp21
 70
     1
102
RTVSPropertyOp22
 70
     1
102
RTVSPropertyOp23
 70
     1
102
RTVSPropertyOp24
 70
     1
102
RTVSPropertyOp25
 70
     1
102
RTVSPropertyOp26
 70
     1
102
RTVSPropertyOp27
 70
     1
102
RTVSPropertyOp28
 70
     1
102
RTVSPropertyOp29
 70
     1
102
RTVSPropertyOp30
 70
     1
102
RTVSPropertyOp31
 70
     1
102
RTVSPropertyOp32
 70
     1
  0
XRECORD
  5
F56
102
{ACAD_REACTORS
330
F55
102
}
330
F55
100
AcDbXrecord
280
     1
102
RTVSPropertyOp0
 70
     1
102
RTVSPropertyOp1
 70
     1
102
RTVSPropertyOp2
 70
     1
102
RTVSPropertyOp3
 70
     1
102
RTVSPropertyOp4
 70
     1
102
RTVSPropertyOp5
 70
     1
102
RTVSPropertyOp6
 70
     1
102
RTVSPropertyOp7
 70
     1
102
RTVSPropertyOp8
 70
     1
102
RTVSPropertyOp9
 70
     1
102
RTVSPropertyOp10
 70
     1
102
RTVSPropertyOp11
 70
     1
102
RTVSPropertyOp12
 70
     1
102
RTVSPropertyOp13
 70
     1
102
RTVSPropertyOp14
 70
     1
102
RTVSPropertyOp15
 70
     1
102
RTVSPropertyOp16
 70
     1
102
RTVSPropertyOp17
 70
     1
102
RTVSPropertyOp18
 70
     1
102
RTVSPropertyOp19
 70
     1
102
RTVSPropertyOp20
 70
     1
102
RTVSPropertyOp21
 70
     1
102
RTVSPropertyOp22
 70
     1
102
RTVSPropertyOp23
 70
     1
102
RTVSPropertyOp24
 70
     1
102
RTVSPropertyOp25
 70
     1
102
RTVSPropertyOp26
 70
     1
102
RTVSPropertyOp27
 70
     1
102
RTVSPropertyOp28
 70
     1
102
RTVSPropertyOp29
 70
     1
102
RTVSPropertyOp30
 70
     1
102
RTVSPropertyOp31
 70
     1
102
RTVSPropertyOp32
 70
     1
  0
XRECORD
  5
F54
102
{ACAD_REACTORS
330
F53
102
}
330
F53
100
AcDbXrecord
280
     1
102
RTVSPropertyOp0
 70
     1
102
RTVSPropertyOp1
 70
     1
102
RTVSPropertyOp2
 70
     1
102
RTVSPropertyOp3
 70
     1
102
RTVSPropertyOp4
 70
     1
102
RTVSPropertyOp5
 70
     1
102
RTVSPropertyOp6
 70
     1
102
RTVSPropertyOp7
 70
     1
102
RTVSPropertyOp8
 70
     1
102
RTVSPropertyOp9
 70
     1
102
RTVSPropertyOp10
 70
     1
102
RTVSPropertyOp11
 70
     1
102
RTVSPropertyOp12
 70
     1
102
RTVSPropertyOp13
 70
     1
102
RTVSPropertyOp14
 70
     1
102
RTVSPropertyOp15
 70
     1
102
RTVSPropertyOp16
 70
     1
102
RTVSPropertyOp17
 70
     1
102
RTVSPropertyOp18
 70
     1
102
RTVSPropertyOp19
 70
     1
102
RTVSPropertyOp20
 70
     1
102
RTVSPropertyOp21
 70
     1
102
RTVSPropertyOp22
 70
     1
102
RTVSPropertyOp23
 70
     1
102
RTVSPropertyOp24
 70
     1
102
RTVSPropertyOp25
 70
     1
102
RTVSPropertyOp26
 70
     1
102
RTVSPropertyOp27
 70
     1
102
RTVSPropertyOp28
 70
     1
102
RTVSPropertyOp29
 70
     1
102
RTVSPropertyOp30
 70
     1
102
RTVSPropertyOp31
 70
     1
102
RTVSPropertyOp32
 70
     1
  0
XRECORD
  5
F50
102
{ACAD_REACTORS
330
F4F
102
}
330
F4F
100
AcDbXrecord
280
     1
102
RTVSPropertyOp0
 70
     1
102
RTVSPropertyOp1
 70
     1
102
RTVSPropertyOp2
 70
     1
102
RTVSPropertyOp3
 70
     1
102
RTVSPropertyOp4
 70
     1
102
RTVSPropertyOp5
 70
     1
102
RTVSPropertyOp6
 70
     1
102
RTVSPropertyOp7
 70
     1
102
RTVSPropertyOp8
 70
     1
102
RTVSPropertyOp9
 70
     1
102
RTVSPropertyOp10
 70
     1
102
RTVSPropertyOp11
 70
     1
102
RTVSPropertyOp12
 70
     1
102
RTVSPropertyOp13
 70
     1
102
RTVSPropertyOp14
 70
     1
102
RTVSPropertyOp15
 70
     1
102
RTVSPropertyOp16
 70
     1
102
RTVSPropertyOp17
 70
     1
102
RTVSPropertyOp18
 70
     1
102
RTVSPropertyOp19
 70
     1
102
RTVSPropertyOp20
 70
     1
102
RTVSPropertyOp21
 70
     1
102
RTVSPropertyOp22
 70
     1
102
RTVSPropertyOp23
 70
     1
102
RTVSPropertyOp24
 70
     1
102
RTVSPropertyOp25
 70
     1
102
RTVSPropertyOp26
 70
     1
102
RTVSPropertyOp27
 70
     1
102
RTVSPropertyOp28
 70
     1
102
RTVSPropertyOp29
 70
     1
102
RTVSPropertyOp30
 70
     1
102
RTVSPropertyOp31
 70
     1
102
RTVSPropertyOp32
 70
     1
  0
XRECORD
  5
F5E
102
{ACAD_REACTORS
330
F5D
102
}
330
F5D
100
AcDbXrecord
280
     1
102
RTVSPropertyOp0
 70
     1
102
RTVSPropertyOp1
 70
     1
102
RTVSPropertyOp2
 70
     1
102
RTVSPropertyOp3
 70
     1
102
RTVSPropertyOp4
 70
     1
102
RTVSPropertyOp5
 70
     1
102
RTVSPropertyOp6
 70
     1
102
RTVSPropertyOp7
 70
     1
102
RTVSPropertyOp8
 70
     1
102
RTVSPropertyOp9
 70
     1
102
RTVSPropertyOp10
 70
     1
102
RTVSPropertyOp11
 70
     1
102
RTVSPropertyOp12
 70
     1
102
RTVSPropertyOp13
 70
     1
102
RTVSPropertyOp14
 70
     1
102
RTVSPropertyOp15
 70
     1
102
RTVSPropertyOp16
 70
     1
102
RTVSPropertyOp17
 70
     1
102
RTVSPropertyOp18
 70
     1
102
RTVSPropertyOp19
 70
     1
102
RTVSPropertyOp20
 70
     1
102
RTVSPropertyOp21
 70
     1
102
RTVSPropertyOp22
 70
     1
102
RTVSPropertyOp23
 70
     1
102
RTVSPropertyOp24
 70
     1
102
RTVSPropertyOp25
 70
     1
102
RTVSPropertyOp26
 70
     1
102
RTVSPropertyOp27
 70
     1
102
RTVSPropertyOp28
 70
     1
102
RTVSPropertyOp29
 70
     1
102
RTVSPropertyOp30
 70
     1
102
RTVSPropertyOp31
 70
     1
102
RTVSPropertyOp32
 70
     1
  0
XRECORD
  5
F66
102
{ACAD_REACTORS
330
F65
102
}
330
F65
100
AcDbXrecord
280
     1
102
RTVSPropertyOp0
 70
     1
102
RTVSPropertyOp1
 70
     1
102
RTVSPropertyOp2
 70
     1
102
RTVSPropertyOp3
 70
     1
102
RTVSPropertyOp4
 70
     1
102
RTVSPropertyOp5
 70
     1
102
RTVSPropertyOp6
 70
     1
102
RTVSPropertyOp7
 70
     1
102
RTVSPropertyOp8
 70
     1
102
RTVSPropertyOp9
 70
     1
102
RTVSPropertyOp10
 70
     1
102
RTVSPropertyOp11
 70
     1
102
RTVSPropertyOp12
 70
     1
102
RTVSPropertyOp13
 70
     1
102
RTVSPropertyOp14
 70
     1
102
RTVSPropertyOp15
 70
     1
102
RTVSPropertyOp16
 70
     1
102
RTVSPropertyOp17
 70
     1
102
RTVSPropertyOp18
 70
     1
102
RTVSPropertyOp19
 70
     1
102
RTVSPropertyOp20
 70
     1
102
RTVSPropertyOp21
 70
     1
102
RTVSPropertyOp22
 70
     1
102
RTVSPropertyOp23
 70
     1
102
RTVSPropertyOp24
 70
     1
102
RTVSPropertyOp25
 70
     1
102
RTVSPropertyOp26
 70
     1
102
RTVSPropertyOp27
 70
     1
102
RTVSPropertyOp28
 70
     1
102
RTVSPropertyOp29
 70
     1
102
RTVSPropertyOp30
 70
     1
102
RTVSPropertyOp31
 70
     1
102
RTVSPropertyOp32
 70
     1
  0
XRECORD
  5
F58
102
{ACAD_REACTORS
330
F57
102
}
330
F57
100
AcDbXrecord
280
     1
102
RTVSPropertyOp0
 70
     1
102
RTVSPropertyOp1
 70
     1
102
RTVSPropertyOp2
 70
     1
102
RTVSPropertyOp3
 70
     1
102
RTVSPropertyOp4
 70
     1
102
RTVSPropertyOp5
 70
     1
102
RTVSPropertyOp6
 70
     1
102
RTVSPropertyOp7
 70
     1
102
RTVSPropertyOp8
 70
     1
102
RTVSPropertyOp9
 70
     1
102
RTVSPropertyOp10
 70
     1
102
RTVSPropertyOp11
 70
     1
102
RTVSPropertyOp12
 70
     1
102
RTVSPropertyOp13
 70
     1
102
RTVSPropertyOp14
 70
     1
102
RTVSPropertyOp15
 70
     1
102
RTVSPropertyOp16
 70
     1
102
RTVSPropertyOp17
 70
     1
102
RTVSPropertyOp18
 70
     1
102
RTVSPropertyOp19
 70
     1
102
RTVSPropertyOp20
 70
     1
102
RTVSPropertyOp21
 70
     1
102
RTVSPropertyOp22
 70
     1
102
RTVSPropertyOp23
 70
     1
102
RTVSPropertyOp24
 70
     1
102
RTVSPropertyOp25
 70
     1
102
RTVSPropertyOp26
 70
     1
102
RTVSPropertyOp27
 70
     1
102
RTVSPropertyOp28
 70
     1
102
RTVSPropertyOp29
 70
     1
102
RTVSPropertyOp30
 70
     1
102
RTVSPropertyOp31
 70
     1
102
RTVSPropertyOp32
 70
     1
  0
XRECORD
  5
F5C
102
{ACAD_REACTORS
330
F5B
102
}
330
F5B
100
AcDbXrecord
280
     1
102
RTVSPropertyOp0
 70
     1
102
RTVSPropertyOp1
 70
     1
102
RTVSPropertyOp2
 70
     1
102
RTVSPropertyOp3
 70
     1
102
RTVSPropertyOp4
 70
     1
102
RTVSPropertyOp5
 70
     1
102
RTVSPropertyOp6
 70
     1
102
RTVSPropertyOp7
 70
     1
102
RTVSPropertyOp8
 70
     1
102
RTVSPropertyOp9
 70
     1
102
RTVSPropertyOp10
 70
     1
102
RTVSPropertyOp11
 70
     1
102
RTVSPropertyOp12
 70
     1
102
RTVSPropertyOp13
 70
     1
102
RTVSPropertyOp14
 70
     1
102
RTVSPropertyOp15
 70
     1
102
RTVSPropertyOp16
 70
     1
102
RTVSPropertyOp17
 70
     1
102
RTVSPropertyOp18
 70
     1
102
RTVSPropertyOp19
 70
     1
102
RTVSPropertyOp20
 70
     1
102
RTVSPropertyOp21
 70
     1
102
RTVSPropertyOp22
 70
     1
102
RTVSPropertyOp23
 70
     1
102
RTVSPropertyOp24
 70
     1
102
RTVSPropertyOp25
 70
     1
102
RTVSPropertyOp26
 70
     1
102
RTVSPropertyOp27
 70
     1
102
RTVSPropertyOp28
 70
     1
102
RTVSPropertyOp29
 70
     1
102
RTVSPropertyOp30
 70
     1
102
RTVSPropertyOp31
 70
     1
102
RTVSPropertyOp32
 70
     1
  0
XRECORD
  5
F85
102
{ACAD_REACTORS
330
F84
102
}
330
F84
100
AcDbXrecord
280
     1
102
RTVSPropertyOp0
 70
     0
102
RTVSPropertyOp1
 70
     0
102
RTVSPropertyOp2
 70
     0
102
RTVSPropertyOp3
 70
     0
102
RTVSPropertyOp4
 70
     0
102
RTVSPropertyOp5
 70
     0
102
RTVSPropertyOp6
 70
     0
102
RTVSPropertyOp7
 70
     0
102
RTVSPropertyOp8
 70
     0
102
RTVSPropertyOp9
 70
     0
102
RTVSPropertyOp10
 70
     0
102
RTVSPropertyOp11
 70
     0
102
RTVSPropertyOp12
 70
     0
102
RTVSPropertyOp13
 70
     0
102
RTVSPropertyOp14
 70
     2
102
RTVSPropertyOp15
 70
     0
102
RTVSPropertyOp16
 70
     0
102
RTVSPropertyOp17
 70
     0
102
RTVSPropertyOp18
 70
     0
102
RTVSPropertyOp19
 70
     0
102
RTVSPropertyOp20
 70
     0
102
RTVSPropertyOp21
 70
     0
102
RTVSPropertyOp22
 70
     0
102
RTVSPropertyOp23
 70
     0
102
RTVSPropertyOp24
 70
     0
102
RTVSPropertyOp25
 70
     0
102
RTVSPropertyOp26
 70
     0
102
RTVSPropertyOp27
 70
     0
102
RTVSPropertyOp28
 70
     0
102
RTVSPropertyOp29
 70
     0
102
RTVSPropertyOp30
 70
     0
102
RTVSPropertyOp31
 70
     0
102
RTVSPropertyOp32
 70
     0
  0
XRECORD
  5
F64
102
{ACAD_REACTORS
330
F63
102
}
330
F63
100
AcDbXrecord
280
     1
102
RTVSPropertyOp0
 70
     1
102
RTVSPropertyOp1
 70
     1
102
RTVSPropertyOp2
 70
     1
102
RTVSPropertyOp3
 70
     1
102
RTVSPropertyOp4
 70
     1
102
RTVSPropertyOp5
 70
     1
102
RTVSPropertyOp6
 70
     1
102
RTVSPropertyOp7
 70
     1
102
RTVSPropertyOp8
 70
     1
102
RTVSPropertyOp9
 70
     1
102
RTVSPropertyOp10
 70
     1
102
RTVSPropertyOp11
 70
     1
102
RTVSPropertyOp12
 70
     1
102
RTVSPropertyOp13
 70
     1
102
RTVSPropertyOp14
 70
     1
102
RTVSPropertyOp15
 70
     1
102
RTVSPropertyOp16
 70
     1
102
RTVSPropertyOp17
 70
     1
102
RTVSPropertyOp18
 70
     1
102
RTVSPropertyOp19
 70
     1
102
RTVSPropertyOp20
 70
     1
102
RTVSPropertyOp21
 70
     1
102
RTVSPropertyOp22
 70
     1
102
RTVSPropertyOp23
 70
     1
102
RTVSPropertyOp24
 70
     1
102
RTVSPropertyOp25
 70
     1
102
RTVSPropertyOp26
 70
     1
102
RTVSPropertyOp27
 70
     1
102
RTVSPropertyOp28
 70
     1
102
RTVSPropertyOp29
 70
     1
102
RTVSPropertyOp30
 70
     1
102
RTVSPropertyOp31
 70
     1
102
RTVSPropertyOp32
 70
     1
  0
XRECORD
  5
F48
102
{ACAD_REACTORS
330
F47
102
}
330
F47
100
AcDbXrecord
280
     1
102
RTVSPropertyOp0
 70
     1
102
RTVSPropertyOp1
 70
     1
102
RTVSPropertyOp2
 70
     1
102
RTVSPropertyOp3
 70
     1
102
RTVSPropertyOp4
 70
     1
102
RTVSPropertyOp5
 70
     1
102
RTVSPropertyOp6
 70
     1
102
RTVSPropertyOp7
 70
     1
102
RTVSPropertyOp8
 70
     1
102
RTVSPropertyOp9
 70
     1
102
RTVSPropertyOp10
 70
     1
102
RTVSPropertyOp11
 70
     1
102
RTVSPropertyOp12
 70
     1
102
RTVSPropertyOp13
 70
     1
102
RTVSPropertyOp14
 70
     1
102
RTVSPropertyOp15
 70
     1
102
RTVSPropertyOp16
 70
     1
102
RTVSPropertyOp17
 70
     1
102
RTVSPropertyOp18
 70
     1
102
RTVSPropertyOp19
 70
     1
102
RTVSPropertyOp20
 70
     1
102
RTVSPropertyOp21
 70
     1
102
RTVSPropertyOp22
 70
     1
102
RTVSPropertyOp23
 70
     1
102
RTVSPropertyOp24
 70
     1
102
RTVSPropertyOp25
 70
     1
102
RTVSPropertyOp26
 70
     1
102
RTVSPropertyOp27
 70
     1
102
RTVSPropertyOp28
 70
     1
102
RTVSPropertyOp29
 70
     1
102
RTVSPropertyOp30
 70
     1
102
RTVSPropertyOp31
 70
     1
102
RTVSPropertyOp32
 70
     1
  0
XRECORD
  5
F4A
102
{ACAD_REACTORS
330
F49
102
}
330
F49
100
AcDbXrecord
280
     1
102
RTVSPropertyOp0
 70
     1
102
RTVSPropertyOp1
 70
     1
102
RTVSPropertyOp2
 70
     1
102
RTVSPropertyOp3
 70
     1
102
RTVSPropertyOp4
 70
     1
102
RTVSPropertyOp5
 70
     1
102
RTVSPropertyOp6
 70
     1
102
RTVSPropertyOp7
 70
     1
102
RTVSPropertyOp8
 70
     1
102
RTVSPropertyOp9
 70
     1
102
RTVSPropertyOp10
 70
     1
102
RTVSPropertyOp11
 70
     1
102
RTVSPropertyOp12
 70
     1
102
RTVSPropertyOp13
 70
     1
102
RTVSPropertyOp14
 70
     1
102
RTVSPropertyOp15
 70
     1
102
RTVSPropertyOp16
 70
     1
102
RTVSPropertyOp17
 70
     1
102
RTVSPropertyOp18
 70
     1
102
RTVSPropertyOp19
 70
     1
102
RTVSPropertyOp20
 70
     1
102
RTVSPropertyOp21
 70
     1
102
RTVSPropertyOp22
 70
     1
102
RTVSPropertyOp23
 70
     1
102
RTVSPropertyOp24
 70
     1
102
RTVSPropertyOp25
 70
     1
102
RTVSPropertyOp26
 70
     1
102
RTVSPropertyOp27
 70
     1
102
RTVSPropertyOp28
 70
     1
102
RTVSPropertyOp29
 70
     1
102
RTVSPropertyOp30
 70
     1
102
RTVSPropertyOp31
 70
     1
102
RTVSPropertyOp32
 70
     1
  0
XRECORD
  5
F4C
102
{ACAD_REACTORS
330
F4B
102
}
330
F4B
100
AcDbXrecord
280
     1
102
RTVSPropertyOp0
 70
     1
102
RTVSPropertyOp1
 70
     1
102
RTVSPropertyOp2
 70
     1
102
RTVSPropertyOp3
 70
     1
102
RTVSPropertyOp4
 70
     1
102
RTVSPropertyOp5
 70
     1
102
RTVSPropertyOp6
 70
     1
102
RTVSPropertyOp7
 70
     1
102
RTVSPropertyOp8
 70
     1
102
RTVSPropertyOp9
 70
     1
102
RTVSPropertyOp10
 70
     1
102
RTVSPropertyOp11
 70
     1
102
RTVSPropertyOp12
 70
     1
102
RTVSPropertyOp13
 70
     1
102
RTVSPropertyOp14
 70
     1
102
RTVSPropertyOp15
 70
     1
102
RTVSPropertyOp16
 70
     1
102
RTVSPropertyOp17
 70
     1
102
RTVSPropertyOp18
 70
     1
102
RTVSPropertyOp19
 70
     1
102
RTVSPropertyOp20
 70
     1
102
RTVSPropertyOp21
 70
     1
102
RTVSPropertyOp22
 70
     1
102
RTVSPropertyOp23
 70
     1
102
RTVSPropertyOp24
 70
     1
102
RTVSPropertyOp25
 70
     1
102
RTVSPropertyOp26
 70
     1
102
RTVSPropertyOp27
 70
     1
102
RTVSPropertyOp28
 70
     1
102
RTVSPropertyOp29
 70
     1
102
RTVSPropertyOp30
 70
     1
102
RTVSPropertyOp31
 70
     1
102
RTVSPropertyOp32
 70
     1
  0
XRECORD
  5
F4E
102
{ACAD_REACTORS
330
F4D
102
}
330
F4D
100
AcDbXrecord
280
     1
102
RTVSPropertyOp0
 70
     1
102
RTVSPropertyOp1
 70
     1
102
RTVSPropertyOp2
 70
     1
102
RTVSPropertyOp3
 70
     1
102
RTVSPropertyOp4
 70
     1
102
RTVSPropertyOp5
 70
     1
102
RTVSPropertyOp6
 70
     1
102
RTVSPropertyOp7
 70
     1
102
RTVSPropertyOp8
 70
     1
102
RTVSPropertyOp9
 70
     1
102
RTVSPropertyOp10
 70
     1
102
RTVSPropertyOp11
 70
     1
102
RTVSPropertyOp12
 70
     1
102
RTVSPropertyOp13
 70
     1
102
RTVSPropertyOp14
 70
     1
102
RTVSPropertyOp15
 70
     1
102
RTVSPropertyOp16
 70
     1
102
RTVSPropertyOp17
 70
     1
102
RTVSPropertyOp18
 70
     1
102
RTVSPropertyOp19
 70
     1
102
RTVSPropertyOp20
 70
     1
102
RTVSPropertyOp21
 70
     1
102
RTVSPropertyOp22
 70
     1
102
RTVSPropertyOp23
 70
     1
102
RTVSPropertyOp24
 70
     1
102
RTVSPropertyOp25
 70
     1
102
RTVSPropertyOp26
 70
     1
102
RTVSPropertyOp27
 70
     1
102
RTVSPropertyOp28
 70
     1
102
RTVSPropertyOp29
 70
     1
102
RTVSPropertyOp30
 70
     1
102
RTVSPropertyOp31
 70
     1
102
RTVSPropertyOp32
 70
     1
  0
XRECORD
  5
F75
102
{ACAD_REACTORS
330
F74
102
}
330
F74
100
AcDbXrecord
280
     1
102
RTVSPropertyOp0
 70
     1
102
RTVSPropertyOp1
 70
     1
102
RTVSPropertyOp2
 70
     1
102
RTVSPropertyOp3
 70
     1
102
RTVSPropertyOp4
 70
     1
102
RTVSPropertyOp5
 70
     1
102
RTVSPropertyOp6
 70
     1
102
RTVSPropertyOp7
 70
     1
102
RTVSPropertyOp8
 70
     1
102
RTVSPropertyOp9
 70
     1
102
RTVSPropertyOp10
 70
     1
102
RTVSPropertyOp11
 70
     1
102
RTVSPropertyOp12
 70
     1
102
RTVSPropertyOp13
 70
     1
102
RTVSPropertyOp14
 70
     1
102
RTVSPropertyOp15
 70
     1
102
RTVSPropertyOp16
 70
     1
102
RTVSPropertyOp17
 70
     1
102
RTVSPropertyOp18
 70
     1
102
RTVSPropertyOp19
 70
     1
102
RTVSPropertyOp20
 70
     1
102
RTVSPropertyOp21
 70
     1
102
RTVSPropertyOp22
 70
     1
102
RTVSPropertyOp23
 70
     1
102
RTVSPropertyOp24
 70
     1
102
RTVSPropertyOp25
 70
     1
102
RTVSPropertyOp26
 70
     1
102
RTVSPropertyOp27
 70
     1
102
RTVSPropertyOp28
 70
     1
102
RTVSPropertyOp29
 70
     1
102
RTVSPropertyOp30
 70
     1
102
RTVSPropertyOp31
 70
     1
102
RTVSPropertyOp32
 70
     1
  0
XRECORD
  5
F81
102
{ACAD_REACTORS
330
F80
102
}
330
F80
100
AcDbXrecord
280
     1
102
RTVSPropertyOp0
 70
     0
102
RTVSPropertyOp1
 70
     0
102
RTVSPropertyOp2
 70
     0
102
RTVSPropertyOp3
 70
     0
102
RTVSPropertyOp4
 70
     0
102
RTVSPropertyOp5
 70
     0
102
RTVSPropertyOp6
 70
     0
102
RTVSPropertyOp7
 70
     0
102
RTVSPropertyOp8
 70
     0
102
RTVSPropertyOp9
 70
     0
102
RTVSPropertyOp10
 70
     0
102
RTVSPropertyOp11
 70
     0
102
RTVSPropertyOp12
 70
     0
102
RTVSPropertyOp13
 70
     0
102
RTVSPropertyOp14
 70
     2
102
RTVSPropertyOp15
 70
     0
102
RTVSPropertyOp16
 70
     0
102
RTVSPropertyOp17
 70
     0
102
RTVSPropertyOp18
 70
     0
102
RTVSPropertyOp19
 70
     0
102
RTVSPropertyOp20
 70
     0
102
RTVSPropertyOp21
 70
     0
102
RTVSPropertyOp22
 70
     0
102
RTVSPropertyOp23
 70
     0
102
RTVSPropertyOp24
 70
     0
102
RTVSPropertyOp25
 70
     0
102
RTVSPropertyOp26
 70
     0
102
RTVSPropertyOp27
 70
     0
102
RTVSPropertyOp28
 70
     0
102
RTVSPropertyOp29
 70
     0
102
RTVSPropertyOp30
 70
     0
102
RTVSPropertyOp31
 70
     0
102
RTVSPropertyOp32
 70
     0
  0
XRECORD
  5
F62
102
{ACAD_REACTORS
330
F61
102
}
330
F61
100
AcDbXrecord
280
     1
102
RTVSPropertyOp0
 70
     1
102
RTVSPropertyOp1
 70
     1
102
RTVSPropertyOp2
 70
     1
102
RTVSPropertyOp3
 70
     1
102
RTVSPropertyOp4
 70
     1
102
RTVSPropertyOp5
 70
     1
102
RTVSPropertyOp6
 70
     1
102
RTVSPropertyOp7
 70
     1
102
RTVSPropertyOp8
 70
     1
102
RTVSPropertyOp9
 70
     1
102
RTVSPropertyOp10
 70
     1
102
RTVSPropertyOp11
 70
     1
102
RTVSPropertyOp12
 70
     1
102
RTVSPropertyOp13
 70
     1
102
RTVSPropertyOp14
 70
     1
102
RTVSPropertyOp15
 70
     1
102
RTVSPropertyOp16
 70
     1
102
RTVSPropertyOp17
 70
     1
102
RTVSPropertyOp18
 70
     1
102
RTVSPropertyOp19
 70
     1
102
RTVSPropertyOp20
 70
     1
102
RTVSPropertyOp21
 70
     1
102
RTVSPropertyOp22
 70
     1
102
RTVSPropertyOp23
 70
     1
102
RTVSPropertyOp24
 70
     1
102
RTVSPropertyOp25
 70
     1
102
RTVSPropertyOp26
 70
     1
102
RTVSPropertyOp27
 70
     1
102
RTVSPropertyOp28
 70
     1
102
RTVSPropertyOp29
 70
     1
102
RTVSPropertyOp30
 70
     1
102
RTVSPropertyOp31
 70
     1
102
RTVSPropertyOp32
 70
     1
  0
XRECORD
  5
F83
102
{ACAD_REACTORS
330
F82
102
}
330
F82
100
AcDbXrecord
280
     1
102
RTVSPropertyOp0
 70
     0
102
RTVSPropertyOp1
 70
     0
102
RTVSPropertyOp2
 70
     0
102
RTVSPropertyOp3
 70
     0
102
RTVSPropertyOp4
 70
     0
102
RTVSPropertyOp5
 70
     0
102
RTVSPropertyOp6
 70
     0
102
RTVSPropertyOp7
 70
     0
102
RTVSPropertyOp8
 70
     0
102
RTVSPropertyOp9
 70
     0
102
RTVSPropertyOp10
 70
     0
102
RTVSPropertyOp11
 70
     0
102
RTVSPropertyOp12
 70
     0
102
RTVSPropertyOp13
 70
     0
102
RTVSPropertyOp14
 70
     2
102
RTVSPropertyOp15
 70
     0
102
RTVSPropertyOp16
 70
     0
102
RTVSPropertyOp17
 70
     0
102
RTVSPropertyOp18
 70
     0
102
RTVSPropertyOp19
 70
     0
102
RTVSPropertyOp20
 70
     0
102
RTVSPropertyOp21
 70
     0
102
RTVSPropertyOp22
 70
     0
102
RTVSPropertyOp23
 70
     0
102
RTVSPropertyOp24
 70
     0
102
RTVSPropertyOp25
 70
     0
102
RTVSPropertyOp26
 70
     0
102
RTVSPropertyOp27
 70
     0
102
RTVSPropertyOp28
 70
     0
102
RTVSPropertyOp29
 70
     0
102
RTVSPropertyOp30
 70
     0
102
RTVSPropertyOp31
 70
     0
102
RTVSPropertyOp32
 70
     0
  0
XRECORD
  5
F5A
102
{ACAD_REACTORS
330
F59
102
}
330
F59
100
AcDbXrecord
280
     1
102
RTVSPropertyOp0
 70
     1
102
RTVSPropertyOp1
 70
     1
102
RTVSPropertyOp2
 70
     1
102
RTVSPropertyOp3
 70
     1
102
RTVSPropertyOp4
 70
     1
102
RTVSPropertyOp5
 70
     1
102
RTVSPropertyOp6
 70
     1
102
RTVSPropertyOp7
 70
     1
102
RTVSPropertyOp8
 70
     1
102
RTVSPropertyOp9
 70
     1
102
RTVSPropertyOp10
 70
     1
102
RTVSPropertyOp11
 70
     1
102
RTVSPropertyOp12
 70
     1
102
RTVSPropertyOp13
 70
     1
102
RTVSPropertyOp14
 70
     1
102
RTVSPropertyOp15
 70
     1
102
RTVSPropertyOp16
 70
     1
102
RTVSPropertyOp17
 70
     1
102
RTVSPropertyOp18
 70
     1
102
RTVSPropertyOp19
 70
     1
102
RTVSPropertyOp20
 70
     1
102
RTVSPropertyOp21
 70
     1
102
RTVSPropertyOp22
 70
     1
102
RTVSPropertyOp23
 70
     1
102
RTVSPropertyOp24
 70
     1
102
RTVSPropertyOp25
 70
     1
102
RTVSPropertyOp26
 70
     1
102
RTVSPropertyOp27
 70
     1
102
RTVSPropertyOp28
 70
     1
102
RTVSPropertyOp29
 70
     1
102
RTVSPropertyOp30
 70
     1
102
RTVSPropertyOp31
 70
     1
102
RTVSPropertyOp32
 70
     1
  0
XRECORD
  5
F7F
102
{ACAD_REACTORS
330
F7E
102
}
330
F7E
100
AcDbXrecord
280
     1
102
RTVSPropertyOp0
 70
     1
102
RTVSPropertyOp1
 70
     1
102
RTVSPropertyOp2
 70
     1
102
RTVSPropertyOp3
 70
     1
102
RTVSPropertyOp4
 70
     1
102
RTVSPropertyOp5
 70
     1
102
RTVSPropertyOp6
 70
     1
102
RTVSPropertyOp7
 70
     1
102
RTVSPropertyOp8
 70
     1
102
RTVSPropertyOp9
 70
     1
102
RTVSPropertyOp10
 70
     1
102
RTVSPropertyOp11
 70
     1
102
RTVSPropertyOp12
 70
     1
102
RTVSPropertyOp13
 70
     1
102
RTVSPropertyOp14
 70
     1
102
RTVSPropertyOp15
 70
     1
102
RTVSPropertyOp16
 70
     1
102
RTVSPropertyOp17
 70
     1
102
RTVSPropertyOp18
 70
     1
102
RTVSPropertyOp19
 70
     1
102
RTVSPropertyOp20
 70
     1
102
RTVSPropertyOp21
 70
     1
102
RTVSPropertyOp22
 70
     1
102
RTVSPropertyOp23
 70
     1
102
RTVSPropertyOp24
 70
     1
102
RTVSPropertyOp25
 70
     1
102
RTVSPropertyOp26
 70
     1
102
RTVSPropertyOp27
 70
     1
102
RTVSPropertyOp28
 70
     1
102
RTVSPropertyOp29
 70
     1
102
RTVSPropertyOp30
 70
     1
102
RTVSPropertyOp31
 70
     1
102
RTVSPropertyOp32
 70
     1
  0
XRECORD
  5
F7D
102
{ACAD_REACTORS
330
F7C
102
}
330
F7C
100
AcDbXrecord
280
     1
102
RTVSPropertyOp0
 70
     1
102
RTVSPropertyOp1
 70
     1
102
RTVSPropertyOp2
 70
     1
102
RTVSPropertyOp3
 70
     1
102
RTVSPropertyOp4
 70
     1
102
RTVSPropertyOp5
 70
     1
102
RTVSPropertyOp6
 70
     1
102
RTVSPropertyOp7
 70
     1
102
RTVSPropertyOp8
 70
     1
102
RTVSPropertyOp9
 70
     1
102
RTVSPropertyOp10
 70
     1
102
RTVSPropertyOp11
 70
     1
102
RTVSPropertyOp12
 70
     1
102
RTVSPropertyOp13
 70
     1
102
RTVSPropertyOp14
 70
     1
102
RTVSPropertyOp15
 70
     1
102
RTVSPropertyOp16
 70
     1
102
RTVSPropertyOp17
 70
     1
102
RTVSPropertyOp18
 70
     1
102
RTVSPropertyOp19
 70
     1
102
RTVSPropertyOp20
 70
     1
102
RTVSPropertyOp21
 70
     1
102
RTVSPropertyOp22
 70
     1
102
RTVSPropertyOp23
 70
     1
102
RTVSPropertyOp24
 70
     1
102
RTVSPropertyOp25
 70
     1
102
RTVSPropertyOp26
 70
     1
102
RTVSPropertyOp27
 70
     1
102
RTVSPropertyOp28
 70
     1
102
RTVSPropertyOp29
 70
     1
102
RTVSPropertyOp30
 70
     1
102
RTVSPropertyOp31
 70
     1
102
RTVSPropertyOp32
 70
     1
  0
XRECORD
  5
F77
102
{ACAD_REACTORS
330
F76
102
}
330
F76
100
AcDbXrecord
280
     1
102
RTVSPropertyOp0
 70
     1
102
RTVSPropertyOp1
 70
     1
102
RTVSPropertyOp2
 70
     1
102
RTVSPropertyOp3
 70
     1
102
RTVSPropertyOp4
 70
     1
102
RTVSPropertyOp5
 70
     1
102
RTVSPropertyOp6
 70
     1
102
RTVSPropertyOp7
 70
     1
102
RTVSPropertyOp8
 70
     1
102
RTVSPropertyOp9
 70
     1
102
RTVSPropertyOp10
 70
     1
102
RTVSPropertyOp11
 70
     1
102
RTVSPropertyOp12
 70
     1
102
RTVSPropertyOp13
 70
     1
102
RTVSPropertyOp14
 70
     1
102
RTVSPropertyOp15
 70
     1
102
RTVSPropertyOp16
 70
     1
102
RTVSPropertyOp17
 70
     1
102
RTVSPropertyOp18
 70
     1
102
RTVSPropertyOp19
 70
     1
102
RTVSPropertyOp20
 70
     1
102
RTVSPropertyOp21
 70
     1
102
RTVSPropertyOp22
 70
     1
102
RTVSPropertyOp23
 70
     1
102
RTVSPropertyOp24
 70
     1
102
RTVSPropertyOp25
 70
     1
102
RTVSPropertyOp26
 70
     1
102
RTVSPropertyOp27
 70
     1
102
RTVSPropertyOp28
 70
     1
102
RTVSPropertyOp29
 70
     1
102
RTVSPropertyOp30
 70
     1
102
RTVSPropertyOp31
 70
     1
102
RTVSPropertyOp32
 70
     1
  0
XRECORD
  5
F79
102
{ACAD_REACTORS
330
F78
102
}
330
F78
100
AcDbXrecord
280
     1
102
RTVSPropertyOp0
 70
     1
102
RTVSPropertyOp1
 70
     1
102
RTVSPropertyOp2
 70
     1
102
RTVSPropertyOp3
 70
     1
102
RTVSPropertyOp4
 70
     1
102
RTVSPropertyOp5
 70
     1
102
RTVSPropertyOp6
 70
     1
102
RTVSPropertyOp7
 70
     1
102
RTVSPropertyOp8
 70
     1
102
RTVSPropertyOp9
 70
     1
102
RTVSPropertyOp10
 70
     1
102
RTVSPropertyOp11
 70
     1
102
RTVSPropertyOp12
 70
     1
102
RTVSPropertyOp13
 70
     1
102
RTVSPropertyOp14
 70
     1
102
RTVSPropertyOp15
 70
     1
102
RTVSPropertyOp16
 70
     1
102
RTVSPropertyOp17
 70
     1
102
RTVSPropertyOp18
 70
     1
102
RTVSPropertyOp19
 70
     1
102
RTVSPropertyOp20
 70
     1
102
RTVSPropertyOp21
 70
     1
102
RTVSPropertyOp22
 70
     1
102
RTVSPropertyOp23
 70
     1
102
RTVSPropertyOp24
 70
     1
102
RTVSPropertyOp25
 70
     1
102
RTVSPropertyOp26
 70
     1
102
RTVSPropertyOp27
 70
     1
102
RTVSPropertyOp28
 70
     1
102
RTVSPropertyOp29
 70
     1
102
RTVSPropertyOp30
 70
     1
102
RTVSPropertyOp31
 70
     1
102
RTVSPropertyOp32
 70
     1
  0
XRECORD
  5
F60
102
{ACAD_REACTORS
330
F5F
102
}
330
F5F
100
AcDbXrecord
280
     1
102
RTVSPropertyOp0
 70
     1
102
RTVSPropertyOp1
 70
     1
102
RTVSPropertyOp2
 70
     1
102
RTVSPropertyOp3
 70
     1
102
RTVSPropertyOp4
 70
     1
102
RTVSPropertyOp5
 70
     1
102
RTVSPropertyOp6
 70
     1
102
RTVSPropertyOp7
 70
     1
102
RTVSPropertyOp8
 70
     1
102
RTVSPropertyOp9
 70
     1
102
RTVSPropertyOp10
 70
     1
102
RTVSPropertyOp11
 70
     1
102
RTVSPropertyOp12
 70
     1
102
RTVSPropertyOp13
 70
     1
102
RTVSPropertyOp14
 70
     1
102
RTVSPropertyOp15
 70
     1
102
RTVSPropertyOp16
 70
     1
102
RTVSPropertyOp17
 70
     1
102
RTVSPropertyOp18
 70
     1
102
RTVSPropertyOp19
 70
     1
102
RTVSPropertyOp20
 70
     1
102
RTVSPropertyOp21
 70
     1
102
RTVSPropertyOp22
 70
     1
102
RTVSPropertyOp23
 70
     1
102
RTVSPropertyOp24
 70
     1
102
RTVSPropertyOp25
 70
     1
102
RTVSPropertyOp26
 70
     1
102
RTVSPropertyOp27
 70
     1
102
RTVSPropertyOp28
 70
     1
102
RTVSPropertyOp29
 70
     1
102
RTVSPropertyOp30
 70
     1
102
RTVSPropertyOp31
 70
     1
102
RTVSPropertyOp32
 70
     1
  0
XRECORD
  5
F73
102
{ACAD_REACTORS
330
F72
102
}
330
F72
100
AcDbXrecord
280
     1
102
RTVSPropertyOp0
 70
     1
102
RTVSPropertyOp1
 70
     1
102
RTVSPropertyOp2
 70
     1
102
RTVSPropertyOp3
 70
     1
102
RTVSPropertyOp4
 70
     1
102
RTVSPropertyOp5
 70
     1
102
RTVSPropertyOp6
 70
     1
102
RTVSPropertyOp7
 70
     1
102
RTVSPropertyOp8
 70
     1
102
RTVSPropertyOp9
 70
     1
102
RTVSPropertyOp10
 70
     1
102
RTVSPropertyOp11
 70
     1
102
RTVSPropertyOp12
 70
     1
102
RTVSPropertyOp13
 70
     1
102
RTVSPropertyOp14
 70
     1
102
RTVSPropertyOp15
 70
     1
102
RTVSPropertyOp16
 70
     1
102
RTVSPropertyOp17
 70
     1
102
RTVSPropertyOp18
 70
     1
102
RTVSPropertyOp19
 70
     1
102
RTVSPropertyOp20
 70
     1
102
RTVSPropertyOp21
 70
     1
102
RTVSPropertyOp22
 70
     1
102
RTVSPropertyOp23
 70
     1
102
RTVSPropertyOp24
 70
     1
102
RTVSPropertyOp25
 70
     1
102
RTVSPropertyOp26
 70
     1
102
RTVSPropertyOp27
 70
     1
102
RTVSPropertyOp28
 70
     1
102
RTVSPropertyOp29
 70
     1
102
RTVSPropertyOp30
 70
     1
102
RTVSPropertyOp31
 70
     1
102
RTVSPropertyOp32
 70
     1
  0
XRECORD
  5
F7B
102
{ACAD_REACTORS
330
F7A
102
}
330
F7A
100
AcDbXrecord
280
     1
102
RTVSPropertyOp0
 70
     1
102
RTVSPropertyOp1
 70
     1
102
RTVSPropertyOp2
 70
     1
102
RTVSPropertyOp3
 70
     1
102
RTVSPropertyOp4
 70
     1
102
RTVSPropertyOp5
 70
     1
102
RTVSPropertyOp6
 70
     1
102
RTVSPropertyOp7
 70
     1
102
RTVSPropertyOp8
 70
     1
102
RTVSPropertyOp9
 70
     1
102
RTVSPropertyOp10
 70
     1
102
RTVSPropertyOp11
 70
     1
102
RTVSPropertyOp12
 70
     1
102
RTVSPropertyOp13
 70
     1
102
RTVSPropertyOp14
 70
     1
102
RTVSPropertyOp15
 70
     1
102
RTVSPropertyOp16
 70
     1
102
RTVSPropertyOp17
 70
     1
102
RTVSPropertyOp18
 70
     1
102
RTVSPropertyOp19
 70
     1
102
RTVSPropertyOp20
 70
     1
102
RTVSPropertyOp21
 70
     1
102
RTVSPropertyOp22
 70
     1
102
RTVSPropertyOp23
 70
     1
102
RTVSPropertyOp24
 70
     1
102
RTVSPropertyOp25
 70
     1
102
RTVSPropertyOp26
 70
     1
102
RTVSPropertyOp27
 70
     1
102
RTVSPropertyOp28
 70
     1
102
RTVSPropertyOp29
 70
     1
102
RTVSPropertyOp30
 70
     1
102
RTVSPropertyOp31
 70
     1
102
RTVSPropertyOp32
 70
     1
  0
ENDSEC
  0
EOF
