ISO-10303-21;
HEADER;
/* Generated by software containing ST-Developer
 * from STEP Tools, Inc. (www.steptools.com) 
 */

FILE_DESCRIPTION(
/* description */ ('TAPPO COPRIFORO D8 GRIGIO CHIARO'),
/* implementation_level */ '2;1');

FILE_NAME(
/* name */ 
'Q:\\Catalogo\\2_Accessori Dierre\\Per Download Web e catalogo cartace
o\\CATALOGO TAPPI DI CHIUSURA\\PAGINA 88\\CTPTF0000013.stp',
/* time_stamp */ '2018-10-29T09:59:20+01:00',
/* author */ ('fzagni'),
/* organization */ (''),
/* preprocessor_version */ 'ST-DEVELOPER v16.1',
/* originating_system */ 'Autodesk Inventor 2016',
/* authorisation */ '');

FILE_SCHEMA (('AUTOMOTIVE_DESIGN { 1 0 10303 214 3 1 1 }'));
ENDSEC;

DATA;
#10=MECHANICAL_DESIGN_GEOMETRIC_PRESENTATION_REPRESENTATION('',(#13),#169);
#11=SHAPE_REPRESENTATION_RELATIONSHIP('SRR','None',#178,#12);
#12=ADVANCED_BREP_SHAPE_REPRESENTATION('',(#14),#168);
#13=STYLED_ITEM('',(#187),#14);
#14=MANIFOLD_SOLID_BREP('Solido1',#94);
#15=TOROIDAL_SURFACE('',#100,4.8,0.2);
#16=PLANE('',#99);
#17=PLANE('',#105);
#18=PLANE('',#109);
#19=PLANE('',#110);
#20=FACE_BOUND('',#35,.T.);
#21=FACE_BOUND('',#38,.T.);
#22=FACE_BOUND('',#40,.T.);
#23=FACE_BOUND('',#43,.T.);
#24=FACE_BOUND('',#45,.T.);
#25=FACE_BOUND('',#47,.T.);
#26=FACE_OUTER_BOUND('',#34,.T.);
#27=FACE_OUTER_BOUND('',#36,.T.);
#28=FACE_OUTER_BOUND('',#37,.T.);
#29=FACE_OUTER_BOUND('',#39,.T.);
#30=FACE_OUTER_BOUND('',#41,.T.);
#31=FACE_OUTER_BOUND('',#42,.T.);
#32=FACE_OUTER_BOUND('',#44,.T.);
#33=FACE_OUTER_BOUND('',#46,.T.);
#34=EDGE_LOOP('',(#69));
#35=EDGE_LOOP('',(#70));
#36=EDGE_LOOP('',(#71));
#37=EDGE_LOOP('',(#72));
#38=EDGE_LOOP('',(#73));
#39=EDGE_LOOP('',(#74));
#40=EDGE_LOOP('',(#75));
#41=EDGE_LOOP('',(#76));
#42=EDGE_LOOP('',(#77));
#43=EDGE_LOOP('',(#78));
#44=EDGE_LOOP('',(#79));
#45=EDGE_LOOP('',(#80));
#46=EDGE_LOOP('',(#81));
#47=EDGE_LOOP('',(#82));
#48=CIRCLE('',#97,3.5);
#49=CIRCLE('',#98,3.5);
#50=CIRCLE('',#101,5.);
#51=CIRCLE('',#102,4.8);
#52=CIRCLE('',#104,5.);
#53=CIRCLE('',#107,4.);
#54=CIRCLE('',#108,4.);
#55=VERTEX_POINT('',#145);
#56=VERTEX_POINT('',#147);
#57=VERTEX_POINT('',#151);
#58=VERTEX_POINT('',#153);
#59=VERTEX_POINT('',#156);
#60=VERTEX_POINT('',#160);
#61=VERTEX_POINT('',#162);
#62=EDGE_CURVE('',#55,#55,#48,.T.);
#63=EDGE_CURVE('',#56,#56,#49,.T.);
#64=EDGE_CURVE('',#57,#57,#50,.T.);
#65=EDGE_CURVE('',#58,#58,#51,.T.);
#66=EDGE_CURVE('',#59,#59,#52,.T.);
#67=EDGE_CURVE('',#60,#60,#53,.T.);
#68=EDGE_CURVE('',#61,#61,#54,.T.);
#69=ORIENTED_EDGE('',*,*,#62,.T.);
#70=ORIENTED_EDGE('',*,*,#63,.F.);
#71=ORIENTED_EDGE('',*,*,#62,.F.);
#72=ORIENTED_EDGE('',*,*,#64,.T.);
#73=ORIENTED_EDGE('',*,*,#65,.T.);
#74=ORIENTED_EDGE('',*,*,#66,.T.);
#75=ORIENTED_EDGE('',*,*,#64,.F.);
#76=ORIENTED_EDGE('',*,*,#65,.F.);
#77=ORIENTED_EDGE('',*,*,#67,.F.);
#78=ORIENTED_EDGE('',*,*,#68,.T.);
#79=ORIENTED_EDGE('',*,*,#66,.F.);
#80=ORIENTED_EDGE('',*,*,#67,.T.);
#81=ORIENTED_EDGE('',*,*,#68,.F.);
#82=ORIENTED_EDGE('',*,*,#63,.T.);
#83=CYLINDRICAL_SURFACE('',#96,3.5);
#84=CYLINDRICAL_SURFACE('',#103,5.);
#85=CYLINDRICAL_SURFACE('',#106,4.);
#86=ADVANCED_FACE('',(#26,#20),#83,.F.);
#87=ADVANCED_FACE('',(#27),#16,.F.);
#88=ADVANCED_FACE('',(#28,#21),#15,.T.);
#89=ADVANCED_FACE('',(#29,#22),#84,.T.);
#90=ADVANCED_FACE('',(#30),#17,.T.);
#91=ADVANCED_FACE('',(#31,#23),#85,.T.);
#92=ADVANCED_FACE('',(#32,#24),#18,.T.);
#93=ADVANCED_FACE('',(#33,#25),#19,.T.);
#94=CLOSED_SHELL('',(#86,#87,#88,#89,#90,#91,#92,#93));
#95=AXIS2_PLACEMENT_3D('placement',#143,#111,#112);
#96=AXIS2_PLACEMENT_3D('',#144,#113,#114);
#97=AXIS2_PLACEMENT_3D('',#146,#115,#116);
#98=AXIS2_PLACEMENT_3D('',#148,#117,#118);
#99=AXIS2_PLACEMENT_3D('',#149,#119,#120);
#100=AXIS2_PLACEMENT_3D('',#150,#121,#122);
#101=AXIS2_PLACEMENT_3D('',#152,#123,#124);
#102=AXIS2_PLACEMENT_3D('',#154,#125,#126);
#103=AXIS2_PLACEMENT_3D('',#155,#127,#128);
#104=AXIS2_PLACEMENT_3D('',#157,#129,#130);
#105=AXIS2_PLACEMENT_3D('',#158,#131,#132);
#106=AXIS2_PLACEMENT_3D('',#159,#133,#134);
#107=AXIS2_PLACEMENT_3D('',#161,#135,#136);
#108=AXIS2_PLACEMENT_3D('',#163,#137,#138);
#109=AXIS2_PLACEMENT_3D('',#164,#139,#140);
#110=AXIS2_PLACEMENT_3D('',#165,#141,#142);
#111=DIRECTION('axis',(0.,0.,1.));
#112=DIRECTION('refdir',(1.,0.,0.));
#113=DIRECTION('center_axis',(0.,1.,0.));
#114=DIRECTION('ref_axis',(-1.,0.,0.));
#115=DIRECTION('center_axis',(0.,1.,0.));
#116=DIRECTION('ref_axis',(-1.,0.,0.));
#117=DIRECTION('center_axis',(0.,1.,0.));
#118=DIRECTION('ref_axis',(-1.,0.,0.));
#119=DIRECTION('center_axis',(0.,1.,0.));
#120=DIRECTION('ref_axis',(0.,0.,1.));
#121=DIRECTION('center_axis',(0.,1.,0.));
#122=DIRECTION('ref_axis',(0.,0.,1.));
#123=DIRECTION('center_axis',(0.,1.,0.));
#124=DIRECTION('ref_axis',(1.,0.,0.));
#125=DIRECTION('center_axis',(0.,-1.,0.));
#126=DIRECTION('ref_axis',(1.,0.,0.));
#127=DIRECTION('center_axis',(0.,1.,0.));
#128=DIRECTION('ref_axis',(-1.,0.,0.));
#129=DIRECTION('center_axis',(0.,1.,0.));
#130=DIRECTION('ref_axis',(1.,0.,0.));
#131=DIRECTION('center_axis',(0.,1.,0.));
#132=DIRECTION('ref_axis',(0.,0.,1.));
#133=DIRECTION('center_axis',(0.,1.,0.));
#134=DIRECTION('ref_axis',(-1.,0.,0.));
#135=DIRECTION('center_axis',(0.,1.,0.));
#136=DIRECTION('ref_axis',(1.,0.,0.));
#137=DIRECTION('center_axis',(0.,1.,0.));
#138=DIRECTION('ref_axis',(1.,0.,0.));
#139=DIRECTION('center_axis',(0.,-1.,0.));
#140=DIRECTION('ref_axis',(0.,0.,-1.));
#141=DIRECTION('center_axis',(0.,-1.,0.));
#142=DIRECTION('ref_axis',(0.,0.,-1.));
#143=CARTESIAN_POINT('',(0.,0.,0.));
#144=CARTESIAN_POINT('Origin',(0.,0.,0.));
#145=CARTESIAN_POINT('',(3.5,5.,4.28626379701574E-16));
#146=CARTESIAN_POINT('Origin',(0.,5.,0.));
#147=CARTESIAN_POINT('',(3.5,0.,4.28626379701574E-16));
#148=CARTESIAN_POINT('Origin',(0.,0.,0.));
#149=CARTESIAN_POINT('Origin',(-1.67888272668602E-16,5.,6.60847038467355E-17));
#150=CARTESIAN_POINT('Origin',(0.,5.3,0.));
#151=CARTESIAN_POINT('',(-5.,5.3,6.12323399573677E-16));
#152=CARTESIAN_POINT('Origin',(0.,5.3,0.));
#153=CARTESIAN_POINT('',(-4.8,5.5,-5.8783046359073E-16));
#154=CARTESIAN_POINT('Origin',(0.,5.5,0.));
#155=CARTESIAN_POINT('Origin',(0.,5.25,0.));
#156=CARTESIAN_POINT('',(-5.,5.,0.));
#157=CARTESIAN_POINT('Origin',(0.,5.,0.));
#158=CARTESIAN_POINT('Origin',(0.,5.5,0.));
#159=CARTESIAN_POINT('Origin',(0.,2.5,0.));
#160=CARTESIAN_POINT('',(-4.,5.,0.));
#161=CARTESIAN_POINT('Origin',(0.,5.,0.));
#162=CARTESIAN_POINT('',(-4.,0.,0.));
#163=CARTESIAN_POINT('Origin',(0.,0.,0.));
#164=CARTESIAN_POINT('Origin',(-5.,5.,0.));
#165=CARTESIAN_POINT('Origin',(-4.,0.,0.));
#166=UNCERTAINTY_MEASURE_WITH_UNIT(LENGTH_MEASURE(0.01),#170,
'DISTANCE_ACCURACY_VALUE',
'Maximum model space distance between geometric entities at asserted c
onnectivities');
#167=UNCERTAINTY_MEASURE_WITH_UNIT(LENGTH_MEASURE(1.E-6),#170,
'DISTANCE_ACCURACY_VALUE',
'Maximum model space distance between geometric entities at asserted c
onnectivities');
#168=(
GEOMETRIC_REPRESENTATION_CONTEXT(3)
GLOBAL_UNCERTAINTY_ASSIGNED_CONTEXT((#166))
GLOBAL_UNIT_ASSIGNED_CONTEXT((#170,#173,#171))
REPRESENTATION_CONTEXT('','3D')
);
#169=(
GEOMETRIC_REPRESENTATION_CONTEXT(3)
GLOBAL_UNCERTAINTY_ASSIGNED_CONTEXT((#167))
GLOBAL_UNIT_ASSIGNED_CONTEXT((#170,#173,#171))
REPRESENTATION_CONTEXT('','3D')
);
#170=(
LENGTH_UNIT()
NAMED_UNIT(*)
SI_UNIT(.MILLI.,.METRE.)
);
#171=(
NAMED_UNIT(*)
SI_UNIT($,.STERADIAN.)
SOLID_ANGLE_UNIT()
);
#172=DIMENSIONAL_EXPONENTS(0.,0.,0.,0.,0.,0.,0.);
#173=(
CONVERSION_BASED_UNIT('degree',#175)
NAMED_UNIT(#172)
PLANE_ANGLE_UNIT()
);
#174=(
NAMED_UNIT(*)
PLANE_ANGLE_UNIT()
SI_UNIT($,.RADIAN.)
);
#175=PLANE_ANGLE_MEASURE_WITH_UNIT(PLANE_ANGLE_MEASURE(0.01745329252),#174);
#176=SHAPE_DEFINITION_REPRESENTATION(#177,#178);
#177=PRODUCT_DEFINITION_SHAPE('',$,#180);
#178=SHAPE_REPRESENTATION('',(#95),#168);
#179=PRODUCT_DEFINITION_CONTEXT('part definition',#184,'design');
#180=PRODUCT_DEFINITION('18.065.00','18.065.00',#181,#179);
#181=PRODUCT_DEFINITION_FORMATION('','A',#186);
#182=PRODUCT_RELATED_PRODUCT_CATEGORY('18.065.00','18.065.00',(#186));
#183=APPLICATION_PROTOCOL_DEFINITION('international standard',
'automotive_design',2009,#184);
#184=APPLICATION_CONTEXT(
'Core Data for Automotive Mechanical Design Process');
#185=PRODUCT_CONTEXT('part definition',#184,'mechanical');
#186=PRODUCT('18.065.00','18.065.00',$,(#185));
#187=PRESENTATION_STYLE_ASSIGNMENT((#188));
#188=SURFACE_STYLE_USAGE(.BOTH.,#189);
#189=SURFACE_SIDE_STYLE('',(#190));
#190=SURFACE_STYLE_FILL_AREA(#191);
#191=FILL_AREA_STYLE('',(#192));
#192=FILL_AREA_STYLE_COLOUR('',#193);
#193=COLOUR_RGB('',0.690196078431373,0.67843137254902,0.67843137254902);
ENDSEC;
END-ISO-10303-21;
