  0
SECTION
  2
HEADER
  9
$ACADVER
  1
AC1018
  9
$ACADMAINTVER
 70
     0
  9
$DWGCODEPAGE
  3
ANSI_1252
  9
$INSBASE
 10
0.0
 20
0.0
 30
0.0
  9
$EXTMIN
 10
1.000E+20
 20
1.000E+20
 30
1.000E+20
  9
$EXTMAX
 10
-1.000E+20
 20
-1.000E+20
 30
-1.000E+20
  9
$LIMMIN
 10
0.0
 20
0.0
  9
$LIMMAX
 10
420.0
 20
297.0
  9
$ORTHOMODE
 70
     0
  9
$REGENMODE
 70
     1
  9
$FILLMODE
 70
     1
  9
$QTEXTMODE
 70
     0
  9
$MIRRTEXT
 70
     1
  9
$LTSCALE
 40
1.0
  9
$ATTMODE
 70
     1
  9
$TEXTSIZE
 40
2.5
  9
$TRACEWID
 40
1.0
  9
$TEXTSTYLE
  7
Standard
  9
$CLAYER
  8
0
  9
$CELTYPE
  6
ByLayer
  9
$CECOLOR
 62
   256
  9
$CELTSCALE
 40
1.0
  9
$DISPSILH
 70
     0
  9
$DIMSCALE
 40
1.0
  9
$DIMASZ
 40
2.5
  9
$DIMEXO
 40
0.625
  9
$DIMDLI
 40
3.75
  9
$DIMRND
 40
0.0
  9
$DIMDLE
 40
0.0
  9
$DIMEXE
 40
1.25
  9
$DIMTP
 40
0.0
  9
$DIMTM
 40
0.0
  9
$DIMTXT
 40
2.5
  9
$DIMCEN
 40
2.5
  9
$DIMTSZ
 40
0.0
  9
$DIMTOL
 70
     0
  9
$DIMLIM
 70
     0
  9
$DIMTIH
 70
     0
  9
$DIMTOH
 70
     0
  9
$DIMSE1
 70
     0
  9
$DIMSE2
 70
     0
  9
$DIMTAD
 70
     1
  9
$DIMZIN
 70
     8
  9
$DIMBLK
  1

  9
$DIMASO
 70
     1
  9
$DIMSHO
 70
     1
  9
$DIMPOST
  1

  9
$DIMAPOST
  1

  9
$DIMALT
 70
     0
  9
$DIMALTD
 70
     3
  9
$DIMALTF
 40
0.039
  9
$DIMLFAC
 40
1.0
  9
$DIMTOFL
 70
     1
  9
$DIMTVP
 40
0.0
  9
$DIMTIX
 70
     0
  9
$DIMSOXD
 70
     0
  9
$DIMSAH
 70
     0
  9
$DIMBLK1
  1

  9
$DIMBLK2
  1

  9
$DIMSTYLE
  2
ISO-25
  9
$DIMCLRD
 70
     0
  9
$DIMCLRE
 70
     0
  9
$DIMCLRT
 70
     0
  9
$DIMTFAC
 40
1.0
  9
$DIMGAP
 40
0.625
  9
$DIMJUST
 70
     0
  9
$DIMSD1
 70
     0
  9
$DIMSD2
 70
     0
  9
$DIMTOLJ
 70
     0
  9
$DIMTZIN
 70
     8
  9
$DIMALTZ
 70
     0
  9
$DIMALTTZ
 70
     0
  9
$DIMUPT
 70
     0
  9
$DIMDEC
 70
     2
  9
$DIMTDEC
 70
     2
  9
$DIMALTU
 70
     2
  9
$DIMALTTD
 70
     3
  9
$DIMTXSTY
  7
Standard
  9
$DIMAUNIT
 70
     0
  9
$DIMADEC
 70
     0
  9
$DIMALTRND
 40
0.0
  9
$DIMAZIN
 70
     0
  9
$DIMDSEP
 70
    44
  9
$DIMATFIT
 70
     3
  9
$DIMFRAC
 70
     0
  9
$DIMLDRBLK
  1

  9
$DIMLUNIT
 70
     2
  9
$DIMLWD
 70
    -2
  9
$DIMLWE
 70
    -2
  9
$DIMTMOVE
 70
     0
  9
$LUNITS
 70
     2
  9
$LUPREC
 70
     4
  9
$SKETCHINC
 40
1.0
  9
$FILLETRAD
 40
10.0
  9
$AUNITS
 70
     0
  9
$AUPREC
 70
     0
  9
$MENU
  1
.
  9
$ELEVATION
 40
0.0
  9
$PELEVATION
 40
0.0
  9
$THICKNESS
 40
0.0
  9
$LIMCHECK
 70
     0
  9
$CHAMFERA
 40
10.0
  9
$CHAMFERB
 40
10.0
  9
$CHAMFERC
 40
20.0
  9
$CHAMFERD
 40
0.0
  9
$SKPOLY
 70
     0
  9
$TDCREATE
 40
2455813.765674931
  9
$TDUCREATE
 40
2455813.682341597
  9
$TDUPDATE
 40
2455813.765674942
  9
$TDUUPDATE
 40
2455813.682341609
  9
$TDINDWG
 40
0.0000000116
  9
$TDUSRTIMER
 40
0.0000000116
  9
$USRTIMER
 70
     1
  9
$ANGBASE
 50
0.0
  9
$ANGDIR
 70
     0
  9
$PDMODE
 70
     0
  9
$PDSIZE
 40
0.0
  9
$PLINEWID
 40
0.0
  9
$SPLFRAME
 70
     0
  9
$SPLINETYPE
 70
     6
  9
$SPLINESEGS
 70
     8
  9
$HANDSEED
  5
126
  9
$SURFTAB1
 70
     6
  9
$SURFTAB2
 70
     6
  9
$SURFTYPE
 70
     6
  9
$SURFU
 70
     6
  9
$SURFV
 70
     6
  9
$UCSBASE
  2

  9
$UCSNAME
  2

  9
$UCSORG
 10
0.0
 20
0.0
 30
0.0
  9
$UCSXDIR
 10
1.0
 20
0.0
 30
0.0
  9
$UCSYDIR
 10
0.0
 20
1.0
 30
0.0
  9
$UCSORTHOREF
  2

  9
$UCSORTHOVIEW
 70
     0
  9
$UCSORGTOP
 10
0.0
 20
0.0
 30
0.0
  9
$UCSORGBOTTOM
 10
0.0
 20
0.0
 30
0.0
  9
$UCSORGLEFT
 10
0.0
 20
0.0
 30
0.0
  9
$UCSORGRIGHT
 10
0.0
 20
0.0
 30
0.0
  9
$UCSORGFRONT
 10
0.0
 20
0.0
 30
0.0
  9
$UCSORGBACK
 10
0.0
 20
0.0
 30
0.0
  9
$PUCSBASE
  2

  9
$PUCSNAME
  2

  9
$PUCSORG
 10
0.0
 20
0.0
 30
0.0
  9
$PUCSXDIR
 10
1.0
 20
0.0
 30
0.0
  9
$PUCSYDIR
 10
0.0
 20
1.0
 30
0.0
  9
$PUCSORTHOREF
  2

  9
$PUCSORTHOVIEW
 70
     0
  9
$PUCSORGTOP
 10
0.0
 20
0.0
 30
0.0
  9
$PUCSORGBOTTOM
 10
0.0
 20
0.0
 30
0.0
  9
$PUCSORGLEFT
 10
0.0
 20
0.0
 30
0.0
  9
$PUCSORGRIGHT
 10
0.0
 20
0.0
 30
0.0
  9
$PUCSORGFRONT
 10
0.0
 20
0.0
 30
0.0
  9
$PUCSORGBACK
 10
0.0
 20
0.0
 30
0.0
  9
$USERI1
 70
     0
  9
$USERI2
 70
     0
  9
$USERI3
 70
     0
  9
$USERI4
 70
     0
  9
$USERI5
 70
     0
  9
$USERR1
 40
0.0
  9
$USERR2
 40
0.0
  9
$USERR3
 40
0.0
  9
$USERR4
 40
0.0
  9
$USERR5
 40
0.0
  9
$WORLDVIEW
 70
     1
  9
$SHADEDGE
 70
     3
  9
$SHADEDIF
 70
    70
  9
$TILEMODE
 70
     1
  9
$MAXACTVP
 70
    64
  9
$PINSBASE
 10
0.0
 20
0.0
 30
0.0
  9
$PLIMCHECK
 70
     0
  9
$PEXTMIN
 10
1.000E+20
 20
1.000E+20
 30
1.000E+20
  9
$PEXTMAX
 10
-1.000E+20
 20
-1.000E+20
 30
-1.000E+20
  9
$PLIMMIN
 10
0.0
 20
0.0
  9
$PLIMMAX
 10
420.0
 20
297.0
  9
$UNITMODE
 70
     0
  9
$VISRETAIN
 70
     1
  9
$PLINEGEN
 70
     0
  9
$PSLTSCALE
 70
     1
  9
$TREEDEPTH
 70
  3020
  9
$CMLSTYLE
  2
Standard
  9
$CMLJUST
 70
     0
  9
$CMLSCALE
 40
20.0
  9
$PROXYGRAPHICS
 70
     1
  9
$MEASUREMENT
 70
     1
  9
$CELWEIGHT
370
    -1
  9
$ENDCAPS
280
     0
  9
$JOINSTYLE
280
     0
  9
$LWDISPLAY
290
     0
  9
$INSUNITS
 70
     4
  9
$HYPERLINKBASE
  1

  9
$STYLESHEET
  1

  9
$XEDIT
290
     1
  9
$CEPSNTYPE
380
     0
  9
$PSTYLEMODE
290
     1
  9
$FINGERPRINTGUID
  2
{74B66AE6-019E-4ADC-9A97-86096FF4C77D}
  9
$VERSIONGUID
  2
{FAEB1C32-E019-11D5-929B-00C0DF256EC4}
  9
$EXTNAMES
290
     1
  9
$PSVPSCALE
 40
0.0
  9
$OLESTARTUP
290
     0
  9
$SORTENTS
280
   127
  9
$INDEXCTL
280
     0
  9
$HIDETEXT
280
     1
  9
$XCLIPFRAME
290
     0
  9
$HALOGAP
280
     0
  9
$OBSCOLOR
 70
   257
  9
$OBSLTYPE
280
     0
  9
$INTERSECTIONDISPLAY
280
     0
  9
$INTERSECTIONCOLOR
 70
   257
  9
$DIMASSOC
280
     2
  9
$PROJECTNAME
  1

  0
ENDSEC
  0
SECTION
  2
CLASSES
  0
CLASS
  1
ACDBDICTIONARYWDFLT
  2
AcDbDictionaryWithDefault
  3
ObjectDBX Classes
 90
        0
 91
        4
280
     0
281
     0
  0
CLASS
  1
VISUALSTYLE
  2
AcDbVisualStyle
  3
ObjectDBX Classes
 90
     4095
 91
        4
280
     0
281
     0
  0
ENDSEC
  0
SECTION
  2
TABLES
  0
TABLE
  2
VPORT
  5
8
330
0
100
AcDbSymbolTable
 70
     1
  0
VPORT
  5
29
330
8
100
AcDbSymbolTableRecord
100
AcDbViewportTableRecord
  2
*Active
 70
     0
 10
0.0
 20
0.0
 11
1.0
 21
1.0
 12
344.187
 22
148.5
 13
0.0
 23
0.0
 14
10.0
 24
10.0
 15
10.0
 25
10.0
 16
0.0
 26
0.0
 36
1.0
 17
0.0
 27
0.0
 37
0.0
 40
297.0
 41
1.973
 42
50.0
 43
0.0
 44
0.0
 50
0.0
 51
0.0
 71
     0
 72
   100
 73
     1
 74
     3
 75
     0
 76
     0
 77
     0
 78
     0
281
     0
 65
     1
110
0.0
120
0.0
130
0.0
111
1.0
121
0.0
131
0.0
112
0.0
122
1.0
132
0.0
 79
     0
146
0.0
  0
ENDTAB
  0
TABLE
  2
LTYPE
  5
5
330
0
100
AcDbSymbolTable
 70
     2
  0
LTYPE
  5
14
330
5
100
AcDbSymbolTableRecord
100
AcDbLinetypeTableRecord
  2
ByBlock
 70
     0
  3

 72
    65
 73
     0
 40
0.0
  0
LTYPE
  5
15
330
5
100
AcDbSymbolTableRecord
100
AcDbLinetypeTableRecord
  2
ByLayer
 70
     0
  3

 72
    65
 73
     0
 40
0.0
  0
LTYPE
  5
16
330
5
100
AcDbSymbolTableRecord
100
AcDbLinetypeTableRecord
  2
Continuous
 70
     0
  3
Solid line
 72
    65
 73
     0
 40
0.0
  0
LTYPE
  5
BD
330
5
100
AcDbSymbolTableRecord
100
AcDbLinetypeTableRecord
  2
HIDDEN2
 70
     0
  3
Hidden (.5x) _ _ _ _ _ _ _ _ _ _ _ _ _ _ _ _ _ 
 72
    65
 73
     2
 40
4.762
 49
3.175
 74
     0
 49
-1.587
 74
     0
  0
ENDTAB
  0
TABLE
  2
LAYER
  5
2
330
0
100
AcDbSymbolTable
 70
     1
  0
LAYER
  5
10
330
2
100
AcDbSymbolTableRecord
100
AcDbLayerTableRecord
  2
0
 70
     0
 62
    72
  6
Continuous
370
     0
390
F
  0
ENDTAB
  0
TABLE
  2
STYLE
  5
3
330
0
100
AcDbSymbolTable
 70
     3
  0
STYLE
  5
11
330
3
100
AcDbSymbolTableRecord
100
AcDbTextStyleTableRecord
  2
Standard
 70
     0
 40
0.0
 41
1.0
 50
0.0
 71
     0
 42
2.5
  3
txt
  4

  0
STYLE
  5
3B
330
3
100
AcDbSymbolTableRecord
100
AcDbTextStyleTableRecord
  2
Default
 70
     0
 40
0.0
 41
1.0
 50
0.0
 71
     0
 42
0.2
  3

  4

1001
ACAD
1000
txt
1071
        0
  0
STYLE
  5
3C
330
3
100
AcDbSymbolTableRecord
100
AcDbTextStyleTableRecord
  2
ISO
 70
     0
 40
0.0
 41
1.0
 50
0.0
 71
     0
 42
0.2
  3

  4

1001
ACAD
1000
txt
1071
        0
  0
ENDTAB
  0
TABLE
  2
VIEW
  5
6
330
0
100
AcDbSymbolTable
 70
     0
  0
ENDTAB
  0
TABLE
  2
UCS
  5
7
330
0
100
AcDbSymbolTable
 70
     0
  0
ENDTAB
  0
TABLE
  2
APPID
  5
9
330
0
100
AcDbSymbolTable
 70
     1
  0
APPID
  5
12
330
9
100
AcDbSymbolTableRecord
100
AcDbRegAppTableRecord
  2
ACAD
 70
     0
  0
ENDTAB
  0
TABLE
  2
DIMSTYLE
  5
A
330
0
100
AcDbSymbolTable
 70
     3
100
AcDbDimStyleTable
  0
DIMSTYLE
105
27
330
A
100
AcDbSymbolTableRecord
100
AcDbDimStyleTableRecord
  2
ISO-25
 70
     0
 41
2.5
 42
0.625
 43
3.75
 44
1.25
 73
     0
 74
     0
 77
     1
 78
     8
140
2.5
141
2.5
143
0.039
147
0.625
171
     3
172
     1
271
     2
272
     2
274
     3
278
    44
283
     0
284
     8
340
11
  0
DIMSTYLE
105
3D
330
A
100
AcDbSymbolTableRecord
100
AcDbDimStyleTableRecord
  2
Default
 70
     0
  3
<>
 41
4.375
 42
1.05
 44
2.1
 73
     0
 74
     0
 77
     1
 78
     8
140
3.5
146
0.4
147
1.75
178
    12
271
     2
272
     3
284
     8
340
3B
341
3E
342
3E
  0
DIMSTYLE
105
45
330
A
100
AcDbSymbolTableRecord
100
AcDbDimStyleTableRecord
  2
ISO
 70
     0
  3
<>
 41
4.375
 42
1.05
 44
2.1
 73
     0
 74
     0
 77
     1
 78
     8
140
3.5
146
0.4
147
1.75
178
    12
271
     2
272
     3
284
     8
340
3C
341
3E
342
3E
  0
ENDTAB
  0
TABLE
  2
BLOCK_RECORD
  5
1
330
0
100
AcDbSymbolTable
 70
     6
  0
BLOCK_RECORD
  5
1F
330
1
100
AcDbSymbolTableRecord
100
AcDbBlockTableRecord
  2
*Model_Space
340
22
  0
BLOCK_RECORD
  5
1B
330
1
100
AcDbSymbolTableRecord
100
AcDbBlockTableRecord
  2
*Paper_Space
340
1E
  0
BLOCK_RECORD
  5
23
330
1
100
AcDbSymbolTableRecord
100
AcDbBlockTableRecord
  2
*Paper_Space0
340
26
  0
BLOCK_RECORD
  5
3E
330
1
100
AcDbSymbolTableRecord
100
AcDbBlockTableRecord
  2
_CLOSED
340
0
  0
BLOCK_RECORD
  5
46
330
1
100
AcDbSymbolTableRecord
100
AcDbBlockTableRecord
  2
d
340
0
102
{BLKREFS
331
A1
102
}
  0
BLOCK_RECORD
  5
A2
330
1
100
AcDbSymbolTableRecord
100
AcDbBlockTableRecord
  2
a
340
0
102
{BLKREFS
331
DB
102
}
  0
BLOCK_RECORD
  5
DC
330
1
100
AcDbSymbolTableRecord
100
AcDbBlockTableRecord
  2
b
340
0
102
{BLKREFS
331
115
102
}
  0
BLOCK_RECORD
  5
116
330
1
100
AcDbSymbolTableRecord
100
AcDbBlockTableRecord
  2
c
340
0
102
{BLKREFS
331
123
102
}
  0
ENDTAB
  0
ENDSEC
  0
SECTION
  2
BLOCKS
  0
BLOCK
  5
20
330
1F
100
AcDbEntity
  8
0
100
AcDbBlockBegin
  2
*Model_Space
 70
     0
 10
0.0
 20
0.0
 30
0.0
  3
*Model_Space
  1

  0
ENDBLK
  5
21
330
1F
100
AcDbEntity
  8
0
100
AcDbBlockEnd
  0
BLOCK
  5
1C
330
1B
100
AcDbEntity
 67
     1
  8
0
100
AcDbBlockBegin
  2
*Paper_Space
 70
     0
 10
0.0
 20
0.0
 30
0.0
  3
*Paper_Space
  1

  0
ENDBLK
  5
1D
330
1B
100
AcDbEntity
 67
     1
  8
0
100
AcDbBlockEnd
  0
BLOCK
  5
24
330
23
100
AcDbEntity
  8
0
100
AcDbBlockBegin
  2
*Paper_Space0
 70
     0
 10
0.0
 20
0.0
 30
0.0
  3
*Paper_Space0
  1

  0
ENDBLK
  5
25
330
23
100
AcDbEntity
  8
0
100
AcDbBlockEnd
  0
BLOCK
  5
3F
330
3E
100
AcDbEntity
  8
0
100
AcDbBlockBegin
  2
_CLOSED
 70
     0
 10
0.0
 20
0.0
 30
0.0
  3
_CLOSED
  1

  0
LINE
  5
41
330
3E
100
AcDbEntity
  8
0
  6
ByBlock
 62
     0
370
    -2
100
AcDbLine
 10
-1.0
 20
0.167
 30
0.0
 11
0.0
 21
0.0
 31
0.0
  0
LINE
  5
42
330
3E
100
AcDbEntity
  8
0
  6
ByBlock
 62
     0
370
    -2
100
AcDbLine
 10
0.0
 20
0.0
 30
0.0
 11
-1.0
 21
-0.167
 31
0.0
  0
LINE
  5
43
330
3E
100
AcDbEntity
  8
0
  6
ByBlock
 62
     0
370
    -2
100
AcDbLine
 10
-1.0
 20
0.167
 30
0.0
 11
-1.0
 21
-0.167
 31
0.0
  0
LINE
  5
44
330
3E
100
AcDbEntity
  8
0
  6
ByBlock
 62
     0
370
    -2
100
AcDbLine
 10
0.0
 20
0.0
 30
0.0
 11
-1.0
 21
0.0
 31
0.0
  0
ENDBLK
  5
40
330
3E
100
AcDbEntity
  8
0
100
AcDbBlockEnd
  0
BLOCK
  5
9F
330
46
100
AcDbEntity
  8
0
100
AcDbBlockBegin
  2
d
 70
     0
 10
77.137
 20
5.932
 30
0.0
  3
d
  1

  0
ELLIPSE
  5
47
330
46
100
AcDbEntity
  8
0
  6
Continuous
 62
     0
370
    30
100
AcDbEllipse
 10
115.646
 20
28.492
 30
0.0
 11
-10.00000000000001
 21
0.0
 31
0.0
210
0.0
220
0.0
230
1.0
 40
0.577
 41
2.356194490192345
 42
3.141592644950106
  0
ELLIPSE
  5
48
330
46
100
AcDbEntity
  8
0
  6
Continuous
 62
     0
370
    30
100
AcDbEllipse
 10
115.646
 20
44.821
 30
0.0
 11
-10.00000000000001
 21
0.0
 31
0.0
210
0.0
220
0.0
230
1.0
 40
0.577
 41
2.356194490192345
 42
5.497787143782138
  0
LINE
  5
49
330
46
100
AcDbEntity
  8
0
  6
Continuous
 62
     0
370
    30
100
AcDbLine
 10
108.575
 20
48.904
 30
0.0
 11
85.241
 21
35.432
 31
0.0
  0
LINE
  5
4A
330
46
100
AcDbEntity
  8
0
  6
Continuous
 62
     0
370
    30
100
AcDbLine
 10
99.383
 20
27.267
 30
0.0
 11
122.717
 21
40.739
 31
0.0
  0
LINE
  5
4B
330
46
100
AcDbEntity
  8
0
  6
Continuous
 62
     0
370
    30
100
AcDbLine
 10
99.383
 20
10.937
 30
0.0
 11
122.717
 21
24.409
 31
0.0
  0
ELLIPSE
  5
4C
330
46
100
AcDbEntity
  8
0
  6
Continuous
 62
     0
370
    30
100
AcDbEllipse
 10
85.241
 20
27.267
 30
0.0
 11
-5.000000000000001
 21
-8.660254037844387
 31
0.0
210
0.0
220
0.0
230
-0.9999999999999999
 40
0.577
 41
0.7853981633974483
 42
2.356194490192345
  0
ELLIPSE
  5
4D
330
46
100
AcDbEntity
  8
0
  6
Continuous
 62
     0
370
    30
100
AcDbEllipse
 10
99.383
 20
19.102
 30
0.0
 11
-5.000000000000001
 21
-8.660254037844387
 31
0.0
210
0.0
220
0.0
230
-0.9999999999999999
 40
0.577
 41
0.7853981633974484
 42
2.356194490192345
  0
ELLIPSE
  5
4E
330
46
100
AcDbEntity
  8
0
  6
Continuous
 62
     0
370
    30
100
AcDbEllipse
 10
85.241
 20
27.267
 30
0.0
 11
5.000000000000001
 21
8.660254037844387
 31
0.0
210
0.0
220
0.0
230
0.9999999999999999
 40
0.577
 41
2.356194490192345
 42
3.141592630739637
  0
ELLIPSE
  5
4F
330
46
100
AcDbEntity
  8
0
  6
Continuous
 62
     0
370
    30
100
AcDbEllipse
 10
99.383
 20
19.102
 30
0.0
 11
5.000000000000001
 21
8.660254037844387
 31
0.0
210
0.0
220
0.0
230
0.9999999999999999
 40
0.577
 41
2.356194490192345
 42
3.926990816987244
  0
ELLIPSE
  5
50
330
46
100
AcDbEntity
  8
0
  6
Continuous
 62
     0
370
    30
100
AcDbEllipse
 10
99.383
 20
35.432
 30
0.0
 11
-6.0
 21
0.0
 31
0.0
210
0.0
220
0.0
230
1.0
 40
0.577
 41
1.770508946735193
 42
2.941880033649497
  0
LINE
  5
51
330
46
100
AcDbEntity
  8
0
  6
Continuous
 62
     0
370
    30
100
AcDbLine
 10
99.383
 20
31.349
 30
0.0
 11
100.573
 21
32.037
 31
0.0
  0
LINE
  5
52
330
46
100
AcDbEntity
  8
0
  6
Continuous
 62
     0
370
    30
100
AcDbLine
 10
105.263
 20
34.745
 30
0.0
 11
106.454
 21
35.432
 31
0.0
  0
ELLIPSE
  5
53
330
46
100
AcDbEntity
  8
0
  6
Continuous
 62
     0
370
    30
100
AcDbEllipse
 10
99.383
 20
35.432
 30
0.0
 11
-6.0
 21
0.0
 31
0.0
210
0.0
220
0.0
230
1.0
 40
0.577
 41
3.341305273530089
 42
4.512676360444393
  0
LINE
  5
54
330
46
100
AcDbEntity
  8
0
  6
Continuous
 62
     0
370
    30
100
AcDbLine
 10
106.454
 20
35.432
 30
0.0
 11
105.263
 21
36.119
 31
0.0
  0
LINE
  5
55
330
46
100
AcDbEntity
  8
0
  6
Continuous
 62
     0
370
    30
100
AcDbLine
 10
100.573
 20
38.827
 30
0.0
 11
99.383
 21
39.514
 31
0.0
  0
ELLIPSE
  5
56
330
46
100
AcDbEntity
  8
0
  6
Continuous
 62
     0
370
    30
100
AcDbEllipse
 10
99.383
 20
35.432
 30
0.0
 11
-6.0
 21
0.0
 31
0.0
210
0.0
220
0.0
230
1.0
 40
0.577
 41
4.912101600324986
 42
6.08347268723929
  0
LINE
  5
57
330
46
100
AcDbEntity
  8
0
  6
Continuous
 62
     0
370
    30
100
AcDbLine
 10
99.383
 20
39.514
 30
0.0
 11
98.192
 21
38.827
 31
0.0
  0
LINE
  5
58
330
46
100
AcDbEntity
  8
0
  6
Continuous
 62
     0
370
    30
100
AcDbLine
 10
93.502
 20
36.119
 30
0.0
 11
92.312
 21
35.432
 31
0.0
  0
LINE
  5
59
330
46
100
AcDbEntity
  8
0
  6
Continuous
 62
     0
370
    30
100
AcDbLine
 10
92.312
 20
35.432
 30
0.0
 11
93.502
 21
34.745
 31
0.0
  0
LINE
  5
5A
330
46
100
AcDbEntity
  8
0
  6
Continuous
 62
     0
370
    30
100
AcDbLine
 10
98.192
 20
32.037
 30
0.0
 11
99.383
 21
31.349
 31
0.0
  0
LINE
  5
5B
330
46
100
AcDbEntity
  8
0
  6
Continuous
 62
     0
370
    30
100
AcDbLine
 10
99.383
 20
39.514
 30
0.0
 11
99.383
 21
31.349
 31
0.0
  0
LINE
  5
5C
330
46
100
AcDbEntity
  8
0
  6
Continuous
 62
     0
370
    30
100
AcDbLine
 10
100.573
 20
38.827
 30
0.0
 11
100.573
 21
32.037
 31
0.0
  0
LINE
  5
5D
330
46
100
AcDbEntity
  8
0
  6
Continuous
 62
     0
370
    30
100
AcDbLine
 10
105.263
 20
34.745
 30
0.0
 11
105.263
 21
36.119
 31
0.0
  0
LINE
  5
5E
330
46
100
AcDbEntity
  8
0
  6
Continuous
 62
     0
370
    30
100
AcDbLine
 10
93.502
 20
36.119
 30
0.0
 11
93.502
 21
34.745
 31
0.0
  0
LINE
  5
5F
330
46
100
AcDbEntity
  8
0
  6
Continuous
 62
     0
370
    30
100
AcDbLine
 10
98.192
 20
32.037
 30
0.0
 11
98.192
 21
38.827
 31
0.0
  0
LINE
  5
60
330
46
100
AcDbEntity
  8
0
  6
Continuous
 62
     0
370
     0
100
AcDbLine
 10
93.372
 20
30.737
 30
0.0
 11
99.383
 21
27.267
 31
0.0
  0
LINE
  5
61
330
46
100
AcDbEntity
  8
0
  6
Continuous
 62
     0
370
     0
100
AcDbLine
 10
85.241
 20
35.432
 30
0.0
 11
91.251
 21
31.962
 31
0.0
  0
ELLIPSE
  5
62
330
46
100
AcDbEntity
  8
0
  6
Continuous
 62
     0
370
    30
100
AcDbEllipse
 10
99.383
 20
35.432
 30
0.0
 11
-6.0
 21
0.0
 31
0.0
210
0.0
220
0.0
230
1.0
 40
0.577
 41
1.038078418539527
 42
1.3710837068546
  0
LINE
  5
63
330
46
100
AcDbEntity
  8
0
  6
Continuous
 62
     0
370
    30
100
AcDbLine
 10
96.335
 20
32.448
 30
0.0
 11
93.372
 21
30.737
 31
0.0
  0
ELLIPSE
  5
64
330
46
100
AcDbEntity
  8
0
  6
Continuous
 62
     0
370
    30
100
AcDbEllipse
 10
99.383
 20
35.432
 30
0.0
 11
-6.0
 21
0.0
 31
0.0
210
0.0
220
0.0
230
1.0
 40
0.577
 41
0.1997126199402963
 42
0.5327179082553695
  0
LINE
  5
65
330
46
100
AcDbEntity
  8
0
  6
Continuous
 62
     0
370
    30
100
AcDbLine
 10
91.251
 20
31.962
 30
0.0
 11
94.214
 21
33.672
 31
0.0
  0
ELLIPSE
  5
66
330
46
100
AcDbEntity
  8
0
  6
Continuous
 62
     0
370
    30
100
AcDbEllipse
 10
93.372
 20
22.572
 30
0.0
 11
-5.000000000000001
 21
-8.660254037844387
 31
0.0
210
0.0
220
0.0
230
-0.9999999999999999
 40
0.577
 41
0.0000000228501559
 42
0.7853981633974484
  0
ELLIPSE
  5
67
330
46
100
AcDbEntity
  8
0
  6
Continuous
 62
     0
370
    30
100
AcDbEllipse
 10
91.251
 20
23.797
 30
0.0
 11
5.000000000000001
 21
8.660254037844387
 31
0.0
210
0.0
220
0.0
230
0.9999999999999999
 40
0.577
 41
2.356194490192345
 42
3.355348771923083
  0
ELLIPSE
  5
68
330
46
100
AcDbEntity
  8
0
  6
Continuous
 62
     0
370
    30
100
AcDbEllipse
 10
93.372
 20
22.572
 30
0.0
 11
5.000000000000001
 21
8.660254037844387
 31
0.0
210
0.0
220
0.0
230
0.9999999999999999
 40
0.577
 41
0.7853981633974456
 42
2.356194490192345
  0
ELLIPSE
  5
69
330
46
100
AcDbEntity
  8
0
  6
Continuous
 62
     0
370
    30
100
AcDbEllipse
 10
91.251
 20
23.797
 30
0.0
 11
-5.000000000000001
 21
-8.660254037844387
 31
0.0
210
0.0
220
0.0
230
-0.9999999999999999
 40
0.577
 41
0.7853981633974483
 42
2.356194490192345
  0
LINE
  5
6A
330
46
100
AcDbEntity
  8
0
  6
Continuous
 62
     0
370
    30
100
AcDbLine
 10
94.214
 20
31.223
 30
0.0
 11
94.214
 21
33.672
 31
0.0
  0
ELLIPSE
  5
6B
330
46
100
AcDbEntity
  8
0
  6
Continuous
 62
     0
370
    30
100
AcDbEllipse
 10
115.646
 20
28.492
 30
0.0
 11
3.000000000000002
 21
5.196152422706632
 31
0.0
210
0.0
220
0.0
230
1.0
 40
0.577
 41
3.34130527353009
 42
4.512676360444393
  0
LINE
  5
6C
330
46
100
AcDbEntity
  8
0
  6
Continuous
 62
     0
370
    30
100
AcDbLine
 10
112.111
 20
22.368
 30
0.0
 11
113.301
 21
23.055
 31
0.0
  0
LINE
  5
6D
330
46
100
AcDbEntity
  8
0
  6
Continuous
 62
     0
370
    30
100
AcDbLine
 10
117.991
 20
25.763
 30
0.0
 11
119.182
 21
26.45
 31
0.0
  0
LINE
  5
6E
330
46
100
AcDbEntity
  8
0
  6
Continuous
 62
     0
370
    30
100
AcDbLine
 10
119.182
 20
26.45
 30
0.0
 11
119.182
 21
27.825
 31
0.0
  0
LINE
  5
6F
330
46
100
AcDbEntity
  8
0
  6
Continuous
 62
     0
370
    30
100
AcDbLine
 10
119.182
 20
33.241
 30
0.0
 11
119.182
 21
34.615
 31
0.0
  0
ELLIPSE
  5
70
330
46
100
AcDbEntity
  8
0
  6
Continuous
 62
     0
370
    30
100
AcDbEllipse
 10
115.646
 20
28.492
 30
0.0
 11
3.000000000000002
 21
5.196152422706632
 31
0.0
210
0.0
220
0.0
230
1.0
 40
0.577
 41
0.1997126199402972
 42
1.3710837068546
  0
LINE
  5
71
330
46
100
AcDbEntity
  8
0
  6
Continuous
 62
     0
370
    30
100
AcDbLine
 10
119.182
 20
34.615
 30
0.0
 11
117.991
 21
33.928
 31
0.0
  0
LINE
  5
72
330
46
100
AcDbEntity
  8
0
  6
Continuous
 62
     0
370
    30
100
AcDbLine
 10
113.301
 20
31.22
 30
0.0
 11
112.111
 21
30.533
 31
0.0
  0
ELLIPSE
  5
73
330
46
100
AcDbEntity
  8
0
  6
Continuous
 62
     0
370
    30
100
AcDbEllipse
 10
115.646
 20
28.492
 30
0.0
 11
3.000000000000002
 21
5.196152422706632
 31
0.0
210
0.0
220
0.0
230
1.0
 40
0.577
 41
1.770508946735193
 42
2.941880033649497
  0
LINE
  5
74
330
46
100
AcDbEntity
  8
0
  6
Continuous
 62
     0
370
    30
100
AcDbLine
 10
112.111
 20
30.533
 30
0.0
 11
112.111
 21
29.158
 31
0.0
  0
LINE
  5
75
330
46
100
AcDbEntity
  8
0
  6
Continuous
 62
     0
370
    30
100
AcDbLine
 10
112.111
 20
23.742
 30
0.0
 11
112.111
 21
22.368
 31
0.0
  0
LINE
  5
76
330
46
100
AcDbEntity
  8
0
  6
Continuous
 62
     0
370
    30
100
AcDbLine
 10
119.182
 20
26.45
 30
0.0
 11
112.111
 21
30.533
 31
0.0
  0
LINE
  5
77
330
46
100
AcDbEntity
  8
0
  6
Continuous
 62
     0
370
    30
100
AcDbLine
 10
117.991
 20
25.763
 30
0.0
 11
112.111
 21
29.158
 31
0.0
  0
LINE
  5
78
330
46
100
AcDbEntity
  8
0
  6
Continuous
 62
     0
370
    30
100
AcDbLine
 10
112.111
 20
23.742
 30
0.0
 11
113.301
 21
23.055
 31
0.0
  0
LINE
  5
79
330
46
100
AcDbEntity
  8
0
  6
Continuous
 62
     0
370
    30
100
AcDbLine
 10
119.182
 20
33.241
 30
0.0
 11
117.991
 21
33.928
 31
0.0
  0
LINE
  5
7A
330
46
100
AcDbEntity
  8
0
  6
Continuous
 62
     0
370
    30
100
AcDbLine
 10
113.301
 20
31.22
 30
0.0
 11
119.182
 21
27.825
 31
0.0
  0
LINE
  5
7B
330
46
100
AcDbEntity
  8
0
  6
Continuous
 62
     0
370
     0
100
AcDbLine
 10
122.717
 20
33.799
 30
0.0
 11
122.717
 21
40.739
 31
0.0
  0
LINE
  5
7C
330
46
100
AcDbEntity
  8
0
  6
Continuous
 62
     0
370
     0
100
AcDbLine
 10
122.717
 20
24.409
 30
0.0
 11
122.717
 21
31.349
 31
0.0
  0
ELLIPSE
  5
7D
330
46
100
AcDbEntity
  8
0
  6
Continuous
 62
     0
370
    30
100
AcDbEllipse
 10
115.646
 20
28.492
 30
0.0
 11
3.000000000000002
 21
5.196152422706632
 31
0.0
210
0.0
220
0.0
230
1.0
 40
0.577
 41
5.750467398924217
 42
6.08347268723929
  0
LINE
  5
7E
330
46
100
AcDbEntity
  8
0
  6
Continuous
 62
     0
370
    30
100
AcDbLine
 10
119.754
 20
32.088
 30
0.0
 11
122.717
 21
33.799
 31
0.0
  0
ELLIPSE
  5
7F
330
46
100
AcDbEntity
  8
0
  6
Continuous
 62
     0
370
    30
100
AcDbEllipse
 10
115.646
 20
28.492
 30
0.0
 11
3.000000000000002
 21
5.196152422706632
 31
0.0
210
0.0
220
0.0
230
1.0
 40
0.577
 41
4.912101600324986
 42
5.245106888640059
  0
LINE
  5
80
330
46
100
AcDbEntity
  8
0
  6
Continuous
 62
     0
370
    30
100
AcDbLine
 10
122.717
 20
31.349
 30
0.0
 11
119.754
 21
29.639
 31
0.0
  0
ELLIPSE
  5
81
330
46
100
AcDbEntity
  8
0
  6
Continuous
 62
     0
370
    30
100
AcDbEllipse
 10
115.646
 20
37.881
 30
0.0
 11
10.00000000000001
 21
0.0
 31
0.0
210
0.0
220
0.0
230
-1.0
 40
0.577
 41
0.0000000086396867
 42
0.7853981633974483
  0
ELLIPSE
  5
82
330
46
100
AcDbEntity
  8
0
  6
Continuous
 62
     0
370
    30
100
AcDbEllipse
 10
115.646
 20
35.432
 30
0.0
 11
-10.00000000000001
 21
0.0
 31
0.0
210
0.0
220
0.0
230
1.0
 40
0.577
 41
2.356194490192345
 42
3.355348765626829
  0
LINE
  5
83
330
46
100
AcDbEntity
  8
0
  6
Continuous
 62
     0
370
    30
100
AcDbLine
 10
119.754
 20
32.088
 30
0.0
 11
116.707
 21
33.847
 31
0.0
  0
LINE
  5
84
330
46
100
AcDbEntity
  8
0
  6
Continuous
 62
     0
370
    30
100
AcDbLine
 10
114.586
 20
32.623
 30
0.0
 11
119.754
 21
29.639
 31
0.0
  0
ELLIPSE
  5
85
330
46
100
AcDbEntity
  8
0
  6
Continuous
 62
     0
370
    30
100
AcDbEllipse
 10
88.423
 20
22.164
 30
0.0
 11
1.375000000000001
 21
2.381569860407206
 31
0.0
210
0.0
220
0.0
230
0.9999999999999999
 40
0.577
 41
1.345696665429564
 42
2.556908702141558
  0
LINE
  5
86
330
46
100
AcDbEntity
  8
0
  6
Continuous
 62
     0
370
    30
100
AcDbLine
 10
96.554
 20
13.462
 30
0.0
 11
99.559
 21
17.2
 31
0.0
  0
LINE
  5
87
330
46
100
AcDbEntity
  8
0
  6
Continuous
 62
     0
370
    30
100
AcDbLine
 10
99.559
 20
17.2
 30
0.0
 11
99.559
 21
21.207
 31
0.0
  0
LINE
  5
88
330
46
100
AcDbEntity
  8
0
  6
Continuous
 62
     0
370
    30
100
AcDbLine
 10
99.559
 20
21.207
 30
0.0
 11
96.554
 21
21.476
 31
0.0
  0
LINE
  5
89
330
46
100
AcDbEntity
  8
0
  6
Continuous
 62
     0
370
    30
100
AcDbLine
 10
96.554
 20
21.476
 30
0.0
 11
93.549
 21
17.737
 31
0.0
  0
LINE
  5
8A
330
46
100
AcDbEntity
  8
0
  6
Continuous
 62
     0
370
    30
100
AcDbLine
 10
93.549
 20
17.737
 30
0.0
 11
93.549
 21
13.73
 31
0.0
  0
LINE
  5
8B
330
46
100
AcDbEntity
  8
0
  6
Continuous
 62
     0
370
    30
100
AcDbLine
 10
93.549
 20
13.73
 30
0.0
 11
96.554
 21
13.462
 31
0.0
  0
LINE
  5
8C
330
46
100
AcDbEntity
  8
0
  6
Continuous
 62
     0
370
    30
100
AcDbLine
 10
93.549
 20
17.451
 30
0.0
 11
95.317
 21
19.65
 31
0.0
  0
LINE
  5
8D
330
46
100
AcDbEntity
  8
0
  6
Continuous
 62
     0
370
    30
100
AcDbLine
 10
95.317
 20
19.65
 30
0.0
 11
95.317
 21
19.936
 31
0.0
  0
LINE
  5
8E
330
46
100
AcDbEntity
  8
0
  6
Continuous
 62
     0
370
    30
100
AcDbLine
 10
96.554
 20
13.462
 30
0.0
 11
93.549
 21
15.197
 31
0.0
  0
LINE
  5
8F
330
46
100
AcDbEntity
  8
0
  6
Continuous
 62
     0
370
    30
100
AcDbLine
 10
99.559
 20
17.2
 30
0.0
 11
95.317
 21
19.65
 31
0.0
  0
ELLIPSE
  5
90
330
46
100
AcDbEntity
  8
0
  6
Continuous
 62
     0
370
    30
100
AcDbEllipse
 10
86.655
 20
23.184
 30
0.0
 11
-1.375000000000001
 21
-2.381569860407206
 31
0.0
210
0.0
220
0.0
230
-0.9999999999999999
 40
0.577
 41
5.539169263903513
 42
5.585005638043672
  0
LINE
  5
91
330
46
100
AcDbEntity
  8
0
  6
Continuous
 62
     0
370
    30
100
AcDbLine
 10
115.004
 20
48.458
 30
0.0
 11
113.734
 21
45.721
 31
0.0
  0
LINE
  5
92
330
46
100
AcDbEntity
  8
0
  6
Continuous
 62
     0
370
    30
100
AcDbLine
 10
113.734
 20
45.721
 30
0.0
 11
117.204
 21
43.718
 31
0.0
  0
LINE
  5
93
330
46
100
AcDbEntity
  8
0
  6
Continuous
 62
     0
370
    30
100
AcDbLine
 10
117.204
 20
43.718
 30
0.0
 11
121.945
 21
44.451
 31
0.0
  0
LINE
  5
94
330
46
100
AcDbEntity
  8
0
  6
Continuous
 62
     0
370
    30
100
AcDbLine
 10
121.945
 20
44.451
 30
0.0
 11
123.215
 21
47.188
 31
0.0
  0
LINE
  5
95
330
46
100
AcDbEntity
  8
0
  6
Continuous
 62
     0
370
    30
100
AcDbLine
 10
123.215
 20
47.188
 30
0.0
 11
119.745
 21
49.191
 31
0.0
  0
LINE
  5
96
330
46
100
AcDbEntity
  8
0
  6
Continuous
 62
     0
370
    30
100
AcDbLine
 10
119.745
 20
49.191
 30
0.0
 11
115.004
 21
48.458
 31
0.0
  0
LINE
  5
97
330
46
100
AcDbEntity
  8
0
  6
Continuous
 62
     0
370
    30
100
AcDbLine
 10
119.993
 20
44.149
 30
0.0
 11
119.745
 21
44.292
 31
0.0
  0
LINE
  5
98
330
46
100
AcDbEntity
  8
0
  6
Continuous
 62
     0
370
    30
100
AcDbLine
 10
119.745
 20
44.292
 30
0.0
 11
116.956
 21
43.861
 31
0.0
  0
LINE
  5
99
330
46
100
AcDbEntity
  8
0
  6
Continuous
 62
     0
370
    30
100
AcDbLine
 10
115.004
 20
48.458
 30
0.0
 11
115.004
 21
44.988
 31
0.0
  0
LINE
  5
9A
330
46
100
AcDbEntity
  8
0
  6
Continuous
 62
     0
370
    30
100
AcDbLine
 10
119.745
 20
49.191
 30
0.0
 11
119.745
 21
44.292
 31
0.0
  0
LINE
  5
9B
330
46
100
AcDbEntity
  8
0
  6
Continuous
 62
     0
370
    30
100
AcDbLine
 10
88.372
 20
13.912
 30
0.0
 11
94.383
 21
10.442
 31
0.0
  0
LINE
  5
9C
330
46
100
AcDbEntity
  8
0
  6
Continuous
 62
     0
370
    30
100
AcDbLine
 10
80.241
 20
18.607
 30
0.0
 11
86.251
 21
15.136
 31
0.0
  0
LINE
  5
9D
330
46
100
AcDbEntity
  8
0
  6
Continuous
 62
     0
370
    30
100
AcDbLine
 10
125.646
 20
37.881
 30
0.0
 11
125.646
 21
44.821
 31
0.0
  0
LINE
  5
9E
330
46
100
AcDbEntity
  8
0
  6
Continuous
 62
     0
370
    30
100
AcDbLine
 10
125.646
 20
28.492
 30
0.0
 11
125.646
 21
35.432
 31
0.0
  0
ENDBLK
  5
A0
330
46
100
AcDbEntity
  8
0
100
AcDbBlockEnd
  0
BLOCK
  5
D9
330
A2
100
AcDbEntity
  8
0
100
AcDbBlockBegin
  2
a
 70
     0
 10
8.77
 20
14.252
 30
0.0
  3
a
  1

  0
ARC
  5
A3
330
A2
100
AcDbEntity
  8
0
  6
Continuous
 62
     0
370
    30
100
AcDbCircle
 10
19.83
 20
24.652
 30
0.0
 40
10.00000000000001
100
AcDbArc
 50
90.0
 51
270.0
  0
LINE
  5
A4
330
A2
100
AcDbEntity
  8
0
  6
Continuous
 62
     0
370
    30
100
AcDbLine
 10
19.83
 20
14.652
 30
0.0
 11
52.83
 21
14.652
 31
0.0
  0
LINE
  5
A5
330
A2
100
AcDbEntity
  8
0
  6
Continuous
 62
     0
370
    30
100
AcDbLine
 10
52.83
 20
34.652
 30
0.0
 11
19.83
 21
34.652
 31
0.0
  0
LINE
  5
A6
330
A2
100
AcDbEntity
  8
0
  6
Continuous
 62
     0
370
    30
100
AcDbLine
 10
62.83
 20
14.652
 30
0.0
 11
52.83
 21
14.652
 31
0.0
  0
LINE
  5
A7
330
A2
100
AcDbEntity
  8
0
  6
Continuous
 62
     0
370
    30
100
AcDbLine
 10
62.83
 20
34.652
 30
0.0
 11
52.83
 21
34.652
 31
0.0
  0
ARC
  5
A8
330
A2
100
AcDbEntity
  8
0
  6
Continuous
 62
     0
370
    30
100
AcDbCircle
 10
42.83
 20
24.652
 30
0.0
 40
6.0
100
AcDbArc
 50
56.443
 51
123.557
  0
LINE
  5
A9
330
A2
100
AcDbEntity
  8
0
  6
Continuous
 62
     0
370
    30
100
AcDbLine
 10
47.83
 20
29.652
 30
0.0
 11
46.146
 21
29.652
 31
0.0
  0
LINE
  5
AA
330
A2
100
AcDbEntity
  8
0
  6
Continuous
 62
     0
370
    30
100
AcDbLine
 10
39.513
 20
29.652
 30
0.0
 11
37.83
 21
29.652
 31
0.0
  0
ARC
  5
AB
330
A2
100
AcDbEntity
  8
0
  6
Continuous
 62
     0
370
    30
100
AcDbCircle
 10
42.83
 20
24.652
 30
0.0
 40
6.0
100
AcDbArc
 50
146.443
 51
213.557
  0
LINE
  5
AC
330
A2
100
AcDbEntity
  8
0
  6
Continuous
 62
     0
370
    30
100
AcDbLine
 10
37.83
 20
29.652
 30
0.0
 11
37.83
 21
27.969
 31
0.0
  0
LINE
  5
AD
330
A2
100
AcDbEntity
  8
0
  6
Continuous
 62
     0
370
    30
100
AcDbLine
 10
37.83
 20
21.335
 30
0.0
 11
37.83
 21
19.652
 31
0.0
  0
ARC
  5
AE
330
A2
100
AcDbEntity
  8
0
  6
Continuous
 62
     0
370
    30
100
AcDbCircle
 10
42.83
 20
24.652
 30
0.0
 40
6.0
100
AcDbArc
 50
236.443
 51
303.557
  0
LINE
  5
AF
330
A2
100
AcDbEntity
  8
0
  6
Continuous
 62
     0
370
    30
100
AcDbLine
 10
37.83
 20
19.652
 30
0.0
 11
39.513
 21
19.652
 31
0.0
  0
LINE
  5
B0
330
A2
100
AcDbEntity
  8
0
  6
Continuous
 62
     0
370
    30
100
AcDbLine
 10
46.146
 20
19.652
 30
0.0
 11
47.83
 21
19.652
 31
0.0
  0
LINE
  5
B1
330
A2
100
AcDbEntity
  8
0
  6
Continuous
 62
     0
370
    30
100
AcDbLine
 10
47.83
 20
19.652
 30
0.0
 11
47.83
 21
21.335
 31
0.0
  0
LINE
  5
B2
330
A2
100
AcDbEntity
  8
0
  6
Continuous
 62
     0
370
    30
100
AcDbLine
 10
47.83
 20
27.969
 30
0.0
 11
47.83
 21
29.652
 31
0.0
  0
LINE
  5
B3
330
A2
100
AcDbEntity
  8
0
  6
Continuous
 62
     0
370
     0
100
AcDbLine
 10
52.83
 20
26.152
 30
0.0
 11
52.83
 21
34.652
 31
0.0
  0
LINE
  5
B4
330
A2
100
AcDbEntity
  8
0
  6
Continuous
 62
     0
370
     0
100
AcDbLine
 10
52.83
 20
14.652
 30
0.0
 11
52.83
 21
23.152
 31
0.0
  0
ARC
  5
B5
330
A2
100
AcDbEntity
  8
0
  6
Continuous
 62
     0
370
    30
100
AcDbCircle
 10
42.83
 20
24.652
 30
0.0
 40
6.0
100
AcDbArc
 50
14.478
 51
33.557
  0
LINE
  5
B6
330
A2
100
AcDbEntity
  8
0
  6
Continuous
 62
     0
370
    30
100
AcDbLine
 10
48.639
 20
26.152
 30
0.0
 11
52.83
 21
26.152
 31
0.0
  0
ARC
  5
B7
330
A2
100
AcDbEntity
  8
0
  6
Continuous
 62
     0
370
    30
100
AcDbCircle
 10
42.83
 20
24.652
 30
0.0
 40
6.0
100
AcDbArc
 50
326.443
 51
345.522
  0
LINE
  5
B8
330
A2
100
AcDbEntity
  8
0
  6
Continuous
 62
     0
370
    30
100
AcDbLine
 10
52.83
 20
23.152
 30
0.0
 11
48.639
 21
23.152
 31
0.0
  0
LINE
  5
B9
330
A2
100
AcDbEntity
  8
0
  6
Continuous
 62
     0
370
    30
100
AcDbLine
 10
62.83
 20
14.652
 30
0.0
 11
62.83
 21
23.152
 31
0.0
  0
LINE
  5
BA
330
A2
100
AcDbEntity
  8
0
  6
Continuous
 62
     0
370
    30
100
AcDbLine
 10
62.83
 20
26.152
 30
0.0
 11
62.83
 21
34.652
 31
0.0
  0
LINE
  5
BB
330
A2
100
AcDbEntity
  8
0
  6
Continuous
 62
     0
370
    30
100
AcDbLine
 10
52.83
 20
26.152
 30
0.0
 11
62.83
 21
26.152
 31
0.0
  0
LINE
  5
BC
330
A2
100
AcDbEntity
  8
0
  6
Continuous
 62
     0
370
    30
100
AcDbLine
 10
62.83
 20
23.152
 30
0.0
 11
52.83
 21
23.152
 31
0.0
  0
LINE
  5
BE
330
A2
100
AcDbEntity
  8
0
  6
HIDDEN2
 62
     0
370
    30
100
AcDbLine
 10
24.83
 20
34.652
 30
0.0
 11
24.83
 21
14.652
 31
0.0
  0
LINE
  5
BF
330
A2
100
AcDbEntity
  8
0
  6
HIDDEN2
 62
     0
370
    30
100
AcDbLine
 10
34.83
 20
34.652
 30
0.0
 11
34.83
 21
14.652
 31
0.0
  0
LINE
  5
C0
330
A2
100
AcDbEntity
  8
0
  6
HIDDEN2
 62
     0
370
    30
100
AcDbLine
 10
33.146
 20
34.652
 30
0.0
 11
33.146
 21
14.652
 31
0.0
  0
LINE
  5
C1
330
A2
100
AcDbEntity
  8
0
  6
HIDDEN2
 62
     0
370
    30
100
AcDbLine
 10
26.513
 20
14.652
 30
0.0
 11
26.513
 21
34.652
 31
0.0
  0
LINE
  5
C2
330
A2
100
AcDbEntity
  8
0
  6
HIDDEN2
 62
     0
370
    30
100
AcDbLine
 10
24.02
 20
34.652
 30
0.0
 11
24.02
 21
14.652
 31
0.0
  0
LINE
  5
C3
330
A2
100
AcDbEntity
  8
0
  6
HIDDEN2
 62
     0
370
    30
100
AcDbLine
 10
52.58
 20
28.652
 30
0.0
 11
56.83
 21
28.652
 31
0.0
  0
LINE
  5
C4
330
A2
100
AcDbEntity
  8
0
  6
HIDDEN2
 62
     0
370
    30
100
AcDbLine
 10
56.83
 20
28.652
 30
0.0
 11
61.08
 21
28.652
 31
0.0
  0
LINE
  5
C5
330
A2
100
AcDbEntity
  8
0
  6
HIDDEN2
 62
     0
370
    30
100
AcDbLine
 10
52.58
 20
34.652
 30
0.0
 11
52.58
 21
28.652
 31
0.0
  0
LINE
  5
C6
330
A2
100
AcDbEntity
  8
0
  6
HIDDEN2
 62
     0
370
    30
100
AcDbLine
 10
56.83
 20
34.652
 30
0.0
 11
56.83
 21
28.652
 31
0.0
  0
LINE
  5
C7
330
A2
100
AcDbEntity
  8
0
  6
HIDDEN2
 62
     0
370
    30
100
AcDbLine
 10
61.08
 20
34.652
 30
0.0
 11
61.08
 21
28.652
 31
0.0
  0
LINE
  5
C8
330
A2
100
AcDbEntity
  8
0
  6
HIDDEN2
 62
     0
370
    30
100
AcDbLine
 10
54.08
 20
28.652
 30
0.0
 11
54.08
 21
26.152
 31
0.0
  0
LINE
  5
C9
330
A2
100
AcDbEntity
  8
0
  6
HIDDEN2
 62
     0
370
    30
100
AcDbLine
 10
61.08
 20
20.652
 30
0.0
 11
56.83
 21
20.652
 31
0.0
  0
LINE
  5
CA
330
A2
100
AcDbEntity
  8
0
  6
HIDDEN2
 62
     0
370
    30
100
AcDbLine
 10
56.83
 20
20.652
 30
0.0
 11
52.58
 21
20.652
 31
0.0
  0
LINE
  5
CB
330
A2
100
AcDbEntity
  8
0
  6
HIDDEN2
 62
     0
370
    30
100
AcDbLine
 10
61.08
 20
14.652
 30
0.0
 11
61.08
 21
20.652
 31
0.0
  0
LINE
  5
CC
330
A2
100
AcDbEntity
  8
0
  6
HIDDEN2
 62
     0
370
    30
100
AcDbLine
 10
56.83
 20
14.652
 30
0.0
 11
56.83
 21
20.652
 31
0.0
  0
LINE
  5
CD
330
A2
100
AcDbEntity
  8
0
  6
HIDDEN2
 62
     0
370
    30
100
AcDbLine
 10
52.58
 20
14.652
 30
0.0
 11
52.58
 21
20.652
 31
0.0
  0
LINE
  5
CE
330
A2
100
AcDbEntity
  8
0
  6
HIDDEN2
 62
     0
370
    30
100
AcDbLine
 10
54.08
 20
23.152
 30
0.0
 11
54.08
 21
20.652
 31
0.0
  0
LINE
  5
CF
330
A2
100
AcDbEntity
  8
0
  6
Continuous
 62
     0
370
    30
100
AcDbLine
 10
15.83
 20
19.745
 30
0.0
 11
20.08
 21
22.198
 31
0.0
  0
LINE
  5
D0
330
A2
100
AcDbEntity
  8
0
  6
Continuous
 62
     0
370
    30
100
AcDbLine
 10
20.08
 20
22.198
 30
0.0
 11
20.08
 21
27.106
 31
0.0
  0
LINE
  5
D1
330
A2
100
AcDbEntity
  8
0
  6
Continuous
 62
     0
370
    30
100
AcDbLine
 10
20.08
 20
27.106
 30
0.0
 11
15.83
 21
29.56
 31
0.0
  0
LINE
  5
D2
330
A2
100
AcDbEntity
  8
0
  6
Continuous
 62
     0
370
    30
100
AcDbLine
 10
15.83
 20
29.56
 30
0.0
 11
11.58
 21
27.106
 31
0.0
  0
LINE
  5
D3
330
A2
100
AcDbEntity
  8
0
  6
Continuous
 62
     0
370
    30
100
AcDbLine
 10
11.58
 20
27.106
 30
0.0
 11
11.58
 21
22.198
 31
0.0
  0
LINE
  5
D4
330
A2
100
AcDbEntity
  8
0
  6
Continuous
 62
     0
370
    30
100
AcDbLine
 10
11.58
 20
22.198
 30
0.0
 11
15.83
 21
19.745
 31
0.0
  0
CIRCLE
  5
D5
330
A2
100
AcDbEntity
  8
0
  6
Continuous
 62
     0
370
    30
100
AcDbCircle
 10
15.83
 20
24.652
 30
0.0
 40
2.75
  0
LINE
  5
D6
330
A2
100
AcDbEntity
  8
0
  6
HIDDEN2
 62
     0
370
    30
100
AcDbLine
 10
59.58
 20
23.152
 30
0.0
 11
59.58
 21
20.652
 31
0.0
  0
LINE
  5
D7
330
A2
100
AcDbEntity
  8
0
  6
HIDDEN2
 62
     0
370
    30
100
AcDbLine
 10
59.58
 20
28.652
 30
0.0
 11
59.58
 21
26.152
 31
0.0
  0
LINE
  5
D8
330
A2
100
AcDbEntity
  8
0
  6
HIDDEN2
 62
     0
370
    30
100
AcDbLine
 10
35.83
 20
34.652
 30
0.0
 11
35.83
 21
14.652
 31
0.0
  0
ENDBLK
  5
DA
330
A2
100
AcDbEntity
  8
0
100
AcDbBlockEnd
  0
BLOCK
  5
113
330
DC
100
AcDbEntity
  8
0
100
AcDbBlockBegin
  2
b
 70
     0
 10
-36.324
 20
26.118
 30
0.0
  3
b
  1

  0
LINE
  5
DD
330
DC
100
AcDbEntity
  8
0
  6
Continuous
 62
     0
370
    30
100
AcDbLine
 10
9.83
 20
65.505
 30
0.0
 11
19.83
 21
65.505
 31
0.0
  0
LINE
  5
DE
330
DC
100
AcDbEntity
  8
0
  6
Continuous
 62
     0
370
    30
100
AcDbLine
 10
9.83
 20
85.505
 30
0.0
 11
19.83
 21
85.505
 31
0.0
  0
LINE
  5
DF
330
DC
100
AcDbEntity
  8
0
  6
Continuous
 62
     0
370
    30
100
AcDbLine
 10
19.83
 20
85.505
 30
0.0
 11
52.83
 21
85.505
 31
0.0
  0
LINE
  5
E0
330
DC
100
AcDbEntity
  8
0
  6
Continuous
 62
     0
370
    30
100
AcDbLine
 10
19.83
 20
65.505
 30
0.0
 11
52.83
 21
65.505
 31
0.0
  0
ARC
  5
E1
330
DC
100
AcDbEntity
  8
0
  6
Continuous
 62
     0
370
    30
100
AcDbCircle
 10
52.83
 20
75.505
 30
0.0
 40
10.0
100
AcDbArc
 50
0.0
 51
90.0
  0
ARC
  5
E2
330
DC
100
AcDbEntity
  8
0
  6
Continuous
 62
     0
370
    30
100
AcDbCircle
 10
52.83
 20
75.505
 30
0.0
 40
10.0
100
AcDbArc
 50
270.0
 51
0.0
  0
LINE
  5
E3
330
DC
100
AcDbEntity
  8
0
  6
HIDDEN2
 62
     0
370
    30
100
AcDbLine
 10
37.83
 20
85.505
 30
0.0
 11
37.83
 21
65.505
 31
0.0
  0
LINE
  5
E4
330
DC
100
AcDbEntity
  8
0
  6
HIDDEN2
 62
     0
370
    30
100
AcDbLine
 10
47.83
 20
85.505
 30
0.0
 11
47.83
 21
65.505
 31
0.0
  0
LINE
  5
E5
330
DC
100
AcDbEntity
  8
0
  6
HIDDEN2
 62
     0
370
    30
100
AcDbLine
 10
46.146
 20
85.505
 30
0.0
 11
46.146
 21
65.505
 31
0.0
  0
LINE
  5
E6
330
DC
100
AcDbEntity
  8
0
  6
HIDDEN2
 62
     0
370
    30
100
AcDbLine
 10
39.513
 20
65.505
 30
0.0
 11
39.513
 21
85.505
 31
0.0
  0
LINE
  5
E7
330
DC
100
AcDbEntity
  8
0
  6
HIDDEN2
 62
     0
370
    30
100
AcDbLine
 10
48.639
 20
65.505
 30
0.0
 11
48.639
 21
85.505
 31
0.0
  0
ARC
  5
E8
330
DC
100
AcDbEntity
  8
0
  6
Continuous
 62
     0
370
    30
100
AcDbCircle
 10
29.83
 20
75.505
 30
0.0
 40
6.0
100
AcDbArc
 50
56.443
 51
123.557
  0
ARC
  5
E9
330
DC
100
AcDbEntity
  8
0
  6
Continuous
 62
     0
370
    30
100
AcDbCircle
 10
29.83
 20
75.505
 30
0.0
 40
6.0
100
AcDbArc
 50
326.443
 51
33.557
  0
ARC
  5
EA
330
DC
100
AcDbEntity
  8
0
  6
Continuous
 62
     0
370
    30
100
AcDbCircle
 10
29.83
 20
75.505
 30
0.0
 40
6.0
100
AcDbArc
 50
236.443
 51
303.557
  0
LINE
  5
EB
330
DC
100
AcDbEntity
  8
0
  6
Continuous
 62
     0
370
    30
100
AcDbLine
 10
34.83
 20
70.505
 30
0.0
 11
33.146
 21
70.505
 31
0.0
  0
LINE
  5
EC
330
DC
100
AcDbEntity
  8
0
  6
Continuous
 62
     0
370
    30
100
AcDbLine
 10
26.513
 20
70.505
 30
0.0
 11
24.83
 21
70.505
 31
0.0
  0
LINE
  5
ED
330
DC
100
AcDbEntity
  8
0
  6
Continuous
 62
     0
370
    30
100
AcDbLine
 10
24.83
 20
80.505
 30
0.0
 11
24.83
 21
78.822
 31
0.0
  0
LINE
  5
EE
330
DC
100
AcDbEntity
  8
0
  6
Continuous
 62
     0
370
    30
100
AcDbLine
 10
24.83
 20
72.189
 30
0.0
 11
24.83
 21
70.505
 31
0.0
  0
LINE
  5
EF
330
DC
100
AcDbEntity
  8
0
  6
Continuous
 62
     0
370
    30
100
AcDbLine
 10
24.83
 20
80.505
 30
0.0
 11
26.513
 21
80.505
 31
0.0
  0
LINE
  5
F0
330
DC
100
AcDbEntity
  8
0
  6
Continuous
 62
     0
370
    30
100
AcDbLine
 10
33.146
 20
80.505
 30
0.0
 11
34.83
 21
80.505
 31
0.0
  0
LINE
  5
F1
330
DC
100
AcDbEntity
  8
0
  6
Continuous
 62
     0
370
    30
100
AcDbLine
 10
34.83
 20
80.505
 30
0.0
 11
34.83
 21
78.822
 31
0.0
  0
LINE
  5
F2
330
DC
100
AcDbEntity
  8
0
  6
Continuous
 62
     0
370
    30
100
AcDbLine
 10
34.83
 20
72.189
 30
0.0
 11
34.83
 21
70.505
 31
0.0
  0
LINE
  5
F3
330
DC
100
AcDbEntity
  8
0
  6
Continuous
 62
     0
370
     0
100
AcDbLine
 10
19.83
 20
65.505
 30
0.0
 11
19.83
 21
74.005
 31
0.0
  0
LINE
  5
F4
330
DC
100
AcDbEntity
  8
0
  6
Continuous
 62
     0
370
     0
100
AcDbLine
 10
19.83
 20
77.005
 30
0.0
 11
19.83
 21
85.505
 31
0.0
  0
ARC
  5
F5
330
DC
100
AcDbEntity
  8
0
  6
Continuous
 62
     0
370
    30
100
AcDbCircle
 10
29.83
 20
75.505
 30
0.0
 40
6.0
100
AcDbArc
 50
146.443
 51
165.522
  0
ARC
  5
F6
330
DC
100
AcDbEntity
  8
0
  6
Continuous
 62
     0
370
    30
100
AcDbCircle
 10
29.83
 20
75.505
 30
0.0
 40
6.0
100
AcDbArc
 50
194.478
 51
213.557
  0
LINE
  5
F7
330
DC
100
AcDbEntity
  8
0
  6
Continuous
 62
     0
370
    30
100
AcDbLine
 10
19.83
 20
77.005
 30
0.0
 11
9.83
 21
77.005
 31
0.0
  0
LINE
  5
F8
330
DC
100
AcDbEntity
  8
0
  6
Continuous
 62
     0
370
    30
100
AcDbLine
 10
9.83
 20
74.005
 30
0.0
 11
19.83
 21
74.005
 31
0.0
  0
LINE
  5
F9
330
DC
100
AcDbEntity
  8
0
  6
Continuous
 62
     0
370
    30
100
AcDbLine
 10
19.83
 20
77.005
 30
0.0
 11
24.02
 21
77.005
 31
0.0
  0
LINE
  5
FA
330
DC
100
AcDbEntity
  8
0
  6
Continuous
 62
     0
370
    30
100
AcDbLine
 10
19.83
 20
74.005
 30
0.0
 11
24.02
 21
74.005
 31
0.0
  0
LINE
  5
FB
330
DC
100
AcDbEntity
  8
0
  6
Continuous
 62
     0
370
    30
100
AcDbLine
 10
56.83
 20
70.598
 30
0.0
 11
61.08
 21
73.052
 31
0.0
  0
LINE
  5
FC
330
DC
100
AcDbEntity
  8
0
  6
Continuous
 62
     0
370
    30
100
AcDbLine
 10
61.08
 20
73.052
 30
0.0
 11
61.08
 21
77.959
 31
0.0
  0
LINE
  5
FD
330
DC
100
AcDbEntity
  8
0
  6
Continuous
 62
     0
370
    30
100
AcDbLine
 10
61.08
 20
77.959
 30
0.0
 11
56.83
 21
80.413
 31
0.0
  0
LINE
  5
FE
330
DC
100
AcDbEntity
  8
0
  6
Continuous
 62
     0
370
    30
100
AcDbLine
 10
56.83
 20
80.413
 30
0.0
 11
52.58
 21
77.959
 31
0.0
  0
LINE
  5
FF
330
DC
100
AcDbEntity
  8
0
  6
Continuous
 62
     0
370
    30
100
AcDbLine
 10
52.58
 20
77.959
 30
0.0
 11
52.58
 21
73.052
 31
0.0
  0
LINE
  5
100
330
DC
100
AcDbEntity
  8
0
  6
Continuous
 62
     0
370
    30
100
AcDbLine
 10
52.58
 20
73.052
 30
0.0
 11
56.83
 21
70.598
 31
0.0
  0
CIRCLE
  5
101
330
DC
100
AcDbEntity
  8
0
  6
Continuous
 62
     0
370
    30
100
AcDbCircle
 10
56.83
 20
75.505
 30
0.0
 40
2.75
  0
LINE
  5
102
330
DC
100
AcDbEntity
  8
0
  6
HIDDEN2
 62
     0
370
    30
100
AcDbLine
 10
20.08
 20
71.505
 30
0.0
 11
15.83
 21
71.505
 31
0.0
  0
LINE
  5
103
330
DC
100
AcDbEntity
  8
0
  6
HIDDEN2
 62
     0
370
    30
100
AcDbLine
 10
15.83
 20
71.505
 30
0.0
 11
11.58
 21
71.505
 31
0.0
  0
LINE
  5
104
330
DC
100
AcDbEntity
  8
0
  6
HIDDEN2
 62
     0
370
    30
100
AcDbLine
 10
20.08
 20
65.505
 30
0.0
 11
20.08
 21
71.505
 31
0.0
  0
LINE
  5
105
330
DC
100
AcDbEntity
  8
0
  6
HIDDEN2
 62
     0
370
    30
100
AcDbLine
 10
15.83
 20
65.505
 30
0.0
 11
15.83
 21
71.505
 31
0.0
  0
LINE
  5
106
330
DC
100
AcDbEntity
  8
0
  6
HIDDEN2
 62
     0
370
    30
100
AcDbLine
 10
11.58
 20
65.505
 30
0.0
 11
11.58
 21
71.505
 31
0.0
  0
LINE
  5
107
330
DC
100
AcDbEntity
  8
0
  6
HIDDEN2
 62
     0
370
    30
100
AcDbLine
 10
18.58
 20
71.505
 30
0.0
 11
18.58
 21
74.005
 31
0.0
  0
LINE
  5
108
330
DC
100
AcDbEntity
  8
0
  6
HIDDEN2
 62
     0
370
    30
100
AcDbLine
 10
15.83
 20
79.505
 30
0.0
 11
20.08
 21
79.505
 31
0.0
  0
LINE
  5
109
330
DC
100
AcDbEntity
  8
0
  6
HIDDEN2
 62
     0
370
    30
100
AcDbLine
 10
11.58
 20
79.505
 30
0.0
 11
15.83
 21
79.505
 31
0.0
  0
LINE
  5
10A
330
DC
100
AcDbEntity
  8
0
  6
HIDDEN2
 62
     0
370
    30
100
AcDbLine
 10
15.83
 20
85.505
 30
0.0
 11
15.83
 21
79.505
 31
0.0
  0
LINE
  5
10B
330
DC
100
AcDbEntity
  8
0
  6
HIDDEN2
 62
     0
370
    30
100
AcDbLine
 10
20.08
 20
85.505
 30
0.0
 11
20.08
 21
79.505
 31
0.0
  0
LINE
  5
10C
330
DC
100
AcDbEntity
  8
0
  6
HIDDEN2
 62
     0
370
    30
100
AcDbLine
 10
11.58
 20
85.505
 30
0.0
 11
11.58
 21
79.505
 31
0.0
  0
LINE
  5
10D
330
DC
100
AcDbEntity
  8
0
  6
HIDDEN2
 62
     0
370
    30
100
AcDbLine
 10
18.58
 20
77.005
 30
0.0
 11
18.58
 21
79.505
 31
0.0
  0
LINE
  5
10E
330
DC
100
AcDbEntity
  8
0
  6
HIDDEN2
 62
     0
370
    30
100
AcDbLine
 10
13.08
 20
77.005
 30
0.0
 11
13.08
 21
79.505
 31
0.0
  0
LINE
  5
10F
330
DC
100
AcDbEntity
  8
0
  6
HIDDEN2
 62
     0
370
    30
100
AcDbLine
 10
13.08
 20
71.505
 30
0.0
 11
13.08
 21
74.005
 31
0.0
  0
LINE
  5
110
330
DC
100
AcDbEntity
  8
0
  6
HIDDEN2
 62
     0
370
    30
100
AcDbLine
 10
36.83
 20
85.505
 30
0.0
 11
36.83
 21
65.505
 31
0.0
  0
LINE
  5
111
330
DC
100
AcDbEntity
  8
0
  6
Continuous
 62
     0
370
    30
100
AcDbLine
 10
9.83
 20
77.005
 30
0.0
 11
9.83
 21
85.505
 31
0.0
  0
LINE
  5
112
330
DC
100
AcDbEntity
  8
0
  6
Continuous
 62
     0
370
    30
100
AcDbLine
 10
9.83
 20
65.505
 30
0.0
 11
9.83
 21
74.005
 31
0.0
  0
ENDBLK
  5
114
330
DC
100
AcDbEntity
  8
0
100
AcDbBlockEnd
  0
BLOCK
  5
121
330
116
100
AcDbEntity
  8
0
100
AcDbBlockBegin
  2
c
 70
     0
 10
53.422
 20
-54.296
 30
0.0
  3
c
  1

  0
LINE
  5
117
330
116
100
AcDbEntity
  8
0
  6
Continuous
 62
     0
370
    30
100
AcDbLine
 10
92.809
 20
65.505
 30
0.0
 11
112.809
 21
65.505
 31
0.0
  0
LINE
  5
118
330
116
100
AcDbEntity
  8
0
  6
Continuous
 62
     0
370
    30
100
AcDbLine
 10
92.809
 20
85.505
 30
0.0
 11
112.809
 21
85.505
 31
0.0
  0
LINE
  5
119
330
116
100
AcDbEntity
  8
0
  6
Continuous
 62
     0
370
    30
100
AcDbLine
 10
92.809
 20
77.005
 30
0.0
 11
92.809
 21
74.005
 31
0.0
  0
LINE
  5
11A
330
116
100
AcDbEntity
  8
0
  6
Continuous
 62
     0
370
    30
100
AcDbLine
 10
112.809
 20
77.005
 30
0.0
 11
112.809
 21
74.005
 31
0.0
  0
LINE
  5
11B
330
116
100
AcDbEntity
  8
0
  6
Continuous
 62
     0
370
    30
100
AcDbLine
 10
92.809
 20
77.005
 30
0.0
 11
92.809
 21
85.505
 31
0.0
  0
LINE
  5
11C
330
116
100
AcDbEntity
  8
0
  6
Continuous
 62
     0
370
    30
100
AcDbLine
 10
92.809
 20
65.505
 30
0.0
 11
92.809
 21
74.005
 31
0.0
  0
LINE
  5
11D
330
116
100
AcDbEntity
  8
0
  6
Continuous
 62
     0
370
    30
100
AcDbLine
 10
112.809
 20
65.505
 30
0.0
 11
112.809
 21
74.005
 31
0.0
  0
LINE
  5
11E
330
116
100
AcDbEntity
  8
0
  6
Continuous
 62
     0
370
    30
100
AcDbLine
 10
112.809
 20
77.005
 30
0.0
 11
112.809
 21
85.505
 31
0.0
  0
LINE
  5
11F
330
116
100
AcDbEntity
  8
0
  6
Continuous
 62
     0
370
    30
100
AcDbLine
 10
112.809
 20
77.005
 30
0.0
 11
92.809
 21
77.005
 31
0.0
  0
LINE
  5
120
330
116
100
AcDbEntity
  8
0
  6
Continuous
 62
     0
370
    30
100
AcDbLine
 10
92.809
 20
74.005
 30
0.0
 11
112.809
 21
74.005
 31
0.0
  0
ENDBLK
  5
122
330
116
100
AcDbEntity
  8
0
100
AcDbBlockEnd
  0
ENDSEC
  0
SECTION
  2
ENTITIES
  0
INSERT
  5
A1
330
1F
100
AcDbEntity
  8
0
  6
Continuous
 62
    72
370
     0
100
AcDbBlockReference
  2
d
 10
77.137
 20
5.932
 30
0.0
  0
INSERT
  5
DB
330
1F
100
AcDbEntity
  8
0
  6
Continuous
 62
    72
370
     0
100
AcDbBlockReference
  2
a
 10
8.77
 20
14.252
 30
0.0
  0
INSERT
  5
115
330
1F
100
AcDbEntity
  8
0
  6
Continuous
 62
    72
370
     0
100
AcDbBlockReference
  2
b
 10
-36.324
 20
26.118
 30
0.0
  0
INSERT
  5
123
330
1F
100
AcDbEntity
  8
0
  6
Continuous
 62
    72
370
     0
100
AcDbBlockReference
  2
c
 10
53.422
 20
-54.296
 30
0.0
  0
ENDSEC
  0
SECTION
  2
OBJECTS
  0
DICTIONARY
  5
C
330
0
100
AcDbDictionary
281
     1
  3
ACAD_GROUP
350
D
  3
ACAD_LAYOUT
350
1A
  3
ACAD_MLEADERSTYLE
350
125
  3
ACAD_MLINESTYLE
350
17
  3
ACAD_PLOTSETTINGS
350
19
  3
ACAD_PLOTSTYLENAME
350
E
  3
ACAD_TABLESTYLE
350
124
  3
ACAD_VISUALSTYLE
350
2A
  0
DICTIONARY
  5
D
102
{ACAD_REACTORS
330
C
102
}
330
C
100
AcDbDictionary
281
     1
  0
DICTIONARY
  5
1A
102
{ACAD_REACTORS
330
C
102
}
330
C
100
AcDbDictionary
281
     1
  3
Layout1
350
1E
  3
Layout2
350
26
  3
Model
350
22
  0
DICTIONARY
  5
125
102
{ACAD_REACTORS
330
C
102
}
330
C
100
AcDbDictionary
281
     1
  0
DICTIONARY
  5
17
102
{ACAD_REACTORS
330
C
102
}
330
C
100
AcDbDictionary
281
     1
  3
Standard
350
18
  0
DICTIONARY
  5
19
102
{ACAD_REACTORS
330
C
102
}
330
C
100
AcDbDictionary
281
     1
  0
ACDBDICTIONARYWDFLT
  5
E
102
{ACAD_REACTORS
330
C
102
}
330
C
100
AcDbDictionary
281
     1
  3
Normal
350
F
100
AcDbDictionaryWithDefault
340
F
  0
DICTIONARY
  5
124
102
{ACAD_REACTORS
330
C
102
}
330
C
100
AcDbDictionary
281
     1
  0
DICTIONARY
  5
2A
102
{ACAD_REACTORS
330
C
102
}
330
C
100
AcDbDictionary
281
     1
  3
2dWireframe
350
2F
  3
3D Hidden
350
31
  3
3dWireframe
350
30
  3
Basic
350
32
  3
Brighten
350
36
  3
ColorChange
350
3A
  3
Conceptual
350
34
  3
Dim
350
35
  3
Facepattern
350
39
  3
Flat
350
2B
  3
FlatWithEdges
350
2C
  3
Gouraud
350
2D
  3
GouraudWithEdges
350
2E
  3
Linepattern
350
38
  3
Realistic
350
33
  3
Thicken
350
37
  0
LAYOUT
  5
1E
102
{ACAD_REACTORS
330
1A
102
}
330
1A
100
AcDbPlotSettings
  1

  2
none_device
  4

  6

 40
0.0
 41
0.0
 42
0.0
 43
0.0
 44
0.0
 45
0.0
 46
0.0
 47
0.0
 48
0.0
 49
0.0
140
0.0
141
0.0
142
1.0
143
1.0
 70
   688
 72
     0
 73
     0
 74
     5
  7

 75
    16
 76
     0
 77
     2
 78
   300
147
1.0
148
0.0
149
0.0
100
AcDbLayout
  1
Layout1
 70
     1
 71
     1
 10
0.0
 20
0.0
 11
420.0
 21
297.0
 12
0.0
 22
0.0
 32
0.0
 14
1.000E+20
 24
1.000E+20
 34
1.000E+20
 15
-1.000E+20
 25
-1.000E+20
 35
-1.000E+20
146
0.0
 13
0.0
 23
0.0
 33
0.0
 16
1.0
 26
0.0
 36
0.0
 17
0.0
 27
1.0
 37
0.0
 76
     0
330
1B
  0
LAYOUT
  5
26
102
{ACAD_REACTORS
330
1A
102
}
330
1A
100
AcDbPlotSettings
  1

  2
none_device
  4

  6

 40
0.0
 41
0.0
 42
0.0
 43
0.0
 44
0.0
 45
0.0
 46
0.0
 47
0.0
 48
0.0
 49
0.0
140
0.0
141
0.0
142
1.0
143
1.0
 70
   688
 72
     0
 73
     0
 74
     5
  7

 75
    16
 76
     0
 77
     2
 78
   300
147
1.0
148
0.0
149
0.0
100
AcDbLayout
  1
Layout2
 70
     1
 71
     2
 10
0.0
 20
0.0
 11
0.0
 21
0.0
 12
0.0
 22
0.0
 32
0.0
 14
0.0
 24
0.0
 34
0.0
 15
0.0
 25
0.0
 35
0.0
146
0.0
 13
0.0
 23
0.0
 33
0.0
 16
1.0
 26
0.0
 36
0.0
 17
0.0
 27
1.0
 37
0.0
 76
     0
330
23
  0
LAYOUT
  5
22
102
{ACAD_REACTORS
330
1A
102
}
330
1A
100
AcDbPlotSettings
  1

  2
none_device
  4

  6

 40
0.0
 41
0.0
 42
0.0
 43
0.0
 44
0.0
 45
0.0
 46
0.0
 47
0.0
 48
0.0
 49
0.0
140
0.0
141
0.0
142
1.0
143
1.0
 70
  1712
 72
     0
 73
     0
 74
     0
  7

 75
     0
 76
     0
 77
     2
 78
   300
147
1.0
148
0.0
149
0.0
100
AcDbLayout
  1
Model
 70
     1
 71
     0
 10
0.0
 20
0.0
 11
420.0
 21
297.0
 12
0.0
 22
0.0
 32
0.0
 14
1.000E+20
 24
1.000E+20
 34
1.000E+20
 15
-1.000E+20
 25
-1.000E+20
 35
-1.000E+20
146
0.0
 13
0.0
 23
0.0
 33
0.0
 16
1.0
 26
0.0
 36
0.0
 17
0.0
 27
1.0
 37
0.0
 76
     0
330
1F
331
29
  0
MLINESTYLE
  5
18
102
{ACAD_REACTORS
330
17
102
}
330
17
100
AcDbMlineStyle
  2
Standard
 70
     0
  3

 62
   256
 51
90.0
 52
90.0
 71
     2
 49
0.5
 62
   256
  6
BYLAYER
 49
-0.5
 62
   256
  6
BYLAYER
  0
ACDBPLACEHOLDER
  5
F
102
{ACAD_REACTORS
330
E
102
}
330
E
  0
VISUALSTYLE
  5
2F
102
{ACAD_REACTORS
330
2A
102
}
330
2A
100
AcDbVisualStyle
  2
2dWireframe
 70
     4
 71
     0
 72
     2
 73
     0
 90
        0
 40
-0.6
 41
-30.0
 62
     5
 63
     7
421
 16777215
 74
     1
 91
        4
 64
     7
 65
   257
 75
     1
175
     1
 42
1.0
 92
        0
 66
   257
 43
1.0
 76
     1
 77
     6
 78
     2
 67
     7
 79
     5
170
     0
171
     0
290
     0
174
     0
 93
        1
 44
0.0
173
     0
291
     0
 45
0.0
1001
ACAD
1000
AcDbSavedByObjectVersion
1070
     0
  0
VISUALSTYLE
  5
31
102
{ACAD_REACTORS
330
2A
102
}
330
2A
100
AcDbVisualStyle
  2
3D Hidden
 70
     6
 71
     1
 72
     2
 73
     2
 90
        0
 40
-0.6
 41
-30.0
 62
     5
 63
     7
421
 16777215
 74
     2
 91
        2
 64
     7
 65
   257
 75
     2
175
     1
 42
40.0
 92
        0
 66
   257
 43
1.0
 76
     1
 77
     6
 78
     2
 67
     7
 79
     3
170
     0
171
     0
290
     0
174
     0
 93
        1
 44
0.0
173
     0
291
     0
 45
0.0
1001
ACAD
1000
AcDbSavedByObjectVersion
1070
     0
  0
VISUALSTYLE
  5
30
102
{ACAD_REACTORS
330
2A
102
}
330
2A
100
AcDbVisualStyle
  2
3dWireframe
 70
     5
 71
     0
 72
     2
 73
     0
 90
        0
 40
-0.6
 41
-30.0
 62
     5
 63
     7
421
 16777215
 74
     1
 91
        4
 64
     7
 65
   257
 75
     1
175
     1
 42
1.0
 92
        0
 66
   257
 43
1.0
 76
     1
 77
     6
 78
     2
 67
     7
 79
     5
170
     0
171
     0
290
     0
174
     0
 93
        1
 44
0.0
173
     0
291
     0
 45
0.0
1001
ACAD
1000
AcDbSavedByObjectVersion
1070
     0
  0
VISUALSTYLE
  5
32
102
{ACAD_REACTORS
330
2A
102
}
330
2A
100
AcDbVisualStyle
  2
Basic
 70
     7
 71
     1
 72
     0
 73
     1
 90
        0
 40
-0.6
 41
-30.0
 62
     5
 63
     7
421
 16777215
 74
     0
 91
        4
 64
     7
 65
   257
 75
     1
175
     1
 42
1.0
 92
        8
 66
     7
 43
1.0
 76
     1
 77
     6
 78
     2
 67
     7
 79
     5
170
     0
171
     0
290
     0
174
     0
 93
        1
 44
0.0
173
     0
291
     1
 45
0.0
1001
ACAD
1000
AcDbSavedByObjectVersion
1070
     0
  0
VISUALSTYLE
  5
36
102
{ACAD_REACTORS
330
2A
102
}
330
2A
100
AcDbVisualStyle
  2
Brighten
 70
    12
 71
     2
 72
     2
 73
     0
 90
        0
 40
-0.6
 41
-30.0
 62
     5
 63
     7
421
 16777215
 74
     1
 91
        4
 64
     7
 65
   257
 75
     1
175
     1
 42
1.0
 92
        8
 66
     7
 43
1.0
 76
     1
 77
     6
 78
     2
 67
     7
 79
     5
170
     0
171
     0
290
     0
174
     0
 93
        1
 44
50.0
173
     0
291
     1
 45
0.0
1001
ACAD
1000
AcDbSavedByObjectVersion
1070
     0
  0
VISUALSTYLE
  5
3A
102
{ACAD_REACTORS
330
2A
102
}
330
2A
100
AcDbVisualStyle
  2
ColorChange
 70
    16
 71
     2
 72
     2
 73
     3
 90
        0
 40
-0.6
 41
-30.0
 62
     5
 63
     8
421
  8421504
 74
     1
 91
        4
 64
     7
 65
   257
 75
     1
175
     1
 42
1.0
 92
        8
 66
     8
424
  8421504
 43
1.0
 76
     1
 77
     6
 78
     2
 67
     7
 79
     5
170
     0
171
     0
290
     0
174
     0
 93
        1
 44
0.0
173
     0
291
     1
 45
0.0
1001
ACAD
1000
AcDbSavedByObjectVersion
1070
     0
  0
VISUALSTYLE
  5
34
102
{ACAD_REACTORS
330
2A
102
}
330
2A
100
AcDbVisualStyle
  2
Conceptual
 70
     9
 71
     3
 72
     2
 73
     0
 90
        0
 40
-0.6
 41
-30.0
 62
     5
 63
     7
421
 16777215
 74
     2
 91
        2
 64
     7
 65
   257
 75
     1
175
     1
 42
40.0
 92
        8
 66
     7
 43
1.0
 76
     1
 77
     6
 78
     2
 67
     7
 79
     3
170
     0
171
     0
290
     0
174
     0
 93
        1
 44
0.0
173
     0
291
     0
 45
0.0
1001
ACAD
1000
AcDbSavedByObjectVersion
1070
     0
  0
VISUALSTYLE
  5
35
102
{ACAD_REACTORS
330
2A
102
}
330
2A
100
AcDbVisualStyle
  2
Dim
 70
    11
 71
     2
 72
     2
 73
     0
 90
        0
 40
-0.6
 41
-30.0
 62
     5
 63
     7
421
 16777215
 74
     1
 91
        4
 64
     7
 65
   257
 75
     1
175
     1
 42
1.0
 92
        8
 66
     7
 43
1.0
 76
     1
 77
     6
 78
     2
 67
     7
 79
     5
170
     0
171
     0
290
     0
174
     0
 93
        1
 44
-50.0
173
     0
291
     1
 45
0.0
1001
ACAD
1000
AcDbSavedByObjectVersion
1070
     0
  0
VISUALSTYLE
  5
39
102
{ACAD_REACTORS
330
2A
102
}
330
2A
100
AcDbVisualStyle
  2
Facepattern
 70
    15
 71
     2
 72
     2
 73
     0
 90
        0
 40
-0.6
 41
-30.0
 62
     5
 63
     7
421
 16777215
 74
     1
 91
        4
 64
     7
 65
   257
 75
     1
175
     1
 42
1.0
 92
        8
 66
     7
 43
1.0
 76
     1
 77
     6
 78
     2
 67
     7
 79
     5
170
     0
171
     0
290
     0
174
     0
 93
        1
 44
0.0
173
     0
291
     1
 45
0.0
1001
ACAD
1000
AcDbSavedByObjectVersion
1070
     0
  0
VISUALSTYLE
  5
2B
102
{ACAD_REACTORS
330
2A
102
}
330
2A
100
AcDbVisualStyle
  2
Flat
 70
     0
 71
     2
 72
     1
 73
     1
 90
        2
 40
-0.6
 41
30.0
 62
     5
 63
     7
421
 16777215
 74
     0
 91
        4
 64
     7
 65
   257
 75
     1
175
     1
 42
1.0
 92
        8
 66
     7
 43
1.0
 76
     1
 77
     6
 78
     2
 67
     7
 79
     5
170
     0
171
     0
290
     0
174
     0
 93
       13
 44
0.0
173
     0
291
     1
 45
0.0
1001
ACAD
1000
AcDbSavedByObjectVersion
1070
     0
  0
VISUALSTYLE
  5
2C
102
{ACAD_REACTORS
330
2A
102
}
330
2A
100
AcDbVisualStyle
  2
FlatWithEdges
 70
     1
 71
     2
 72
     1
 73
     1
 90
        2
 40
-0.6
 41
30.0
 62
     5
 63
     7
421
 16777215
 74
     1
 91
        4
 64
     7
 65
   257
 75
     1
175
     1
 42
1.0
 92
        0
 66
   257
 43
1.0
 76
     1
 77
     6
 78
     2
 67
     7
 79
     5
170
     0
171
     0
290
     0
174
     0
 93
       13
 44
0.0
173
     0
291
     1
 45
0.0
1001
ACAD
1000
AcDbSavedByObjectVersion
1070
     0
  0
VISUALSTYLE
  5
2D
102
{ACAD_REACTORS
330
2A
102
}
330
2A
100
AcDbVisualStyle
  2
Gouraud
 70
     2
 71
     2
 72
     2
 73
     1
 90
        2
 40
-0.6
 41
30.0
 62
     5
 63
     7
421
 16777215
 74
     0
 91
        4
 64
     7
 65
   257
 75
     1
175
     1
 42
1.0
 92
        0
 66
     7
 43
1.0
 76
     1
 77
     6
 78
     2
 67
     7
 79
     5
170
     0
171
     0
290
     0
174
     0
 93
       13
 44
0.0
173
     0
291
     1
 45
0.0
1001
ACAD
1000
AcDbSavedByObjectVersion
1070
     0
  0
VISUALSTYLE
  5
2E
102
{ACAD_REACTORS
330
2A
102
}
330
2A
100
AcDbVisualStyle
  2
GouraudWithEdges
 70
     3
 71
     2
 72
     2
 73
     1
 90
        2
 40
-0.6
 41
30.0
 62
     5
 63
     7
421
 16777215
 74
     1
 91
        4
 64
     7
 65
   257
 75
     1
175
     1
 42
1.0
 92
        0
 66
   257
 43
1.0
 76
     1
 77
     6
 78
     2
 67
     7
 79
     5
170
     0
171
     0
290
     0
174
     0
 93
       13
 44
0.0
173
     0
291
     1
 45
0.0
1001
ACAD
1000
AcDbSavedByObjectVersion
1070
     0
  0
VISUALSTYLE
  5
38
102
{ACAD_REACTORS
330
2A
102
}
330
2A
100
AcDbVisualStyle
  2
Linepattern
 70
    14
 71
     2
 72
     2
 73
     0
 90
        0
 40
-0.6
 41
-30.0
 62
     5
 63
     7
421
 16777215
 74
     1
 91
        4
 64
     7
 65
   257
 75
     7
175
     7
 42
1.0
 92
        8
 66
     7
 43
1.0
 76
     1
 77
     6
 78
     2
 67
     7
 79
     5
170
     0
171
     0
290
     0
174
     0
 93
        1
 44
0.0
173
     0
291
     1
 45
0.0
1001
ACAD
1000
AcDbSavedByObjectVersion
1070
     0
  0
VISUALSTYLE
  5
33
102
{ACAD_REACTORS
330
2A
102
}
330
2A
100
AcDbVisualStyle
  2
Realistic
 70
     8
 71
     2
 72
     2
 73
     0
 90
        0
 40
-0.6
 41
-30.0
 62
     5
 63
     7
421
 16777215
 74
     1
 91
        0
 64
     7
 65
   257
 75
     1
175
     1
 42
1.0
 92
        8
 66
     8
424
  7895160
 43
1.0
 76
     1
 77
     6
 78
     2
 67
     7
 79
     5
170
     0
171
     0
290
     0
174
     0
 93
       13
 44
0.0
173
     0
291
     0
 45
0.0
1001
ACAD
1000
AcDbSavedByObjectVersion
1070
     0
  0
VISUALSTYLE
  5
37
102
{ACAD_REACTORS
330
2A
102
}
330
2A
100
AcDbVisualStyle
  2
Thicken
 70
    13
 71
     2
 72
     2
 73
     0
 90
        0
 40
-0.6
 41
-30.0
 62
     5
 63
     7
421
 16777215
 74
     1
 91
        4
 64
     7
 65
   257
 75
     1
175
     1
 42
1.0
 92
       12
 66
     7
 43
1.0
 76
     1
 77
     6
 78
     2
 67
     7
 79
     5
170
     0
171
     0
290
     0
174
     0
 93
        1
 44
0.0
173
     0
291
     1
 45
0.0
1001
ACAD
1000
AcDbSavedByObjectVersion
1070
     0
  0
ENDSEC
  0
EOF
