  0
SECTION
  2
HEADER
  9
$ACADVER
  1
AC1018
  9
$ACADMAINTVER
 70
     0
  9
$DWGCODEPAGE
  3
ANSI_1252
  9
$INSBASE
 10
0.0
 20
0.0
 30
0.0
  9
$EXTMIN
 10
1.000E+20
 20
1.000E+20
 30
1.000E+20
  9
$EXTMAX
 10
-1.000E+20
 20
-1.000E+20
 30
-1.000E+20
  9
$LIMMIN
 10
0.0
 20
0.0
  9
$LIMMAX
 10
420.0
 20
297.0
  9
$ORTHOMODE
 70
     0
  9
$REGENMODE
 70
     1
  9
$FILLMODE
 70
     1
  9
$QTEXTMODE
 70
     0
  9
$MIRRTEXT
 70
     1
  9
$LTSCALE
 40
1.0
  9
$ATTMODE
 70
     1
  9
$TEXTSIZE
 40
2.5
  9
$TRACEWID
 40
1.0
  9
$TEXTSTYLE
  7
Standard
  9
$CLAYER
  8
0
  9
$CELTYPE
  6
ByLayer
  9
$CECOLOR
 62
   256
  9
$CELTSCALE
 40
1.0
  9
$DISPSILH
 70
     0
  9
$DIMSCALE
 40
1.0
  9
$DIMASZ
 40
2.5
  9
$DIMEXO
 40
0.625
  9
$DIMDLI
 40
3.75
  9
$DIMRND
 40
0.0
  9
$DIMDLE
 40
0.0
  9
$DIMEXE
 40
1.25
  9
$DIMTP
 40
0.0
  9
$DIMTM
 40
0.0
  9
$DIMTXT
 40
2.5
  9
$DIMCEN
 40
2.5
  9
$DIMTSZ
 40
0.0
  9
$DIMTOL
 70
     0
  9
$DIMLIM
 70
     0
  9
$DIMTIH
 70
     0
  9
$DIMTOH
 70
     0
  9
$DIMSE1
 70
     0
  9
$DIMSE2
 70
     0
  9
$DIMTAD
 70
     1
  9
$DIMZIN
 70
     8
  9
$DIMBLK
  1

  9
$DIMASO
 70
     1
  9
$DIMSHO
 70
     1
  9
$DIMPOST
  1

  9
$DIMAPOST
  1

  9
$DIMALT
 70
     0
  9
$DIMALTD
 70
     3
  9
$DIMALTF
 40
0.039
  9
$DIMLFAC
 40
1.0
  9
$DIMTOFL
 70
     1
  9
$DIMTVP
 40
0.0
  9
$DIMTIX
 70
     0
  9
$DIMSOXD
 70
     0
  9
$DIMSAH
 70
     0
  9
$DIMBLK1
  1

  9
$DIMBLK2
  1

  9
$DIMSTYLE
  2
ISO-25
  9
$DIMCLRD
 70
     0
  9
$DIMCLRE
 70
     0
  9
$DIMCLRT
 70
     0
  9
$DIMTFAC
 40
1.0
  9
$DIMGAP
 40
0.625
  9
$DIMJUST
 70
     0
  9
$DIMSD1
 70
     0
  9
$DIMSD2
 70
     0
  9
$DIMTOLJ
 70
     0
  9
$DIMTZIN
 70
     8
  9
$DIMALTZ
 70
     0
  9
$DIMALTTZ
 70
     0
  9
$DIMUPT
 70
     0
  9
$DIMDEC
 70
     2
  9
$DIMTDEC
 70
     2
  9
$DIMALTU
 70
     2
  9
$DIMALTTD
 70
     3
  9
$DIMTXSTY
  7
Standard
  9
$DIMAUNIT
 70
     0
  9
$DIMADEC
 70
     0
  9
$DIMALTRND
 40
0.0
  9
$DIMAZIN
 70
     0
  9
$DIMDSEP
 70
    44
  9
$DIMATFIT
 70
     3
  9
$DIMFRAC
 70
     0
  9
$DIMLDRBLK
  1

  9
$DIMLUNIT
 70
     2
  9
$DIMLWD
 70
    -2
  9
$DIMLWE
 70
    -2
  9
$DIMTMOVE
 70
     0
  9
$LUNITS
 70
     2
  9
$LUPREC
 70
     4
  9
$SKETCHINC
 40
1.0
  9
$FILLETRAD
 40
10.0
  9
$AUNITS
 70
     0
  9
$AUPREC
 70
     0
  9
$MENU
  1
.
  9
$ELEVATION
 40
0.0
  9
$PELEVATION
 40
0.0
  9
$THICKNESS
 40
0.0
  9
$LIMCHECK
 70
     0
  9
$CHAMFERA
 40
10.0
  9
$CHAMFERB
 40
10.0
  9
$CHAMFERC
 40
20.0
  9
$CHAMFERD
 40
0.0
  9
$SKPOLY
 70
     0
  9
$TDCREATE
 40
2455813.764287546
  9
$TDUCREATE
 40
2455813.680954213
  9
$TDUPDATE
 40
2455813.764287558
  9
$TDUUPDATE
 40
2455813.680954224
  9
$TDINDWG
 40
0.0000000116
  9
$TDUSRTIMER
 40
0.0000000116
  9
$USRTIMER
 70
     1
  9
$ANGBASE
 50
0.0
  9
$ANGDIR
 70
     0
  9
$PDMODE
 70
     0
  9
$PDSIZE
 40
0.0
  9
$PLINEWID
 40
0.0
  9
$SPLFRAME
 70
     0
  9
$SPLINETYPE
 70
     6
  9
$SPLINESEGS
 70
     8
  9
$HANDSEED
  5
1B4
  9
$SURFTAB1
 70
     6
  9
$SURFTAB2
 70
     6
  9
$SURFTYPE
 70
     6
  9
$SURFU
 70
     6
  9
$SURFV
 70
     6
  9
$UCSBASE
  2

  9
$UCSNAME
  2

  9
$UCSORG
 10
0.0
 20
0.0
 30
0.0
  9
$UCSXDIR
 10
1.0
 20
0.0
 30
0.0
  9
$UCSYDIR
 10
0.0
 20
1.0
 30
0.0
  9
$UCSORTHOREF
  2

  9
$UCSORTHOVIEW
 70
     0
  9
$UCSORGTOP
 10
0.0
 20
0.0
 30
0.0
  9
$UCSORGBOTTOM
 10
0.0
 20
0.0
 30
0.0
  9
$UCSORGLEFT
 10
0.0
 20
0.0
 30
0.0
  9
$UCSORGRIGHT
 10
0.0
 20
0.0
 30
0.0
  9
$UCSORGFRONT
 10
0.0
 20
0.0
 30
0.0
  9
$UCSORGBACK
 10
0.0
 20
0.0
 30
0.0
  9
$PUCSBASE
  2

  9
$PUCSNAME
  2

  9
$PUCSORG
 10
0.0
 20
0.0
 30
0.0
  9
$PUCSXDIR
 10
1.0
 20
0.0
 30
0.0
  9
$PUCSYDIR
 10
0.0
 20
1.0
 30
0.0
  9
$PUCSORTHOREF
  2

  9
$PUCSORTHOVIEW
 70
     0
  9
$PUCSORGTOP
 10
0.0
 20
0.0
 30
0.0
  9
$PUCSORGBOTTOM
 10
0.0
 20
0.0
 30
0.0
  9
$PUCSORGLEFT
 10
0.0
 20
0.0
 30
0.0
  9
$PUCSORGRIGHT
 10
0.0
 20
0.0
 30
0.0
  9
$PUCSORGFRONT
 10
0.0
 20
0.0
 30
0.0
  9
$PUCSORGBACK
 10
0.0
 20
0.0
 30
0.0
  9
$USERI1
 70
     0
  9
$USERI2
 70
     0
  9
$USERI3
 70
     0
  9
$USERI4
 70
     0
  9
$USERI5
 70
     0
  9
$USERR1
 40
0.0
  9
$USERR2
 40
0.0
  9
$USERR3
 40
0.0
  9
$USERR4
 40
0.0
  9
$USERR5
 40
0.0
  9
$WORLDVIEW
 70
     1
  9
$SHADEDGE
 70
     3
  9
$SHADEDIF
 70
    70
  9
$TILEMODE
 70
     1
  9
$MAXACTVP
 70
    64
  9
$PINSBASE
 10
0.0
 20
0.0
 30
0.0
  9
$PLIMCHECK
 70
     0
  9
$PEXTMIN
 10
1.000E+20
 20
1.000E+20
 30
1.000E+20
  9
$PEXTMAX
 10
-1.000E+20
 20
-1.000E+20
 30
-1.000E+20
  9
$PLIMMIN
 10
0.0
 20
0.0
  9
$PLIMMAX
 10
420.0
 20
297.0
  9
$UNITMODE
 70
     0
  9
$VISRETAIN
 70
     1
  9
$PLINEGEN
 70
     0
  9
$PSLTSCALE
 70
     1
  9
$TREEDEPTH
 70
  3020
  9
$CMLSTYLE
  2
Standard
  9
$CMLJUST
 70
     0
  9
$CMLSCALE
 40
20.0
  9
$PROXYGRAPHICS
 70
     1
  9
$MEASUREMENT
 70
     1
  9
$CELWEIGHT
370
    -1
  9
$ENDCAPS
280
     0
  9
$JOINSTYLE
280
     0
  9
$LWDISPLAY
290
     0
  9
$INSUNITS
 70
     4
  9
$HYPERLINKBASE
  1

  9
$STYLESHEET
  1

  9
$XEDIT
290
     1
  9
$CEPSNTYPE
380
     0
  9
$PSTYLEMODE
290
     1
  9
$FINGERPRINTGUID
  2
{37ECD15B-E089-4DD7-A4A2-C4E003FA6803}
  9
$VERSIONGUID
  2
{FAEB1C32-E019-11D5-929B-00C0DF256EC4}
  9
$EXTNAMES
290
     1
  9
$PSVPSCALE
 40
0.0
  9
$OLESTARTUP
290
     0
  9
$SORTENTS
280
   127
  9
$INDEXCTL
280
     0
  9
$HIDETEXT
280
     1
  9
$XCLIPFRAME
290
     0
  9
$HALOGAP
280
     0
  9
$OBSCOLOR
 70
   257
  9
$OBSLTYPE
280
     0
  9
$INTERSECTIONDISPLAY
280
     0
  9
$INTERSECTIONCOLOR
 70
   257
  9
$DIMASSOC
280
     2
  9
$PROJECTNAME
  1

  0
ENDSEC
  0
SECTION
  2
CLASSES
  0
CLASS
  1
ACDBDICTIONARYWDFLT
  2
AcDbDictionaryWithDefault
  3
ObjectDBX Classes
 90
        0
 91
        4
280
     0
281
     0
  0
CLASS
  1
VISUALSTYLE
  2
AcDbVisualStyle
  3
ObjectDBX Classes
 90
     4095
 91
        4
280
     0
281
     0
  0
ENDSEC
  0
SECTION
  2
TABLES
  0
TABLE
  2
VPORT
  5
8
330
0
100
AcDbSymbolTable
 70
     1
  0
VPORT
  5
29
330
8
100
AcDbSymbolTableRecord
100
AcDbViewportTableRecord
  2
*Active
 70
     0
 10
0.0
 20
0.0
 11
1.0
 21
1.0
 12
344.187
 22
148.5
 13
0.0
 23
0.0
 14
10.0
 24
10.0
 15
10.0
 25
10.0
 16
0.0
 26
0.0
 36
1.0
 17
0.0
 27
0.0
 37
0.0
 40
297.0
 41
1.973
 42
50.0
 43
0.0
 44
0.0
 50
0.0
 51
0.0
 71
     0
 72
   100
 73
     1
 74
     3
 75
     0
 76
     0
 77
     0
 78
     0
281
     0
 65
     1
110
0.0
120
0.0
130
0.0
111
1.0
121
0.0
131
0.0
112
0.0
122
1.0
132
0.0
 79
     0
146
0.0
  0
ENDTAB
  0
TABLE
  2
LTYPE
  5
5
330
0
100
AcDbSymbolTable
 70
     2
  0
LTYPE
  5
14
330
5
100
AcDbSymbolTableRecord
100
AcDbLinetypeTableRecord
  2
ByBlock
 70
     0
  3

 72
    65
 73
     0
 40
0.0
  0
LTYPE
  5
15
330
5
100
AcDbSymbolTableRecord
100
AcDbLinetypeTableRecord
  2
ByLayer
 70
     0
  3

 72
    65
 73
     0
 40
0.0
  0
LTYPE
  5
16
330
5
100
AcDbSymbolTableRecord
100
AcDbLinetypeTableRecord
  2
Continuous
 70
     0
  3
Solid line
 72
    65
 73
     0
 40
0.0
  0
LTYPE
  5
11F
330
5
100
AcDbSymbolTableRecord
100
AcDbLinetypeTableRecord
  2
HIDDEN2
 70
     0
  3
Hidden (.5x) _ _ _ _ _ _ _ _ _ _ _ _ _ _ _ _ _ 
 72
    65
 73
     2
 40
4.762
 49
3.175
 74
     0
 49
-1.587
 74
     0
  0
ENDTAB
  0
TABLE
  2
LAYER
  5
2
330
0
100
AcDbSymbolTable
 70
     1
  0
LAYER
  5
10
330
2
100
AcDbSymbolTableRecord
100
AcDbLayerTableRecord
  2
0
 70
     0
 62
    72
  6
Continuous
370
     0
390
F
  0
ENDTAB
  0
TABLE
  2
STYLE
  5
3
330
0
100
AcDbSymbolTable
 70
     3
  0
STYLE
  5
11
330
3
100
AcDbSymbolTableRecord
100
AcDbTextStyleTableRecord
  2
Standard
 70
     0
 40
0.0
 41
1.0
 50
0.0
 71
     0
 42
2.5
  3
txt
  4

  0
STYLE
  5
3B
330
3
100
AcDbSymbolTableRecord
100
AcDbTextStyleTableRecord
  2
Default
 70
     0
 40
0.0
 41
1.0
 50
0.0
 71
     0
 42
0.2
  3

  4

1001
ACAD
1000
txt
1071
        0
  0
STYLE
  5
3C
330
3
100
AcDbSymbolTableRecord
100
AcDbTextStyleTableRecord
  2
ISO
 70
     0
 40
0.0
 41
1.0
 50
0.0
 71
     0
 42
0.2
  3

  4

1001
ACAD
1000
txt
1071
        0
  0
ENDTAB
  0
TABLE
  2
VIEW
  5
6
330
0
100
AcDbSymbolTable
 70
     0
  0
ENDTAB
  0
TABLE
  2
UCS
  5
7
330
0
100
AcDbSymbolTable
 70
     0
  0
ENDTAB
  0
TABLE
  2
APPID
  5
9
330
0
100
AcDbSymbolTable
 70
     1
  0
APPID
  5
12
330
9
100
AcDbSymbolTableRecord
100
AcDbRegAppTableRecord
  2
ACAD
 70
     0
  0
ENDTAB
  0
TABLE
  2
DIMSTYLE
  5
A
330
0
100
AcDbSymbolTable
 70
     3
100
AcDbDimStyleTable
  0
DIMSTYLE
105
27
330
A
100
AcDbSymbolTableRecord
100
AcDbDimStyleTableRecord
  2
ISO-25
 70
     0
 41
2.5
 42
0.625
 43
3.75
 44
1.25
 73
     0
 74
     0
 77
     1
 78
     8
140
2.5
141
2.5
143
0.039
147
0.625
171
     3
172
     1
271
     2
272
     2
274
     3
278
    44
283
     0
284
     8
340
11
  0
DIMSTYLE
105
3D
330
A
100
AcDbSymbolTableRecord
100
AcDbDimStyleTableRecord
  2
Default
 70
     0
  3
<>
 41
4.375
 42
1.05
 44
2.1
 73
     0
 74
     0
 77
     1
 78
     8
140
3.5
146
0.4
147
1.75
178
    12
271
     2
272
     3
284
     8
340
3B
341
3E
342
3E
  0
DIMSTYLE
105
45
330
A
100
AcDbSymbolTableRecord
100
AcDbDimStyleTableRecord
  2
ISO
 70
     0
  3
<>
 41
4.375
 42
1.05
 44
2.1
 73
     0
 74
     0
 77
     1
 78
     8
140
3.5
146
0.4
147
1.75
178
    12
271
     2
272
     3
284
     8
340
3C
341
3E
342
3E
  0
ENDTAB
  0
TABLE
  2
BLOCK_RECORD
  5
1
330
0
100
AcDbSymbolTable
 70
     6
  0
BLOCK_RECORD
  5
1F
330
1
100
AcDbSymbolTableRecord
100
AcDbBlockTableRecord
  2
*Model_Space
340
22
  0
BLOCK_RECORD
  5
1B
330
1
100
AcDbSymbolTableRecord
100
AcDbBlockTableRecord
  2
*Paper_Space
340
1E
  0
BLOCK_RECORD
  5
23
330
1
100
AcDbSymbolTableRecord
100
AcDbBlockTableRecord
  2
*Paper_Space0
340
26
  0
BLOCK_RECORD
  5
3E
330
1
100
AcDbSymbolTableRecord
100
AcDbBlockTableRecord
  2
_CLOSED
340
0
  0
BLOCK_RECORD
  5
46
330
1
100
AcDbSymbolTableRecord
100
AcDbBlockTableRecord
  2
a
340
0
102
{BLKREFS
331
8E
102
}
  0
BLOCK_RECORD
  5
8F
330
1
100
AcDbSymbolTableRecord
100
AcDbBlockTableRecord
  2
d
340
0
102
{BLKREFS
331
109
102
}
  0
BLOCK_RECORD
  5
10A
330
1
100
AcDbSymbolTableRecord
100
AcDbBlockTableRecord
  2
b
340
0
102
{BLKREFS
331
16C
102
}
  0
BLOCK_RECORD
  5
16D
330
1
100
AcDbSymbolTableRecord
100
AcDbBlockTableRecord
  2
c
340
0
102
{BLKREFS
331
1B1
102
}
  0
ENDTAB
  0
ENDSEC
  0
SECTION
  2
BLOCKS
  0
BLOCK
  5
20
330
1F
100
AcDbEntity
  8
0
100
AcDbBlockBegin
  2
*Model_Space
 70
     0
 10
0.0
 20
0.0
 30
0.0
  3
*Model_Space
  1

  0
ENDBLK
  5
21
330
1F
100
AcDbEntity
  8
0
100
AcDbBlockEnd
  0
BLOCK
  5
1C
330
1B
100
AcDbEntity
 67
     1
  8
0
100
AcDbBlockBegin
  2
*Paper_Space
 70
     0
 10
0.0
 20
0.0
 30
0.0
  3
*Paper_Space
  1

  0
ENDBLK
  5
1D
330
1B
100
AcDbEntity
 67
     1
  8
0
100
AcDbBlockEnd
  0
BLOCK
  5
24
330
23
100
AcDbEntity
  8
0
100
AcDbBlockBegin
  2
*Paper_Space0
 70
     0
 10
0.0
 20
0.0
 30
0.0
  3
*Paper_Space0
  1

  0
ENDBLK
  5
25
330
23
100
AcDbEntity
  8
0
100
AcDbBlockEnd
  0
BLOCK
  5
3F
330
3E
100
AcDbEntity
  8
0
100
AcDbBlockBegin
  2
_CLOSED
 70
     0
 10
0.0
 20
0.0
 30
0.0
  3
_CLOSED
  1

  0
LINE
  5
41
330
3E
100
AcDbEntity
  8
0
  6
ByBlock
 62
     0
370
    -2
100
AcDbLine
 10
-1.0
 20
0.167
 30
0.0
 11
0.0
 21
0.0
 31
0.0
  0
LINE
  5
42
330
3E
100
AcDbEntity
  8
0
  6
ByBlock
 62
     0
370
    -2
100
AcDbLine
 10
0.0
 20
0.0
 30
0.0
 11
-1.0
 21
-0.167
 31
0.0
  0
LINE
  5
43
330
3E
100
AcDbEntity
  8
0
  6
ByBlock
 62
     0
370
    -2
100
AcDbLine
 10
-1.0
 20
0.167
 30
0.0
 11
-1.0
 21
-0.167
 31
0.0
  0
LINE
  5
44
330
3E
100
AcDbEntity
  8
0
  6
ByBlock
 62
     0
370
    -2
100
AcDbLine
 10
0.0
 20
0.0
 30
0.0
 11
-1.0
 21
0.0
 31
0.0
  0
ENDBLK
  5
40
330
3E
100
AcDbEntity
  8
0
100
AcDbBlockEnd
  0
BLOCK
  5
8C
330
46
100
AcDbEntity
  8
0
100
AcDbBlockBegin
  2
a
 70
     0
 10
19.698
 20
14.746
 30
0.0
  3
a
  1

  0
LINE
  5
47
330
46
100
AcDbEntity
  8
0
  6
Continuous
 62
     0
370
    30
100
AcDbLine
 10
50.164
 20
44.877
 30
0.0
 11
48.164
 21
44.877
 31
0.0
  0
LINE
  5
48
330
46
100
AcDbEntity
  8
0
  6
Continuous
 62
     0
370
    30
100
AcDbLine
 10
50.164
 20
17.377
 30
0.0
 11
48.164
 21
17.377
 31
0.0
  0
LINE
  5
49
330
46
100
AcDbEntity
  8
0
  6
Continuous
 62
     0
370
    30
100
AcDbLine
 10
50.164
 20
31.127
 30
0.0
 11
50.164
 21
17.377
 31
0.0
  0
LINE
  5
4A
330
46
100
AcDbEntity
  8
0
  6
Continuous
 62
     0
370
    30
100
AcDbLine
 10
48.164
 20
17.377
 30
0.0
 11
48.164
 21
31.127
 31
0.0
  0
LINE
  5
4B
330
46
100
AcDbEntity
  8
0
  6
Continuous
 62
     0
370
    30
100
AcDbLine
 10
50.164
 20
31.127
 30
0.0
 11
50.164
 21
44.877
 31
0.0
  0
LINE
  5
4C
330
46
100
AcDbEntity
  8
0
  6
Continuous
 62
     0
370
    30
100
AcDbLine
 10
48.164
 20
44.877
 30
0.0
 11
48.164
 21
31.127
 31
0.0
  0
CIRCLE
  5
4D
330
46
100
AcDbEntity
  8
0
  6
Continuous
 62
     0
370
    30
100
AcDbCircle
 10
69.164
 20
31.127
 30
0.0
 40
5.0
  0
CIRCLE
  5
4E
330
46
100
AcDbEntity
  8
0
  6
Continuous
 62
     0
370
    30
100
AcDbCircle
 10
69.164
 20
31.127
 30
0.0
 40
3.0
  0
CIRCLE
  5
4F
330
46
100
AcDbEntity
  8
0
  6
Continuous
 62
     0
370
    30
100
AcDbCircle
 10
29.164
 20
31.127
 30
0.0
 40
5.0
  0
CIRCLE
  5
50
330
46
100
AcDbEntity
  8
0
  6
Continuous
 62
     0
370
    30
100
AcDbCircle
 10
29.164
 20
31.127
 30
0.0
 40
3.0
  0
LINE
  5
51
330
46
100
AcDbEntity
  8
0
  6
Continuous
 62
     0
370
    30
100
AcDbLine
 10
58.164
 20
44.877
 30
0.0
 11
63.664
 21
44.877
 31
0.0
  0
ARC
  5
52
330
46
100
AcDbEntity
  8
0
  6
Continuous
 62
     0
370
    30
100
AcDbCircle
 10
63.664
 20
31.127
 30
0.0
 40
13.75
100
AcDbArc
 50
270.0
 51
90.0
  0
ARC
  5
53
330
46
100
AcDbEntity
  8
0
  6
Continuous
 62
     0
370
     0
100
AcDbCircle
 10
63.752
 20
31.127
 30
0.0
 40
12.75000000000001
100
AcDbArc
 50
270.0
 51
90.0
  0
LINE
  5
54
330
46
100
AcDbEntity
  8
0
  6
Continuous
 62
     0
370
    30
100
AcDbLine
 10
58.164
 20
17.377
 30
0.0
 11
63.664
 21
17.377
 31
0.0
  0
LINE
  5
55
330
46
100
AcDbEntity
  8
0
  6
Continuous
 62
     0
370
     0
100
AcDbLine
 10
40.164
 20
31.127
 30
0.0
 11
40.164
 21
44.877
 31
0.0
  0
LINE
  5
56
330
46
100
AcDbEntity
  8
0
  6
Continuous
 62
     0
370
    30
100
AcDbLine
 10
39.164
 20
31.127
 30
0.0
 11
39.164
 21
43.877
 31
0.0
  0
LINE
  5
57
330
46
100
AcDbEntity
  8
0
  6
Continuous
 62
     0
370
     0
100
AcDbLine
 10
40.164
 20
31.127
 30
0.0
 11
40.164
 21
17.377
 31
0.0
  0
LINE
  5
58
330
46
100
AcDbEntity
  8
0
  6
Continuous
 62
     0
370
    30
100
AcDbLine
 10
39.164
 20
31.127
 30
0.0
 11
39.164
 21
18.377
 31
0.0
  0
LINE
  5
59
330
46
100
AcDbEntity
  8
0
  6
Continuous
 62
     0
370
    30
100
AcDbLine
 10
40.164
 20
44.877
 30
0.0
 11
34.664
 21
44.877
 31
0.0
  0
ARC
  5
5A
330
46
100
AcDbEntity
  8
0
  6
Continuous
 62
     0
370
    30
100
AcDbCircle
 10
34.664
 20
31.127
 30
0.0
 40
13.75000000000002
100
AcDbArc
 50
90.0
 51
270.0
  0
ARC
  5
5B
330
46
100
AcDbEntity
  8
0
  6
Continuous
 62
     0
370
     0
100
AcDbCircle
 10
34.577
 20
31.127
 30
0.0
 40
12.75000000000002
100
AcDbArc
 50
90.0
 51
270.0
  0
LINE
  5
5C
330
46
100
AcDbEntity
  8
0
  6
Continuous
 62
     0
370
    30
100
AcDbLine
 10
40.164
 20
17.377
 30
0.0
 11
34.664
 21
17.377
 31
0.0
  0
ELLIPSE
  5
5D
330
46
100
AcDbEntity
  8
0
  6
Continuous
 62
     0
370
     0
100
AcDbEllipse
 10
63.664
 20
43.877
 30
0.0
 11
0.0
 21
-1.0
 31
0.0
210
0.0
220
0.0
230
1.0
 40
0.087
 41
1.570796326794897
 42
3.141592653589793
  0
ELLIPSE
  5
5E
330
46
100
AcDbEntity
  8
0
  6
Continuous
 62
     0
370
     0
100
AcDbEllipse
 10
63.664
 20
18.377
 30
0.0
 11
0.0
 21
-1.0
 31
0.0
210
0.0
220
0.0
230
1.0
 40
0.087
 41
6.283185307179586
 42
7.853981633974481
  0
LINE
  5
5F
330
46
100
AcDbEntity
  8
0
  6
Continuous
 62
     0
370
    30
100
AcDbLine
 10
58.164
 20
44.877
 30
0.0
 11
50.164
 21
44.877
 31
0.0
  0
ARC
  5
60
330
46
100
AcDbEntity
  8
0
  6
Continuous
 62
     0
370
    30
100
AcDbCircle
 10
58.164
 20
43.877
 30
0.0
 40
1.0
100
AcDbArc
 50
0.0
 51
90.0
  0
LINE
  5
61
330
46
100
AcDbEntity
  8
0
  6
Continuous
 62
     0
370
    30
100
AcDbLine
 10
58.164
 20
17.377
 30
0.0
 11
50.164
 21
17.377
 31
0.0
  0
ARC
  5
62
330
46
100
AcDbEntity
  8
0
  6
Continuous
 62
     0
370
    30
100
AcDbCircle
 10
58.164
 20
18.377
 30
0.0
 40
1.000000000000001
100
AcDbArc
 50
270.0
 51
360.0
  0
LINE
  5
63
330
46
100
AcDbEntity
  8
0
  6
Continuous
 62
     0
370
    30
100
AcDbLine
 10
48.164
 20
44.877
 30
0.0
 11
40.164
 21
44.877
 31
0.0
  0
LINE
  5
64
330
46
100
AcDbEntity
  8
0
  6
Continuous
 62
     0
370
     0
100
AcDbLine
 10
40.164
 20
31.127
 30
0.0
 11
39.164
 21
31.127
 31
0.0
  0
ARC
  5
65
330
46
100
AcDbEntity
  8
0
  6
Continuous
 62
     0
370
    30
100
AcDbCircle
 10
40.164
 20
43.877
 30
0.0
 40
1.0
100
AcDbArc
 50
90.0
 51
180.0
  0
LINE
  5
66
330
46
100
AcDbEntity
  8
0
  6
Continuous
 62
     0
370
    30
100
AcDbLine
 10
48.164
 20
17.377
 30
0.0
 11
40.164
 21
17.377
 31
0.0
  0
ARC
  5
67
330
46
100
AcDbEntity
  8
0
  6
Continuous
 62
     0
370
    30
100
AcDbCircle
 10
40.164
 20
18.377
 30
0.0
 40
1.0
100
AcDbArc
 50
180.0
 51
270.0
  0
ELLIPSE
  5
68
330
46
100
AcDbEntity
  8
0
  6
Continuous
 62
     0
370
     0
100
AcDbEllipse
 10
34.664
 20
43.877
 30
0.0
 11
0.0
 21
-1.0
 31
0.0
210
0.0
220
0.0
230
-1.0
 40
0.087
 41
1.570796326794897
 42
3.141592653589793
  0
ELLIPSE
  5
69
330
46
100
AcDbEntity
  8
0
  6
Continuous
 62
     0
370
     0
100
AcDbEllipse
 10
34.664
 20
18.377
 30
0.0
 11
0.0
 21
-1.0
 31
0.0
210
0.0
220
0.0
230
-1.0
 40
0.087
 41
0.0
 42
1.570796326794895
  0
LINE
  5
6A
330
46
100
AcDbEntity
  8
0
  6
Continuous
 62
     0
370
     0
100
AcDbLine
 10
60.99
 20
43.877
 30
0.0
 11
60.99
 21
18.377
 31
0.0
  0
SPLINE
  5
6B
330
46
100
AcDbEntity
  8
0
  6
Continuous
 62
     0
370
     0
100
AcDbSpline
210
0.0
220
0.0
230
1.0
 70
     8
 71
     3
 72
    13
 73
     9
 74
     0
 42
0.0
 43
0.0
 40
0.0
 40
0.0
 40
0.0
 40
0.0
 40
0.4706725826896516
 40
0.892867425153443
 40
1.256071739303199
 40
1.675049796070273
 40
2.259806424709523
 40
3.270132260241303
 40
3.270132260241303
 40
3.270132260241303
 40
3.270132260241303
 10
60.99009624460723
 20
43.8771641254425
 30
0.0
 10
60.99009624460723
 20
43.96645912927592
 30
0.0
 10
60.92430274718521
 20
44.13559902476172
 30
0.0
 10
60.68227008383826
 20
44.34631707475282
 30
0.0
 10
60.36060436473079
 20
44.5162462099364
 30
0.0
 10
59.92428030298311
 20
44.67126813519367
 30
0.0
 10
59.19520336000286
 20
44.83052057495813
 30
0.0
 10
58.5637312483382
 20
44.8771641254425
 30
0.0
 10
58.16440773010254
 20
44.8771641254425
 30
0.0
  0
SPLINE
  5
6C
330
46
100
AcDbEntity
  8
0
  6
Continuous
 62
     0
370
     0
100
AcDbSpline
210
0.0
220
0.0
230
1.0
 70
     8
 71
     3
 72
    13
 73
     9
 74
     0
 42
0.0
 43
0.0
 40
0.0
 40
0.0
 40
0.0
 40
0.0
 40
1.012593040846001
 40
1.623652246326112
 40
2.065666906312382
 40
2.39881710838438
 40
2.775686860619893
 40
3.270119589442536
 40
3.270119589442536
 40
3.270119589442536
 40
3.270119589442536
 10
58.16440773010254
 20
17.3771641254425
 30
0.0
 10
58.56462819844594
 20
17.3771641254425
 30
0.0
 10
59.20739042091695
 20
17.42474562618944
 30
0.0
 10
59.95378782238028
 20
17.59008415482201
 30
0.0
 10
60.39066832232044
 20
17.75118517001199
 30
0.0
 10
60.6910368489127
 20
17.91668446017887
 30
0.0
 10
60.9225042472427
 20
18.11838409993474
 30
0.0
 10
60.99009624460723
 20
18.28336119678421
 30
0.0
 10
60.99009624460723
 20
18.3771641254425
 30
0.0
  0
SPLINE
  5
6D
330
46
100
AcDbEntity
  8
0
  6
Continuous
 62
     0
370
     0
100
AcDbSpline
210
0.0
220
0.0
230
1.0
 70
     8
 71
     3
 72
    13
 73
     9
 74
     0
 42
0.0
 43
0.0
 40
0.0
 40
0.0
 40
0.0
 40
0.0
 40
1.012593040846
 40
1.62365224632611
 40
2.065666906312382
 40
2.39881710838438
 40
2.775686860619894
 40
3.270119589442536
 40
3.270119589442536
 40
3.270119589442536
 40
3.270119589442536
 10
40.16440773010254
 20
17.3771641254425
 30
0.0
 10
39.76418726175913
 20
17.3771641254425
 30
0.0
 10
39.12142503928811
 20
17.42474562618944
 30
0.0
 10
38.37502763782481
 20
17.59008415482201
 30
0.0
 10
37.93814713788466
 20
17.75118517001199
 30
0.0
 10
37.63777861129236
 20
17.91668446017887
 30
0.0
 10
37.40631121296238
 20
18.11838409993474
 30
0.0
 10
37.33871921559785
 20
18.28336119678421
 30
0.0
 10
37.33871921559785
 20
18.3771641254425
 30
0.0
  0
LINE
  5
6E
330
46
100
AcDbEntity
  8
0
  6
Continuous
 62
     0
370
     0
100
AcDbLine
 10
37.339
 20
43.877
 30
0.0
 11
37.339
 21
18.377
 31
0.0
  0
SPLINE
  5
6F
330
46
100
AcDbEntity
  8
0
  6
Continuous
 62
     0
370
     0
100
AcDbSpline
210
0.0
220
0.0
230
1.0
 70
     8
 71
     3
 72
    13
 73
     9
 74
     0
 42
0.0
 43
0.0
 40
0.0
 40
0.0
 40
0.0
 40
0.0
 40
0.470672582689692
 40
0.8928674251534828
 40
1.256071739303239
 40
1.675049796070327
 40
2.259806424709597
 40
3.270132260241304
 40
3.270132260241304
 40
3.270132260241304
 40
3.270132260241304
 10
37.33871921559785
 20
43.8771641254425
 30
0.0
 10
37.33871921559785
 20
43.96645912927593
 30
0.0
 10
37.4045127130199
 20
44.13559902476173
 30
0.0
 10
37.64654537636683
 20
44.34631707475283
 30
0.0
 10
37.96821109547433
 20
44.51624620993641
 30
0.0
 10
38.404535157222
 20
44.6712681351937
 30
0.0
 10
39.1336121002023
 20
44.83052057495813
 30
0.0
 10
39.76508421186691
 20
44.8771641254425
 30
0.0
 10
40.16440773010254
 20
44.8771641254425
 30
0.0
  0
LINE
  5
70
330
46
100
AcDbEntity
  8
0
  6
Continuous
 62
     0
370
     0
100
AcDbLine
 10
60.99
 20
43.877
 30
0.0
 11
63.752
 21
43.877
 31
0.0
  0
LINE
  5
71
330
46
100
AcDbEntity
  8
0
  6
Continuous
 62
     0
370
     0
100
AcDbLine
 10
60.99
 20
18.377
 30
0.0
 11
63.752
 21
18.377
 31
0.0
  0
LINE
  5
72
330
46
100
AcDbEntity
  8
0
  6
Continuous
 62
     0
370
     0
100
AcDbLine
 10
37.339
 20
18.377
 30
0.0
 11
34.577
 21
18.377
 31
0.0
  0
LINE
  5
73
330
46
100
AcDbEntity
  8
0
  6
Continuous
 62
     0
370
     0
100
AcDbLine
 10
37.339
 20
43.877
 30
0.0
 11
34.577
 21
43.877
 31
0.0
  0
LINE
  5
74
330
46
100
AcDbEntity
  8
0
  6
Continuous
 62
     0
370
     0
100
AcDbLine
 10
60.99
 20
43.877
 30
0.0
 11
59.164
 21
43.877
 31
0.0
  0
LINE
  5
75
330
46
100
AcDbEntity
  8
0
  6
Continuous
 62
     0
370
     0
100
AcDbLine
 10
59.164
 20
18.377
 30
0.0
 11
60.99
 21
18.377
 31
0.0
  0
LINE
  5
76
330
46
100
AcDbEntity
  8
0
  6
Continuous
 62
     0
370
     0
100
AcDbLine
 10
39.164
 20
18.377
 30
0.0
 11
37.339
 21
18.377
 31
0.0
  0
LINE
  5
77
330
46
100
AcDbEntity
  8
0
  6
Continuous
 62
     0
370
     0
100
AcDbLine
 10
37.339
 20
43.877
 30
0.0
 11
39.164
 21
43.877
 31
0.0
  0
SPLINE
  5
78
330
46
100
AcDbEntity
  8
0
  6
Continuous
 62
     0
370
     0
100
AcDbSpline
210
0.0
220
0.0
230
1.0
 70
     8
 71
     3
 72
    11
 73
     7
 74
     0
 42
0.0
 43
0.0
 40
0.0
 40
0.0
 40
0.0
 40
0.0
 40
0.3922503378882819
 40
0.7845006757765637
 40
1.187286468281081
 40
1.590072260785599
 40
1.590072260785599
 40
1.590072260785599
 40
1.590072260785599
 10
58.16440773010254
 20
25.67905091789532
 30
0.0
 10
58.29966467366472
 20
25.67905091789532
 30
0.0
 10
58.56916513532855
 20
25.68909359635353
 30
0.0
 10
58.90329917668845
 20
25.73449120836685
 30
0.0
 10
59.11605109891615
 20
25.79976599087462
 30
0.0
 10
59.16440773010254
 20
25.85110581770176
 30
0.0
 10
59.16440773010254
 20
25.8771641254425
 30
0.0
  0
LINE
  5
79
330
46
100
AcDbEntity
  8
0
  6
Continuous
 62
     0
370
    30
100
AcDbLine
 10
58.164
 20
26.377
 30
0.0
 11
58.664
 21
26.377
 31
0.0
  0
LINE
  5
7A
330
46
100
AcDbEntity
  8
0
  6
Continuous
 62
     0
370
     0
100
AcDbLine
 10
56.364
 20
25.679
 30
0.0
 11
58.164
 21
25.679
 31
0.0
  0
LINE
  5
7B
330
46
100
AcDbEntity
  8
0
  6
Continuous
 62
     0
370
    30
100
AcDbLine
 10
56.364
 20
26.377
 30
0.0
 11
58.164
 21
26.377
 31
0.0
  0
LINE
  5
7C
330
46
100
AcDbEntity
  8
0
  6
Continuous
 62
     0
370
     0
100
AcDbLine
 10
58.664
 20
26.377
 30
0.0
 11
58.664
 21
35.877
 31
0.0
  0
LINE
  5
7D
330
46
100
AcDbEntity
  8
0
  6
Continuous
 62
     0
370
    30
100
AcDbLine
 10
59.164
 20
25.877
 30
0.0
 11
59.164
 21
36.377
 31
0.0
  0
SPLINE
  5
7E
330
46
100
AcDbEntity
  8
0
  6
Continuous
 62
     0
370
     0
100
AcDbSpline
210
0.0
220
0.0
230
1.0
 70
     8
 71
     3
 72
    11
 73
     7
 74
     0
 42
0.0
 43
0.0
 40
0.0
 40
0.0
 40
0.0
 40
0.0
 40
0.3922503378882468
 40
0.7845006757764936
 40
1.187286468281045
 40
1.590072260785596
 40
1.590072260785596
 40
1.590072260785596
 40
1.590072260785596
 10
58.16440773010254
 20
36.57527733298967
 30
0.0
 10
58.29966467366471
 20
36.57527733298967
 30
0.0
 10
58.56916513532853
 20
36.56523465453147
 30
0.0
 10
58.90329917668841
 20
36.51983704251816
 30
0.0
 10
59.11605109891612
 20
36.45456226001039
 30
0.0
 10
59.16440773010254
 20
36.40322243318323
 30
0.0
 10
59.16440773010254
 20
36.3771641254425
 30
0.0
  0
LINE
  5
7F
330
46
100
AcDbEntity
  8
0
  6
Continuous
 62
     0
370
    30
100
AcDbLine
 10
58.164
 20
35.877
 30
0.0
 11
58.664
 21
35.877
 31
0.0
  0
LINE
  5
80
330
46
100
AcDbEntity
  8
0
  6
Continuous
 62
     0
370
     0
100
AcDbLine
 10
56.364
 20
36.575
 30
0.0
 11
58.164
 21
36.575
 31
0.0
  0
LINE
  5
81
330
46
100
AcDbEntity
  8
0
  6
Continuous
 62
     0
370
    30
100
AcDbLine
 10
56.364
 20
35.877
 30
0.0
 11
58.164
 21
35.877
 31
0.0
  0
LINE
  5
82
330
46
100
AcDbEntity
  8
0
  6
Continuous
 62
     0
370
    30
100
AcDbLine
 10
59.164
 20
25.877
 30
0.0
 11
59.164
 21
18.377
 31
0.0
  0
LINE
  5
83
330
46
100
AcDbEntity
  8
0
  6
Continuous
 62
     0
370
     0
100
AcDbLine
 10
58.164
 20
25.679
 30
0.0
 11
58.164
 21
17.377
 31
0.0
  0
LINE
  5
84
330
46
100
AcDbEntity
  8
0
  6
Continuous
 62
     0
370
    30
100
AcDbLine
 10
59.164
 20
36.377
 30
0.0
 11
59.164
 21
43.877
 31
0.0
  0
LINE
  5
85
330
46
100
AcDbEntity
  8
0
  6
Continuous
 62
     0
370
     0
100
AcDbLine
 10
58.164
 20
36.575
 30
0.0
 11
58.164
 21
44.877
 31
0.0
  0
ARC
  5
86
330
46
100
AcDbEntity
  8
0
  6
Continuous
 62
     0
370
    30
100
AcDbCircle
 10
58.664
 20
25.877
 30
0.0
 40
0.5
100
AcDbArc
 50
0.0
 51
90.0
  0
LINE
  5
87
330
46
100
AcDbEntity
  8
0
  6
Continuous
 62
     0
370
     0
100
AcDbLine
 10
58.164
 20
26.377
 30
0.0
 11
58.164
 21
25.679
 31
0.0
  0
ARC
  5
88
330
46
100
AcDbEntity
  8
0
  6
Continuous
 62
     0
370
    30
100
AcDbCircle
 10
58.664
 20
36.377
 30
0.0
 40
0.5
100
AcDbArc
 50
270.0
 51
360.0
  0
LINE
  5
89
330
46
100
AcDbEntity
  8
0
  6
Continuous
 62
     0
370
     0
100
AcDbLine
 10
58.164
 20
35.877
 30
0.0
 11
58.164
 21
36.575
 31
0.0
  0
LINE
  5
8A
330
46
100
AcDbEntity
  8
0
  6
Continuous
 62
     0
370
    30
100
AcDbLine
 10
56.364
 20
31.127
 30
0.0
 11
56.364
 21
25.679
 31
0.0
  0
LINE
  5
8B
330
46
100
AcDbEntity
  8
0
  6
Continuous
 62
     0
370
    30
100
AcDbLine
 10
56.364
 20
31.127
 30
0.0
 11
56.364
 21
36.575
 31
0.0
  0
ENDBLK
  5
8D
330
46
100
AcDbEntity
  8
0
100
AcDbBlockEnd
  0
BLOCK
  5
107
330
8F
100
AcDbEntity
  8
0
100
AcDbBlockBegin
  2
d
 70
     0
 10
93.194
 20
6.074
 30
0.0
  3
d
  1

  0
ELLIPSE
  5
90
330
8F
100
AcDbEntity
  8
0
  6
Continuous
 62
     0
370
    30
100
AcDbEllipse
 10
134.395
 20
18.491
 30
0.0
 11
-13.75
 21
0.0
 31
0.0
210
0.0
220
0.0
230
1.0
 40
0.577
 41
0.7853981633974483
 42
3.141592644950108
  0
ELLIPSE
  5
91
330
8F
100
AcDbEntity
  8
0
  6
Continuous
 62
     0
370
    30
100
AcDbEllipse
 10
113.888
 20
30.33
 30
0.0
 11
-13.75000000000002
 21
7.632783294297960E-16
 31
0.0
210
0.0
220
0.0
230
1.0
 40
0.577
 41
6.283185298539901
 42
7.068583470577035
  0
LINE
  5
92
330
8F
100
AcDbEntity
  8
0
  6
Continuous
 62
     0
370
    30
100
AcDbLine
 10
124.672
 20
12.877
 30
0.0
 11
104.166
 21
24.717
 31
0.0
  0
ELLIPSE
  5
93
330
8F
100
AcDbEntity
  8
0
  6
Continuous
 62
     0
370
    30
100
AcDbEllipse
 10
114.419
 20
35.127
 30
0.0
 11
-3.000000000000001
 21
5.196152422706632
 31
0.0
210
0.0
220
0.0
230
-0.9999999999999999
 40
0.577
 41
1.770508946735193
 42
2.941880033649497
  0
ELLIPSE
  5
94
330
8F
100
AcDbEntity
  8
0
  6
Continuous
 62
     0
370
    30
100
AcDbEllipse
 10
114.419
 20
35.127
 30
0.0
 11
-3.000000000000001
 21
5.196152422706632
 31
0.0
210
0.0
220
0.0
230
-0.9999999999999999
 40
0.577
 41
3.341305273530089
 42
4.512676360444393
  0
LINE
  5
95
330
8F
100
AcDbEntity
  8
0
  6
Continuous
 62
     0
370
    30
100
AcDbLine
 10
117.954
 20
37.168
 30
0.0
 11
110.883
 21
33.086
 31
0.0
  0
LINE
  5
96
330
8F
100
AcDbEntity
  8
0
  6
Continuous
 62
     0
370
    30
100
AcDbLine
 10
110.883
 20
41.251
 30
0.0
 11
112.074
 21
40.563
 31
0.0
  0
LINE
  5
97
330
8F
100
AcDbEntity
  8
0
  6
Continuous
 62
     0
370
    30
100
AcDbLine
 10
116.764
 20
37.855
 30
0.0
 11
117.954
 21
37.168
 31
0.0
  0
LINE
  5
98
330
8F
100
AcDbEntity
  8
0
  6
Continuous
 62
     0
370
    30
100
AcDbLine
 10
117.954
 20
37.168
 30
0.0
 11
117.954
 21
35.794
 31
0.0
  0
LINE
  5
99
330
8F
100
AcDbEntity
  8
0
  6
Continuous
 62
     0
370
    30
100
AcDbLine
 10
117.954
 20
30.378
 30
0.0
 11
117.954
 21
29.003
 31
0.0
  0
LINE
  5
9A
330
8F
100
AcDbEntity
  8
0
  6
Continuous
 62
     0
370
    30
100
AcDbLine
 10
117.954
 20
29.003
 30
0.0
 11
116.764
 21
29.69
 31
0.0
  0
LINE
  5
9B
330
8F
100
AcDbEntity
  8
0
  6
Continuous
 62
     0
370
    30
100
AcDbLine
 10
112.074
 20
32.398
 30
0.0
 11
110.883
 21
33.086
 31
0.0
  0
LINE
  5
9C
330
8F
100
AcDbEntity
  8
0
  6
Continuous
 62
     0
370
    30
100
AcDbLine
 10
110.883
 20
41.251
 30
0.0
 11
110.883
 21
39.876
 31
0.0
  0
LINE
  5
9D
330
8F
100
AcDbEntity
  8
0
  6
Continuous
 62
     0
370
    30
100
AcDbLine
 10
110.883
 20
34.46
 30
0.0
 11
110.883
 21
33.086
 31
0.0
  0
LINE
  5
9E
330
8F
100
AcDbEntity
  8
0
  6
Continuous
 62
     0
370
    30
100
AcDbLine
 10
117.954
 20
35.794
 30
0.0
 11
112.074
 21
32.398
 31
0.0
  0
LINE
  5
9F
330
8F
100
AcDbEntity
  8
0
  6
Continuous
 62
     0
370
    30
100
AcDbLine
 10
116.764
 20
29.69
 30
0.0
 11
117.954
 21
30.378
 31
0.0
  0
LINE
  5
A0
330
8F
100
AcDbEntity
  8
0
  6
Continuous
 62
     0
370
    30
100
AcDbLine
 10
112.074
 20
40.563
 30
0.0
 11
110.883
 21
39.876
 31
0.0
  0
LINE
  5
A1
330
8F
100
AcDbEntity
  8
0
  6
Continuous
 62
     0
370
    30
100
AcDbLine
 10
110.883
 20
34.46
 30
0.0
 11
116.764
 21
37.855
 31
0.0
  0
ELLIPSE
  5
A2
330
8F
100
AcDbEntity
  8
0
  6
Continuous
 62
     0
370
    30
100
AcDbEllipse
 10
114.419
 20
35.127
 30
0.0
 11
3.000000000000001
 21
-5.196152422706632
 31
0.0
210
0.0
220
0.0
230
0.9999999999999999
 40
0.577
 41
3.341305273530089
 42
4.512676360444393
  0
ELLIPSE
  5
A3
330
8F
100
AcDbEntity
  8
0
  6
Continuous
 62
     0
370
    30
100
AcDbEllipse
 10
114.419
 20
35.127
 30
0.0
 11
-3.000000000000001
 21
5.196152422706632
 31
0.0
210
0.0
220
0.0
230
-0.9999999999999999
 40
0.577
 41
0.1997126199402967
 42
0.6179500841777587
  0
ELLIPSE
  5
A4
330
8F
100
AcDbEntity
  8
0
  6
Continuous
 62
     0
370
    30
100
AcDbEllipse
 10
114.419
 20
35.127
 30
0.0
 11
-3.000000000000001
 21
5.196152422706632
 31
0.0
210
0.0
220
0.0
230
-0.9999999999999999
 40
0.577
 41
0.952846242617138
 42
1.3710837068546
  0
ELLIPSE
  5
A5
330
8F
100
AcDbEntity
  8
0
  6
Continuous
 62
     0
370
    30
100
AcDbEllipse
 10
124.849
 20
45.435
 30
0.0
 11
6.875000000000002
 21
11.90784930203603
 31
0.0
210
0.0
220
0.0
230
0.9999999999999997
 40
0.577
 41
0.7853981633974483
 42
2.356194490192345
  0
ELLIPSE
  5
A6
330
8F
100
AcDbEntity
  8
0
  6
Continuous
 62
     0
370
    30
100
AcDbEllipse
 10
123.434
 20
46.252
 30
0.0
 11
-6.875000000000002
 21
-11.90784930203603
 31
0.0
210
0.0
220
0.0
230
-0.9999999999999997
 40
0.577
 41
0.7853981633974485
 42
2.356194490192345
  0
ELLIPSE
  5
A7
330
8F
100
AcDbEntity
  8
0
  6
Continuous
 62
     0
370
    30
100
AcDbEllipse
 10
124.849
 20
45.435
 30
0.0
 11
-6.875000000000003
 21
-11.90784930203603
 31
0.0
210
0.0
220
0.0
230
-1.0
 40
0.577
 41
2.356194490192345
 42
3.141592676439948
  0
ELLIPSE
  5
A8
330
8F
100
AcDbEntity
  8
0
  6
Continuous
 62
     0
370
    30
100
AcDbEllipse
 10
123.434
 20
46.252
 30
0.0
 11
6.875000000000003
 21
11.90784930203603
 31
0.0
210
0.0
220
0.0
230
1.0
 40
0.577
 41
6.180151179362103
 42
7.068583470577035
  0
LINE
  5
A9
330
8F
100
AcDbEntity
  8
0
  6
Continuous
 62
     0
370
    30
100
AcDbLine
 10
115.126
 20
39.822
 30
0.0
 11
115.126
 21
39.549
 31
0.0
  0
LINE
  5
AA
330
8F
100
AcDbEntity
  8
0
  6
Continuous
 62
     0
370
    30
100
AcDbLine
 10
113.712
 20
40.638
 30
0.0
 11
113.712
 21
40.366
 31
0.0
  0
LINE
  5
AB
330
8F
100
AcDbEntity
  8
0
  6
Continuous
 62
     0
370
    30
100
AcDbLine
 10
113.712
 20
40.366
 30
0.0
 11
115.198
 21
41.223
 31
0.0
  0
ELLIPSE
  5
AC
330
8F
100
AcDbEntity
  8
0
  6
Continuous
 62
     0
370
    30
100
AcDbEllipse
 10
138.284
 20
21.961
 30
0.0
 11
-5.0
 21
0.0
 31
0.0
210
0.0
220
0.0
230
1.0
 40
0.577
 41
4.077362635322911
 42
5.263642409414829
  0
SPLINE
  5
AD
330
8F
100
AcDbEntity
  8
0
  6
Continuous
 62
     0
370
    30
100
AcDbSpline
210
0.0
220
0.0
230
1.0
 70
    11
 71
     3
 72
    33
 73
    29
 74
     0
 42
0.0
 43
0.0
 40
0.0
 40
0.0
 40
0.0
 40
0.0
 40
0.2890374315260825
 40
0.8671122945782477
 40
1.646000928187927
 40
2.363423783335536
 40
3.066406039675174
 40
3.807483334355219
 40
4.625306274815106
 40
5.536022770674796
 40
6.535574263171945
 40
8.71123798027479
 40
10.92290816229551
 40
11.96317378011609
 40
12.92316460389051
 40
13.79027689846875
 40
14.56916553207843
 40
15.28658838722604
 40
15.98957064356568
 40
16.73064793824572
 40
17.54847087870561
 40
18.4591873745653
 40
19.45873886706245
 40
21.6344025841653
 40
22.7554747784658
 40
23.85173722919178
 40
25.18007267263689
 40
25.84424039435945
 40
25.84424039435945
 40
25.84424039435945
 40
25.84424039435945
 10
134.7480762454301
 20
29.36045329016571
 30
0.0
 10
134.6646383259814
 20
29.31228038491136
 30
0.0
 10
134.4191427050554
 20
29.15941641033875
 30
0.0
 10
133.9849038699635
 20
28.81744619317035
 30
0.0
 10
133.5396393748398
 20
28.27641657196263
 30
0.0
 10
133.2723234962805
 20
27.57744465782704
 30
0.0
 10
133.2749333257877
 20
26.84066251170336
 30
0.0
 10
133.5431122804193
 20
26.12168547179125
 30
0.0
 10
134.0474880298611
 20
25.45933605216268
 30
0.0
 10
134.7560478388076
 20
24.87871758958722
 30
0.0
 10
135.9593887211547
 20
24.22720294493251
 30
0.0
 10
137.7245322888862
 20
23.7712984696934
 30
0.0
 10
139.5586251002141
 20
23.79691677536461
 30
0.0
 10
140.9274261811661
 20
24.13332281163444
 30
0.0
 10
141.8076286552845
 20
24.52032516819015
 30
0.0
 10
142.5197861434551
 20
25.03101320133041
 30
0.0
 10
143.0276950549703
 20
25.64772050949301
 30
0.0
 10
143.2948678244028
 20
26.34662316511268
 30
0.0
 10
143.2922958303681
 20
27.08342290811537
 30
0.0
 10
143.0241023595997
 20
27.80239601977728
 30
0.0
 10
142.5197470039994
 20
28.46474188258107
 30
0.0
 10
141.8111112700402
 20
29.04538222632078
 30
0.0
 10
140.6082092797962
 20
29.69676614174924
 30
0.0
 10
139.1974559479406
 20
30.06125756456203
 30
0.0
 10
137.7312901440492
 20
30.13596811370563
 30
0.0
 10
136.5527867694727
 20
30.03048740702437
 30
0.0
 10
135.5404316235214
 20
29.75916744225462
 30
0.0
 10
134.9398049518919
 20
29.4711479104528
 30
0.0
 10
134.7480762454301
 20
29.36045329016571
 30
0.0
  0
ELLIPSE
  5
AE
330
8F
100
AcDbEntity
  8
0
  6
Continuous
 62
     0
370
    30
100
AcDbEllipse
 10
109.999
 20
38.291
 30
0.0
 11
-5.0
 21
0.0
 31
0.0
210
0.0
220
0.0
230
1.0
 40
0.577
 41
5.176342664743361
 42
5.197751425463302
  0
SPLINE
  5
AF
330
8F
100
AcDbEntity
  8
0
  6
Continuous
 62
     0
370
    30
100
AcDbSpline
210
0.0
220
0.0
230
1.0
 70
     8
 71
     3
 72
    18
 73
    14
 74
     0
 42
0.0
 43
0.0
 40
0.0
 40
0.0
 40
0.0
 40
0.0
 40
0.3882653596462026
 40
1.164796078938608
 40
2.167005429708366
 40
3.001925634490158
 40
3.373616395617256
 40
3.730242712583744
 40
4.088253773673452
 40
4.463821235838041
 40
5.311341505258089
 40
5.988907661023982
 40
6.327690738906927
 40
6.327690738906927
 40
6.327690738906927
 40
6.327690738906927
 10
107.7619021432856
 20
40.82322252714759
 30
0.0
 10
107.6353227806648
 20
40.85019777120568
 30
0.0
 10
107.2577500221545
 20
40.94128415322016
 30
0.0
 10
106.569986292486
 20
41.17346186812919
 30
0.0
 10
105.7981745556046
 20
41.59270659062826
 30
0.0
 10
105.2705206812813
 20
42.13375908129109
 30
0.0
 10
105.0506446316952
 20
42.61157839992958
 30
0.0
 10
104.9852019582005
 20
42.97187859154509
 30
0.0
 10
105.0156221002252
 20
43.33805455844156
 30
0.0
 10
105.1882922839597
 20
43.84102594768054
 30
0.0
 10
105.5871735873768
 20
44.35290891411528
 30
0.0
 10
106.0781662778875
 20
44.74056727785604
 30
0.0
 10
106.3660067473619
 20
44.9195791160179
 30
0.0
 10
106.4638049979682
 20
44.97604296233173
 30
0.0
  0
SPLINE
  5
B0
330
8F
100
AcDbEntity
  8
0
  6
Continuous
 62
     0
370
    30
100
AcDbSpline
210
0.0
220
0.0
230
1.0
 70
     8
 71
     3
 72
    10
 73
     6
 74
     0
 42
0.0
 43
0.0
 40
0.0
 40
0.0
 40
0.0
 40
0.0
 40
0.4906232588058755
 40
0.9812465176117511
 40
1.471869776417627
 40
1.471869776417627
 40
1.471869776417627
 40
1.471869776417627
 10
106.4638049979682
 20
44.97604296233173
 30
0.0
 10
106.6054357332393
 20
45.05781350546604
 30
0.0
 10
106.8964630634901
 20
45.20790372815507
 30
0.0
 10
107.3520468140323
 20
45.39893114712458
 30
0.0
 10
107.6618533051037
 20
45.50431442035566
 30
0.0
 10
107.818240598486
 20
45.55215479416788
 30
0.0
  0
ELLIPSE
  5
B1
330
8F
100
AcDbEntity
  8
0
  6
Continuous
 62
     0
370
    30
100
AcDbEllipse
 10
129.233
 20
49.232
 30
0.0
 11
2.375
 21
4.113620667976084
 31
0.0
210
0.0
220
0.0
230
0.9999999999999999
 40
0.577
 41
3.510880507607633
 42
5.497787143782138
  0
ELLIPSE
  5
B2
330
8F
100
AcDbEntity
  8
0
  6
Continuous
 62
     0
370
    30
100
AcDbEllipse
 10
129.233
 20
49.232
 30
0.0
 11
1.375
 21
2.381569860407207
 31
0.0
210
0.0
220
0.0
230
1.0
 40
0.577
 41
2.973229712198324
 42
3.926990816987241
  0
ELLIPSE
  5
B3
330
8F
100
AcDbEntity
  8
0
  6
Continuous
 62
     0
370
    30
100
AcDbEllipse
 10
129.233
 20
49.232
 30
0.0
 11
1.375
 21
2.381569860407207
 31
0.0
210
0.0
220
0.0
230
1.0
 40
0.577
 41
3.926990816987242
 42
8.046703449517254
  0
SPLINE
  5
B4
330
8F
100
AcDbEntity
  8
0
  6
Continuous
 62
     0
370
     0
100
AcDbSpline
210
0.0
220
0.0
230
1.0
 70
     8
 71
     3
 72
    49
 73
    45
 74
     0
 42
0.0
 43
0.0
 40
-64.89331792297891
 40
-64.89331792297891
 40
-64.89331792297891
 40
-64.89331792297891
 40
-64.12077842389581
 40
-63.34823892481275
 40
-62.57569942572967
 40
-61.80315992664658
 40
-61.03062042756349
 40
-60.25808092848042
 40
-59.48554142939734
 40
-58.71300193031425
 40
-57.94046243123117
 40
-57.16792293214809
 40
-56.39538343306501
 40
-55.62284393398193
 40
-54.85030443489885
 40
-54.07776493581576
 40
-53.30522543673267
 40
-52.53268593764959
 40
-51.76014643856651
 40
-50.98760693948342
 40
-50.21506744040034
 40
-49.44252794131725
 40
-48.66998844223417
 40
-47.89744894315109
 40
-47.12490944406801
 40
-46.35236994498493
 40
-45.57983044590185
 40
-44.80729094681877
 40
-44.03475144773568
 40
-43.2622119486526
 40
-42.48967244956952
 40
-41.71713295048643
 40
-40.94459345140335
 40
-40.17205395232027
 40
-39.39951445323719
 40
-38.62697495415411
 40
-37.85443545507103
 40
-37.08189595598795
 40
-36.30935645690487
 40
-35.53681695782178
 40
-34.76427745873869
 40
-33.99173795965561
 40
-33.21919846057253
 40
-32.44665784958769
 40
-32.44665784958769
 40
-32.44665784958769
 40
-32.44665784958769
 10
124.6718046135218
 20
23.16726507361739
 30
0.0
 10
124.8536190194732
 20
23.04526281936948
 30
0.0
 10
125.227450236363
 20
22.8071487154206
 30
0.0
 10
125.8170400915004
 20
22.46877247728693
 30
0.0
 10
126.4336178733107
 20
22.15025583747493
 30
0.0
 10
127.0752436094438
 20
21.8526009608229
 30
0.0
 10
127.7398985054197
 20
21.57674438139611
 30
0.0
 10
128.4254913117162
 20
21.32355404559453
 30
0.0
 10
129.1298648995379
 20
21.09382658400826
 30
0.0
 10
129.8508030490332
 20
20.88828480418958
 30
0.0
 10
130.5860374220491
 20
20.70757541662982
 30
0.0
 10
131.3332546992413
 20
20.5522669999158
 30
0.0
 10
132.0901038586109
 20
20.42284821178583
 30
0.0
 10
132.8542035726955
 20
20.31972625162749
 30
0.0
 10
133.6231497011051
 20
20.2432255792789
 30
0.0
 10
134.3945228548369
 20
20.19358689415782
 30
0.0
 10
135.1658960085686
 20
20.17096637793217
 30
0.0
 10
135.9348421369781
 20
20.17543520311483
 30
0.0
 10
136.6989418510628
 20
20.20697930912837
 30
0.0
 10
137.4557910104324
 20
20.26549944654519
 30
0.0
 10
138.2030082876244
 20
20.35081148936258
 30
0.0
 10
138.9382426606409
 20
20.46264701433131
 30
0.0
 10
139.659180810134
 20
20.6006541455148
 30
0.0
 10
140.3635543979639
 20
20.7643986614206
 30
0.0
 10
141.04914720423
 20
20.95336536122203
 30
0.0
 10
141.7138021003192
 20
21.16695968577054
 30
0.0
 10
142.3554278360295
 20
21.40450958829881
 30
0.0
 10
142.9720056194178
 20
21.66526764892852
 30
0.0
 10
143.5615954686658
 20
21.94841342632968
 30
0.0
 10
144.1223423159804
 20
22.2530560391328
 30
0.0
 10
144.6524818443237
 20
22.57823696897108
 30
0.0
 10
145.1503460386068
 20
22.92293307633393
 30
0.0
 10
145.6143684338825
 20
23.28605981974219
 30
0.0
 10
146.0430890440233
 20
23.66647466811729
 30
0.0
 10
146.4351589553786
 20
24.06298069560611
 30
0.0
 10
146.7893445709553
 20
24.47433034755326
 30
0.0
 10
147.1045314917707
 20
24.89922936576893
 30
0.0
 10
147.379728023164
 20
25.3363408607443
 30
0.0
 10
147.6140682950345
 20
25.78428951800053
 30
0.0
 10
147.8068149861895
 20
26.24166592533678
 30
0.0
 10
147.957361644229
 20
26.70703100736272
 30
0.0
 10
148.06523459367
 20
27.17892055336169
 30
0.0
 10
148.1300944263045
 20
27.6558498242397
 30
0.0
 10
148.1445228652202
 20
27.97616232129884
 30
0.0
 10
148.1445228548368
 20
28.13665681665268
 30
0.0
  0
SPLINE
  5
B5
330
8F
100
AcDbEntity
  8
0
  6
Continuous
 62
     0
370
     0
100
AcDbSpline
210
0.0
220
0.0
230
1.0
 70
     8
 71
     3
 72
    63
 73
    59
 74
     0
 42
0.0
 43
0.0
 40
-60.18987414860599
 40
-60.18987414860599
 40
-60.18987414860599
 40
-60.18987414860599
 40
-59.47332802778925
 40
-58.75678190697252
 40
-58.04023578615579
 40
-57.32368966533905
 40
-56.6071435445223
 40
-55.89059742370557
 40
-55.17405130288883
 40
-54.45750518207209
 40
-53.74095906125535
 40
-53.02441294043862
 40
-52.30786681962189
 40
-51.59132069880514
 40
-50.8747745779884
 40
-50.15822845717167
 40
-49.44168233635492
 40
-48.72513621553819
 40
-48.00859009472145
 40
-47.2920439739047
 40
-46.57549785308797
 40
-45.85895173227123
 40
-45.14240561145449
 40
-44.42585949063775
 40
-43.70931336982102
 40
-42.99276724900427
 40
-42.27622112818754
 40
-41.5596750073708
 40
-40.84312888655406
 40
-40.12658276573733
 40
-39.41003664492059
 40
-38.69349052410385
 40
-37.97694440328711
 40
-37.26039828247038
 40
-36.54385216165363
 40
-35.8273060408369
 40
-35.11075992002016
 40
-34.39421379920342
 40
-33.67766767838668
 40
-32.96112155756995
 40
-32.2445754367532
 40
-31.52802931593646
 40
-30.81148319511973
 40
-30.09493707430298
 40
-29.37839095348625
 40
-28.66184483266951
 40
-27.94529871185277
 40
-27.22875259103603
 40
-26.5122064702193
 40
-25.79566034940256
 40
-25.07911422858582
 40
-24.36256810776908
 40
-23.64602198695234
 40
-22.9294758661356
 40
-22.21292974531887
 40
-21.49638362450213
 40
-20.77983750368539
 40
-20.06329138286865
 40
-20.06329138286865
 40
-20.06329138286865
 40
-20.06329138286865
 10
125.4405398114246
 20
24.35332174603064
 30
0.0
 10
125.6091313514886
 20
24.23895371696226
 30
0.0
 10
125.9557748435136
 20
24.01567967055068
 30
0.0
 10
126.5024854364593
 20
23.69820830732534
 30
0.0
 10
127.0742211977742
 20
23.3991755550705
 30
0.0
 10
127.6691832440068
 20
23.11952227550331
 30
0.0
 10
128.2854996020935
 20
22.86012836289808
 30
0.0
 10
128.9212311133866
 20
22.62180996604299
 30
0.0
 10
129.574377531185
 20
22.40531692289838
 30
0.0
 10
130.2428838152624
 20
22.211330400642
 30
0.0
 10
130.9246465975135
 20
22.04046075264918
 30
0.0
 10
131.6175208000008
 20
21.89324559804602
 30
0.0
 10
132.3193263841435
 20
21.77014813017382
 30
0.0
 10
133.0278552099311
 20
21.6715556592081
 30
0.0
 10
133.7408779835472
 20
21.59777839353811
 30
0.0
 10
134.456151271553
 20
21.54904846373672
 30
0.0
 10
135.1714245595589
 20
21.52551919219144
 30
0.0
 10
135.884447333175
 20
21.52726461069543
 30
0.0
 10
136.5929761589626
 20
21.55427922751645
 30
0.0
 10
137.2947817431053
 20
21.60647804467543
 30
0.0
 10
137.9876559455924
 20
21.68369682538196
 30
0.0
 10
138.6694187278441
 20
21.78569261078374
 30
0.0
 10
139.3379250119195
 20
21.91214448440503
 30
0.0
 10
139.9910714297254
 20
22.06265458186878
 30
0.0
 10
140.6268029409904
 20
22.23674934272503
 30
0.0
 10
141.2431192991822
 20
22.4338810004472
 30
0.0
 10
141.8380813450227
 20
22.65342930590842
 30
0.0
 10
142.4098171078008
 20
22.89470347891468
 30
0.0
 10
142.9565276952853
 20
23.15694438165482
 30
0.0
 10
143.4764929537044
 20
23.43932690722907
 30
0.0
 10
143.9680768799864
 20
23.7409625757405
 30
0.0
 10
144.4297327692307
 20
24.06090232978148
 30
0.0
 10
144.8600080812135
 20
24.39813952051958
 30
0.0
 10
145.2575490106169
 20
24.75161307498686
 30
0.0
 10
145.6211047466009
 20
25.12021083460849
 30
0.0
 10
145.9495314083175
 20
25.50277305446456
 30
0.0
 10
146.2417956439826
 20
25.89809605227701
 30
0.0
 10
146.4969778821837
 20
26.30493599563941
 30
0.0
 10
146.714275225191
 20
26.72201281557352
 30
0.0
 10
146.893003975171
 20
27.14801423410036
 30
0.0
 10
147.0326017853531
 20
27.58159989315189
 30
0.0
 10
147.1326294293802
 20
28.02140557183345
 30
0.0
 10
147.1927721832776
 20
28.46604747876748
 30
0.0
 10
147.2128408156908
 20
28.91412660601314
 30
0.0
 10
147.1927721832776
 20
29.36423313086283
 30
0.0
 10
147.1326294293802
 20
29.81495085166586
 30
0.0
 10
147.0326017853531
 20
30.26486164372329
 30
0.0
 10
146.893003975171
 20
30.71254992123215
 30
0.0
 10
146.7142752251908
 20
31.15660709124289
 30
0.0
 10
146.4969778821841
 20
31.5956359856128
 30
0.0
 10
146.241795643981
 20
32.02825525701724
 30
0.0
 10
145.9495314083234
 20
32.45310372516657
 30
0.0
 10
145.6211047465787
 20
32.86884465963169
 30
0.0
 10
145.2575490106997
 20
33.2741699855091
 30
0.0
 10
144.8600080809043
 20
33.667804399795
 30
0.0
 10
144.4297327703848
 20
34.04850938139624
 30
0.0
 10
143.9680768756793
 20
34.41508709754636
 30
0.0
 10
143.6403542717456
 20
34.64928512379076
 30
0.0
 10
143.4717627316816
 20
34.76365315285915
 30
0.0
  0
LINE
  5
B6
330
8F
100
AcDbEntity
  8
0
  6
Continuous
 62
     0
370
     0
100
AcDbLine
 10
120.783
 20
25.806
 30
0.0
 11
124.672
 21
23.167
 31
0.0
  0
LINE
  5
B7
330
8F
100
AcDbEntity
  8
0
  6
Continuous
 62
     0
370
     0
100
AcDbLine
 10
120.783
 20
25.806
 30
0.0
 11
120.783
 21
36.556
 31
0.0
  0
ELLIPSE
  5
B8
330
8F
100
AcDbEntity
  8
0
  6
Continuous
 62
     0
370
     0
100
AcDbEllipse
 10
117.778
 20
49.518
 30
0.0
 11
-6.875000000000003
 21
-11.90784930203603
 31
0.0
210
0.0
220
0.0
230
-1.0
 40
0.577
 41
2.356194490192345
 42
3.141592676439946
  0
ELLIPSE
  5
B9
330
8F
100
AcDbEntity
  8
0
  6
Continuous
 62
     0
370
     0
100
AcDbEllipse
 10
117.778
 20
49.518
 30
0.0
 11
6.875000000000002
 21
11.90784930203603
 31
0.0
210
0.0
220
0.0
230
0.9999999999999997
 40
0.577
 41
0.7853981633974483
 42
2.356194490192345
  0
LINE
  5
BA
330
8F
100
AcDbEntity
  8
0
  6
Continuous
 62
     0
370
     0
100
AcDbLine
 10
108.055
 20
43.904
 30
0.0
 11
108.055
 21
33.154
 31
0.0
  0
SPLINE
  5
BB
330
8F
100
AcDbEntity
  8
0
  6
Continuous
 62
     0
370
     0
100
AcDbSpline
210
0.0
220
0.0
230
1.0
 70
     8
 71
     3
 72
    21
 73
    17
 74
     0
 42
0.0
 43
0.0
 40
-64.89331792297897
 40
-64.89331792297897
 40
-64.89331792297897
 40
-64.89331792297897
 40
-64.12077842389587
 40
-63.3482389248128
 40
-62.57569942572972
 40
-61.80315992664664
 40
-61.03062042756355
 40
-60.25808092848047
 40
-59.48554142939739
 40
-58.71300193031431
 40
-57.94046243123122
 40
-57.16792293214814
 40
-56.39538343306506
 40
-55.62284393398197
 40
-54.85030443489889
 40
-54.07773978026099
 40
-54.07773978026099
 40
-54.07773978026099
 40
-54.07773978026099
 10
104.1657079591119
 20
35.0064654970694
 30
0.0
 10
103.9838935531605
 20
35.09440443525867
 30
0.0
 10
103.6304672155849
 20
35.27617267615052
 30
0.0
 10
103.1326030154123
 20
35.56563832958147
 30
0.0
 10
102.6685806217148
 20
35.87100649198523
 30
0.0
 10
102.2398600111511
 20
36.19131636672485
 30
0.0
 10
101.847790099909
 20
36.52556013920456
 30
0.0
 10
101.493604484302
 20
36.87268615518663
 30
0.0
 10
101.1784175634947
 20
37.23160222771237
 30
0.0
 10
100.9032210320993
 20
37.60117907405511
 30
0.0
 10
100.6688807602293
 20
37.9802538687196
 30
0.0
 10
100.4761340690742
 20
38.36763390215947
 30
0.0
 10
100.3255874110348
 20
38.76210033347215
 30
0.0
 10
100.2177144615937
 20
39.16241202532638
 30
0.0
 10
100.1528546289593
 20
39.56730944903843
 30
0.0
 10
100.1384259655165
 20
39.83945334541442
 30
0.0
 10
100.1384262004499
 20
39.97586987229901
 30
0.0
  0
SPLINE
  5
BC
330
8F
100
AcDbEntity
  8
0
  6
Continuous
 62
     0
370
     0
100
AcDbSpline
210
0.0
220
0.0
230
1.0
 70
     8
 71
     3
 72
    41
 73
    37
 74
     0
 42
0.0
 43
0.0
 40
-60.18987414860604
 40
-60.18987414860604
 40
-60.18987414860604
 40
-60.18987414860604
 40
-59.4733280277893
 40
-58.75678190697257
 40
-58.04023578615583
 40
-57.32368966533909
 40
-56.60714354452234
 40
-55.89059742370561
 40
-55.17405130288888
 40
-54.45750518207214
 40
-53.7409590612554
 40
-53.02441294043866
 40
-52.30786681962193
 40
-51.59132069880518
 40
-50.87477457798845
 40
-50.1582284571717
 40
-49.44168233635497
 40
-48.72513621553823
 40
-48.00859009472149
 40
-47.29204397390475
 40
-46.57549785308801
 40
-45.85895173227127
 40
-45.14240561145454
 40
-44.4258594906378
 40
-43.70931336982105
 40
-42.99276724900432
 40
-42.27622112818757
 40
-41.55967500737084
 40
-40.8431288865541
 40
-40.12658276573736
 40
-39.41003664492062
 40
-38.69349052410388
 40
-37.97694440328715
 40
-37.2603982824704
 40
-36.54385216165367
 40
-36.10578457014979
 40
-36.10578457014979
 40
-36.10578457014979
 40
-36.10578457014979
 10
104.8111863235822
 20
36.26368453544434
 30
0.0
 10
104.6425947835182
 20
36.34398924845409
 30
0.0
 10
104.3148721795845
 20
36.51006064907665
 30
0.0
 10
103.853216284879
 20
36.77476994893851
 30
0.0
 10
103.4229409743594
 20
37.05424855873832
 30
0.0
 10
103.025400044564
 20
37.34761713955238
 30
0.0
 10
102.661844308685
 20
37.65395264416959
 30
0.0
 10
102.3334176469404
 20
37.97229122805933
 30
0.0
 10
102.0411534112827
 20
38.30163128018224
 30
0.0
 10
101.7859711730796
 20
38.64093657491185
 30
0.0
 10
101.5686738300729
 20
38.98913953225436
 30
0.0
 10
101.3899450800928
 20
39.34514457688471
 30
0.0
 10
101.2503472699107
 20
39.70783158522298
 30
0.0
 10
101.1503196258836
 20
40.07605940975979
 30
0.0
 10
101.0901768719862
 20
40.4486694695279
 30
0.0
 10
101.0701082395729
 20
40.82448939542684
 30
0.0
 10
101.0901768719862
 20
41.2023367189298
 30
0.0
 10
101.1503196258835
 20
41.58102259256697
 30
0.0
 10
101.2503472699107
 20
41.95935553047954
 30
0.0
 10
101.3899450800928
 20
42.33614515727525
 30
0.0
 10
101.5686738300728
 20
42.71020595338936
 30
0.0
 10
101.78597117308
 20
43.08036098516823
 30
0.0
 10
102.0411534112811
 20
43.4454456079376
 30
0.0
 10
102.3334176469463
 20
43.80431113040603
 30
0.0
 10
102.6618443086629
 20
44.1558284288723
 30
0.0
 10
103.0254000446469
 20
44.49889149986664
 30
0.0
 10
103.4229409740502
 20
44.83242094004657
 30
0.0
 10
103.853216286033
 20
45.15536734239926
 30
0.0
 10
104.3148721752774
 20
45.46671459806417
 30
0.0
 10
104.8064561015594
 20
45.7654830933877
 30
0.0
 10
105.3264213599784
 20
46.05073279214984
 30
0.0
 10
105.8731319474629
 20
46.32156619326607
 30
0.0
 10
106.4448677102411
 20
46.57713115465774
 30
0.0
 10
107.0398297560816
 20
46.81662357440635
 30
0.0
 10
107.576304371579
 20
47.01044423315455
 30
0.0
 10
107.9157420465303
 20
47.12245816850852
 30
0.0
 10
108.0456600629778
 20
47.16384057099272
 30
0.0
  0
LINE
  5
BD
330
8F
100
AcDbEntity
  8
0
  6
Continuous
 62
     0
370
     0
100
AcDbLine
 10
108.055
 20
33.154
 30
0.0
 11
104.166
 21
35.006
 31
0.0
  0
ELLIPSE
  5
BE
330
8F
100
AcDbEntity
  8
0
  6
Continuous
 62
     0
370
     0
100
AcDbEllipse
 10
143.41
 20
33.986
 30
0.0
 11
-0.5613892457378409
 21
-0.8275518804098617
 31
0.0
210
0.0
220
0.0
230
-1.0
 40
0.525
 41
2.316207932590233
 42
3.141600817172214
  0
LINE
  5
BF
330
8F
100
AcDbEntity
  8
0
  6
Continuous
 62
     0
370
     0
100
AcDbLine
 10
124.672
 20
12.877
 30
0.0
 11
124.672
 21
23.167
 31
0.0
  0
ELLIPSE
  5
C0
330
8F
100
AcDbEntity
  8
0
  6
Continuous
 62
     0
370
     0
100
AcDbEllipse
 10
125.379
 20
23.576
 30
0.0
 11
-0.5613892457378478
 21
-0.8275518804098572
 31
0.0
210
0.0
220
0.0
230
-1.0
 40
0.525
 41
0.7454116057953373
 42
2.316207932590217
  0
ELLIPSE
  5
C1
330
8F
100
AcDbEntity
  8
0
  6
Continuous
 62
     0
370
     0
100
AcDbEllipse
 10
139.521
 20
47.374
 30
0.0
 11
-1.0
 21
0.0
 31
0.0
210
0.0
220
0.0
230
1.0
 40
0.577
 41
2.356194490192345
 42
3.141600975166383
  0
LINE
  5
C2
330
8F
100
AcDbEntity
  8
0
  6
Continuous
 62
     0
370
     0
100
AcDbLine
 10
120.783
 20
36.556
 30
0.0
 11
115.126
 21
39.822
 31
0.0
  0
ELLIPSE
  5
C3
330
8F
100
AcDbEntity
  8
0
  6
Continuous
 62
     0
370
     0
100
AcDbEllipse
 10
121.49
 20
36.964
 30
0.0
 11
1.000000000000001
 21
0.0
 31
0.0
210
0.0
220
0.0
230
-1.0
 40
0.577
 41
0.7853981633974484
 42
2.356194490192345
  0
ELLIPSE
  5
C4
330
8F
100
AcDbEntity
  8
0
  6
Continuous
 62
     0
370
     0
100
AcDbEllipse
 10
117.778
 20
59.928
 30
0.0
 11
0.5000000000000001
 21
-0.8660254037844387
 31
0.0
210
0.0
220
0.0
230
0.9999999999999997
 40
0.577
 41
2.356194490192345
 42
3.141611420196024
  0
LINE
  5
C5
330
8F
100
AcDbEntity
  8
0
  6
Continuous
 62
     0
370
     0
100
AcDbLine
 10
113.712
 20
40.638
 30
0.0
 11
108.055
 21
43.904
 31
0.0
  0
ELLIPSE
  5
C6
330
8F
100
AcDbEntity
  8
0
  6
Continuous
 62
     0
370
     0
100
AcDbEllipse
 10
108.762
 20
44.313
 30
0.0
 11
-1.0
 21
0.0
 31
0.0
210
0.0
220
0.0
230
1.0
 40
0.577
 41
6.283179205894467
 42
7.068583470577035
  0
LINE
  5
C7
330
8F
100
AcDbEntity
  8
0
  6
Continuous
 62
     0
370
     0
100
AcDbLine
 10
104.166
 20
24.717
 30
0.0
 11
104.166
 21
35.006
 31
0.0
  0
ELLIPSE
  5
C8
330
8F
100
AcDbEntity
  8
0
  6
Continuous
 62
     0
370
     0
100
AcDbEllipse
 10
104.873
 20
35.415
 30
0.0
 11
-0.430034096121233
 21
-0.9028126473267831
 31
0.0
210
0.0
220
0.0
230
-1.0
 40
0.625
 41
0.8330097126741174
 42
2.403806039469022
  0
LINE
  5
C9
330
8F
100
AcDbEntity
  8
0
  6
Continuous
 62
     0
370
     0
100
AcDbLine
 10
141.519
 20
36.088
 30
0.0
 11
123.488
 21
25.678
 31
0.0
  0
LINE
  5
CA
330
8F
100
AcDbEntity
  8
0
  6
Continuous
 62
     0
370
     0
100
AcDbLine
 10
140.228
 20
38.46
 30
0.0
 11
122.197
 21
28.05
 31
0.0
  0
SPLINE
  5
CB
330
8F
100
AcDbEntity
  8
0
  6
Continuous
 62
     0
370
     0
100
AcDbSpline
210
0.0
220
0.0
230
1.0
 70
     8
 71
     3
 72
    11
 73
     7
 74
     0
 42
0.0
 43
0.0
 40
0.0
 40
0.0
 40
0.0
 40
0.0
 40
0.4706725826896524
 40
0.8928674251534445
 40
1.256071739303201
 40
1.47909230835171
 40
1.47909230835171
 40
1.47909230835171
 40
1.47909230835171
 10
140.2281537996258
 20
38.46039396025897
 30
0.0
 10
140.2912949023625
 20
38.49684849292095
 30
0.0
 10
140.3944305535838
 20
38.52314315327558
 30
0.0
 10
140.4828639063076
 20
38.45188163997476
 30
0.0
 10
140.5160741269866
 20
38.33494186140381
 30
0.0
 10
140.5210491327761
 20
38.24711482761952
 30
0.0
 10
140.5210487888499
 20
38.21125557585522
 30
0.0
  0
SPLINE
  5
CC
330
8F
100
AcDbEntity
  8
0
  6
Continuous
 62
     0
370
     0
100
AcDbSpline
210
0.0
220
0.0
230
1.0
 70
     8
 71
     3
 72
    11
 73
     7
 74
     0
 42
0.0
 43
0.0
 40
0.0
 40
0.0
 40
0.0
 40
0.0
 40
0.4706725826896516
 40
0.892867425153443
 40
1.256071739303199
 40
1.563285199210711
 40
1.563285199210711
 40
1.563285199210711
 40
1.563285199210711
 10
141.5191105285665
 20
36.08828061543245
 30
0.0
 10
141.5822516313032
 20
36.1247351480944
 30
0.0
 10
141.6553285701852
 20
36.20626223496616
 30
0.0
 10
141.6331857947312
 20
36.33818267454589
 30
0.0
 10
141.5358485641638
 20
36.45645338621036
 30
0.0
 10
141.4436980406319
 20
36.52820754499065
 30
0.0
 10
141.395894091659
 20
36.56063560095334
 30
0.0
  0
SPLINE
  5
CD
330
8F
100
AcDbEntity
  8
0
  6
Continuous
 62
     0
370
     0
100
AcDbSpline
210
0.0
220
0.0
230
1.0
 70
     8
 71
     3
 72
    13
 73
     9
 74
     0
 42
0.0
 43
0.0
 40
0.0
 40
0.0
 40
0.0
 40
0.0
 40
1.012593040846002
 40
1.623652246326114
 40
2.065666906312384
 40
2.398817108384382
 40
2.775686860619896
 40
3.270119589442539
 40
3.270119589442539
 40
3.270119589442539
 40
3.270119589442539
 10
120.7827173169958
 20
25.80551874168236
 30
0.0
 10
120.8828694058345
 20
26.06560510639407
 30
0.0
 10
121.0773609018994
 20
26.50273417100178
 30
0.0
 10
121.3810530960349
 20
27.05528546301242
 30
0.0
 10
121.6042946956427
 20
27.40496484665103
 30
0.0
 10
121.7964852756926
 20
27.66772645753012
 30
0.0
 10
121.9970313918961
 20
27.9004908684956
 30
0.0
 10
122.1306021924194
 20
28.01176766816523
 30
0.0
 10
122.1969308793689
 20
28.05006255343045
 30
0.0
  0
SPLINE
  5
CE
330
8F
100
AcDbEntity
  8
0
  6
Continuous
 62
     0
370
     0
100
AcDbSpline
210
0.0
220
0.0
230
1.0
 70
     8
 71
     3
 72
    13
 73
     9
 74
     0
 42
0.0
 43
0.0
 40
0.0
 40
0.0
 40
0.0
 40
0.0
 40
1.012593040846001
 40
1.623652246326112
 40
2.065666906312382
 40
2.39881710838438
 40
2.775686860619893
 40
3.270119589442536
 40
3.270119589442536
 40
3.270119589442536
 40
3.270119589442536
 10
120.7827173169958
 20
25.80551874168236
 30
0.0
 10
121.065715924131
 20
25.72962741141575
 30
0.0
 10
121.553862652168
 20
25.6271694558521
 30
0.0
 10
122.1985573109902
 20
25.5531339080655
 30
0.0
 10
122.621394095363
 20
25.53606017695601
 30
0.0
 10
122.95081238773
 20
25.54666795465852
 30
0.0
 10
123.2571077377469
 20
25.58511975768707
 30
0.0
 10
123.4215589213601
 20
25.63965432333872
 30
0.0
 10
123.4878876083095
 20
25.67794920860393
 30
0.0
  0
SPLINE
  5
CF
330
8F
100
AcDbEntity
  8
0
  6
Continuous
 62
     0
370
     0
100
AcDbSpline
210
0.0
220
0.0
230
1.0
 70
     8
 71
     3
 72
    10
 73
     6
 74
     0
 42
0.0
 43
0.0
 40
0.0
 40
0.0
 40
0.0
 40
0.0
 40
1.012593040846001
 40
1.623652246326113
 40
1.79465259375609
 40
1.79465259375609
 40
1.79465259375609
 40
1.79465259375609
 10
108.0547952556379
 20
33.15398797003185
 30
0.0
 10
107.9546431667992
 20
33.5297200056455
 30
0.0
 10
107.8274420744087
 20
34.15257837279418
 30
0.0
 10
107.7667405381869
 20
34.82001398713545
 30
0.0
 10
107.7618559036316
 20
35.09426325208174
 30
0.0
 10
107.7619020368396
 20
35.15316006701377
 30
0.0
  0
SPLINE
  5
D0
330
8F
100
AcDbEntity
  8
0
  6
Continuous
 62
     0
370
     0
100
AcDbSpline
210
0.0
220
0.0
230
1.0
 70
     8
 71
     3
 72
    13
 73
     9
 74
     0
 42
0.0
 43
0.0
 40
0.0
 40
0.0
 40
0.0
 40
0.0
 40
1.012593040846
 40
1.62365224632611
 40
2.065666906312382
 40
2.39881710838438
 40
2.775686860619894
 40
3.270119589442536
 40
3.270119589442536
 40
3.270119589442536
 40
3.270119589442536
 10
108.0547952556379
 20
33.15398797003185
 30
0.0
 10
107.7717966485026
 20
33.40487528378496
 30
0.0
 10
107.35094032414
 20
33.82723048521838
 30
0.0
 10
106.9400696548928
 20
34.36262586373995
 30
0.0
 10
106.7450641111138
 20
34.70226356710558
 30
0.0
 10
106.649697159464
 20
34.95812121978901
 30
0.0
 10
106.6286481755155
 20
35.18556536215019
 30
0.0
 10
106.6975098397478
 20
35.29528856254802
 30
0.0
 10
106.7638385266973
 20
35.3335834478133
 30
0.0
  0
LINE
  5
D1
330
8F
100
AcDbEntity
  8
0
  6
Continuous
 62
     0
370
     0
100
AcDbLine
 10
107.762
 20
35.91
 30
0.0
 11
106.764
 21
35.334
 31
0.0
  0
LINE
  5
D2
330
8F
100
AcDbEntity
  8
0
  6
Continuous
 62
     0
370
     0
100
AcDbLine
 10
141.519
 20
36.088
 30
0.0
 11
143.472
 21
34.764
 31
0.0
  0
LINE
  5
D3
330
8F
100
AcDbEntity
  8
0
  6
Continuous
 62
     0
370
     0
100
AcDbLine
 10
123.488
 20
25.678
 30
0.0
 11
125.441
 21
24.353
 31
0.0
  0
LINE
  5
D4
330
8F
100
AcDbEntity
  8
0
  6
Continuous
 62
     0
370
     0
100
AcDbLine
 10
140.228
 20
38.46
 30
0.0
 11
140.228
 21
46.966
 31
0.0
  0
LINE
  5
D5
330
8F
100
AcDbEntity
  8
0
  6
Continuous
 62
     0
370
     0
100
AcDbLine
 10
122.197
 20
28.05
 30
0.0
 11
122.197
 21
36.556
 31
0.0
  0
LINE
  5
D6
330
8F
100
AcDbEntity
  8
0
  6
Continuous
 62
     0
370
     0
100
AcDbLine
 10
106.764
 20
35.334
 30
0.0
 11
104.811
 21
36.264
 31
0.0
  0
ELLIPSE
  5
D7
330
8F
100
AcDbEntity
  8
0
  6
Continuous
 62
     0
370
     0
100
AcDbEllipse
 10
141.642
 20
37.644
 30
0.0
 11
-1.000000000000001
 21
1.732050807568878
 31
0.0
210
0.0
220
0.0
230
-1.0
 40
0.577
 41
4.014257279586955
 42
5.497787143782138
  0
ELLIPSE
  5
D8
330
8F
100
AcDbEntity
  8
0
  6
Continuous
 62
     0
370
     0
100
AcDbEllipse
 10
123.611
 20
27.234
 30
0.0
 11
1.000000000000001
 21
-1.732050807568878
 31
0.0
210
0.0
220
0.0
230
1.0
 40
0.577
 41
3.926990816987241
 42
5.410520681182424
  0
ELLIPSE
  5
D9
330
8F
100
AcDbEntity
  8
0
  6
Continuous
 62
     0
370
     0
100
AcDbEllipse
 10
106.641
 20
37.032
 30
0.0
 11
-0.9999999999999992
 21
1.732050807568875
 31
0.0
210
0.0
220
0.0
230
-1.0
 40
0.577
 41
3.141592622099949
 42
3.839724354387528
  0
LINE
  5
DA
330
8F
100
AcDbEntity
  8
0
  6
Continuous
 62
     0
370
     0
100
AcDbLine
 10
127.5
 20
49.104
 30
0.0
 11
127.5
 21
45.945
 31
0.0
  0
SPLINE
  5
DB
330
8F
100
AcDbEntity
  8
0
  6
Continuous
 62
     0
370
     0
100
AcDbSpline
210
0.0
220
0.0
230
1.0
 70
     8
 71
     3
 72
    11
 73
     7
 74
     0
 42
0.0
 43
0.0
 40
0.0
 40
0.0
 40
0.0
 40
0.0
 40
0.3922503378882819
 40
0.7845006757765637
 40
1.187286468281081
 40
1.590072260785599
 40
1.590072260785599
 40
1.590072260785599
 40
1.590072260785599
 10
126.6530377645822
 20
50.25295816161679
 30
0.0
 10
126.7486788665776
 20
50.19773974563415
 30
0.0
 10
126.946345716592
 20
50.04564393795023
 30
0.0
 10
127.2147151223672
 20
49.7372122342217
 30
0.0
 10
127.4113096906366
 20
49.40470412564814
 30
0.0
 10
127.4818057321583
 20
49.19762932979683
 30
0.0
 10
127.500231738268
 20
49.10447828761382
 30
0.0
  0
LINE
  5
DC
330
8F
100
AcDbEntity
  8
0
  6
Continuous
 62
     0
370
     0
100
AcDbLine
 10
125.38
 20
50.988
 30
0.0
 11
126.653
 21
50.253
 31
0.0
  0
ELLIPSE
  5
DD
330
8F
100
AcDbEntity
  8
0
  6
Continuous
 62
     0
370
     0
100
AcDbEllipse
 10
130.859
 20
48.293
 30
0.0
 11
2.375
 21
4.113620667976084
 31
0.0
210
0.0
220
0.0
230
0.9999999999999999
 40
0.577
 41
3.14159262550191
 42
5.497787143782138
  0
ELLIPSE
  5
DE
330
8F
100
AcDbEntity
  8
0
  6
Continuous
 62
     0
370
     0
100
AcDbEllipse
 10
131.213
 20
48.089
 30
0.0
 11
2.625
 21
4.546633369868303
 31
0.0
210
0.0
220
0.0
230
0.9999999999999997
 40
0.577
 41
2.356194490192345
 42
5.497787143782138
  0
LINE
  5
DF
330
8F
100
AcDbEntity
  8
0
  6
Continuous
 62
     0
370
     0
100
AcDbLine
 10
134.218
 20
50.232
 30
0.0
 11
134.218
 21
53.391
 31
0.0
  0
LINE
  5
E0
330
8F
100
AcDbEntity
  8
0
  6
Continuous
 62
     0
370
     0
100
AcDbLine
 10
134.925
 20
50.232
 30
0.0
 11
134.925
 21
53.391
 31
0.0
  0
SPLINE
  5
E1
330
8F
100
AcDbEntity
  8
0
  6
Continuous
 62
     0
370
     0
100
AcDbSpline
210
0.0
220
0.0
230
1.0
 70
     8
 71
     3
 72
    11
 73
     7
 74
     0
 42
0.0
 43
0.0
 40
0.0
 40
0.0
 40
0.0
 40
0.0
 40
0.3922503378882468
 40
0.7845006757764936
 40
1.187286468281045
 40
1.590072260785596
 40
1.590072260785596
 40
1.590072260785596
 40
1.590072260785596
 10
134.3578333520394
 20
54.70132396808621
 30
0.0
 10
134.4534744540348
 20
54.64610555210363
 30
0.0
 10
134.6369388119711
 20
54.48580993179523
 30
0.0
 10
134.8411062991376
 20
54.14031123307558
 30
0.0
 10
134.9453883847036
 20
53.75450648776356
 30
0.0
 10
134.9432789468364
 20
53.50551289884251
 30
0.0
 10
134.9248529407267
 20
53.39108533748437
 30
0.0
  0
SPLINE
  5
E2
330
8F
100
AcDbEntity
  8
0
  6
Continuous
 62
     0
370
     0
100
AcDbSpline
210
0.0
220
0.0
230
1.0
 70
     8
 71
     3
 72
    11
 73
     7
 74
     0
 42
0.0
 43
0.0
 40
0.0
 40
0.0
 40
0.0
 40
0.0
 40
0.1888290919784503
 40
0.4057708306865128
 40
0.6859340502641237
 40
0.8224402630016006
 40
0.8224402630016006
 40
0.8224402630016006
 40
0.8224402630016006
 10
133.8641927689469
 20
54.04148611937875
 30
0.0
 10
133.9084027907384
 20
54.01596145139658
 30
0.0
 10
134.0044601849626
 20
53.93732971945573
 30
0.0
 10
134.1376134269089
 20
53.74694163450145
 30
0.0
 10
134.2066568782543
 20
53.54812586719493
 30
0.0
 10
134.2177461595402
 20
53.42816452589817
 30
0.0
 10
134.2177461595402
 20
53.39108533748437
 30
0.0
  0
LINE
  5
E3
330
8F
100
AcDbEntity
  8
0
  6
Continuous
 62
     0
370
     0
100
AcDbLine
 10
133.085
 20
55.436
 30
0.0
 11
134.358
 21
54.701
 31
0.0
  0
LINE
  5
E4
330
8F
100
AcDbEntity
  8
0
  6
Continuous
 62
     0
370
     0
100
AcDbLine
 10
132.591
 20
54.776
 30
0.0
 11
133.864
 21
54.041
 31
0.0
  0
ELLIPSE
  5
E5
330
8F
100
AcDbEntity
  8
0
  6
Continuous
 62
     0
370
     0
100
AcDbEllipse
 10
131.213
 20
41.761
 30
0.0
 11
6.375000000000003
 21
11.04182389825159
 31
0.0
210
0.0
220
0.0
230
1.0
 40
0.577
 41
1.209787871990635
 42
2.356194490192345
  0
ELLIPSE
  5
E6
330
8F
100
AcDbEntity
  8
0
  6
Continuous
 62
     0
370
     0
100
AcDbEllipse
 10
130.505
 20
42.169
 30
0.0
 11
6.875000000000002
 21
11.90784930203603
 31
0.0
210
0.0
220
0.0
230
0.9999999999999997
 40
0.577
 41
1.192801371860471
 42
2.356194490192345
  0
LINE
  5
E7
330
8F
100
AcDbEntity
  8
0
  6
Continuous
 62
     0
370
     0
100
AcDbLine
 10
134.218
 20
50.232
 30
0.0
 11
132.591
 21
51.171
 31
0.0
  0
ELLIPSE
  5
E8
330
8F
100
AcDbEntity
  8
0
  6
Continuous
 62
     0
370
     0
100
AcDbEllipse
 10
127.147
 20
46.15
 30
0.0
 11
0.5
 21
0.0
 31
0.0
210
0.0
220
0.0
230
-1.0
 40
0.577
 41
0.0000000086396988
 42
0.7853981633974484
  0
ELLIPSE
  5
E9
330
8F
100
AcDbEntity
  8
0
  6
Continuous
 62
     0
370
     0
100
AcDbEllipse
 10
134.571
 20
50.436
 30
0.0
 11
0.5
 21
0.0
 31
0.0
210
0.0
220
0.0
230
-1.0
 40
0.577
 41
0.7853981633974484
 42
2.356194490192345
  0
ELLIPSE
  5
EA
330
8F
100
AcDbEntity
  8
0
  6
Continuous
 62
     0
370
     0
100
AcDbEllipse
 10
131.213
 20
41.761
 30
0.0
 11
-6.375000000000003
 21
-11.04182389825159
 31
0.0
210
0.0
220
0.0
230
-1.0
 40
0.577
 41
2.780584198785532
 42
3.926990816987241
  0
ELLIPSE
  5
EB
330
8F
100
AcDbEntity
  8
0
  6
Continuous
 62
     0
370
     0
100
AcDbEllipse
 10
130.505
 20
42.169
 30
0.0
 11
-6.875000000000003
 21
-11.90784930203603
 31
0.0
210
0.0
220
0.0
230
-1.0
 40
0.577
 41
2.763597698655365
 42
3.141592676439946
  0
LINE
  5
EC
330
8F
100
AcDbEntity
  8
0
  6
Continuous
 62
     0
370
    30
100
AcDbLine
 10
132.591
 20
51.171
 30
0.0
 11
132.591
 21
54.776
 31
0.0
  0
ELLIPSE
  5
ED
330
8F
100
AcDbEntity
  8
0
  6
Continuous
 62
     0
370
    30
100
AcDbEllipse
 10
125.52
 20
50.694
 30
0.0
 11
-0.2500000000000007
 21
-0.4330127018922204
 31
0.0
210
0.0
220
0.0
230
-0.9999999999999997
 40
0.577
 41
1.948791281729357
 42
3.141592676439969
  0
ELLIPSE
  5
EE
330
8F
100
AcDbEntity
  8
0
  6
Continuous
 62
     0
370
    30
100
AcDbEllipse
 10
132.945
 20
54.98
 30
0.0
 11
0.2500000000000005
 21
0.4330127018922201
 31
0.0
210
0.0
220
0.0
230
0.9999999999999998
 40
0.577
 41
0.3779949549344082
 42
2.356194490192345
  0
ELLIPSE
  5
EF
330
8F
100
AcDbEntity
  8
0
  6
Continuous
 62
     0
370
     0
100
AcDbEllipse
 10
127.147
 20
49.309
 30
0.0
 11
0.5
 21
0.0
 31
0.0
210
0.0
220
0.0
230
-1.0
 40
0.577
 41
6.283179581675061
 42
7.068583470577035
  0
ELLIPSE
  5
F0
330
8F
100
AcDbEntity
  8
0
  6
Continuous
 62
     0
370
     0
100
AcDbEllipse
 10
126.793
 20
49.959
 30
0.0
 11
0.2500000000000007
 21
0.4330127018922204
 31
0.0
210
0.0
220
0.0
230
0.9999999999999997
 40
0.577
 41
6.283185284329329
 42
7.475986679040075
  0
ELLIPSE
  5
F1
330
8F
100
AcDbEntity
  8
0
  6
Continuous
 62
     0
370
     0
100
AcDbEllipse
 10
134.571
 20
53.595
 30
0.0
 11
0.5
 21
0.0
 31
0.0
210
0.0
220
0.0
230
-1.0
 40
0.577
 41
0.7853981633974484
 42
2.356194490192345
  0
ELLIPSE
  5
F2
330
8F
100
AcDbEntity
  8
0
  6
Continuous
 62
     0
370
     0
100
AcDbEllipse
 10
134.218
 20
54.246
 30
0.0
 11
-0.2500000000000005
 21
-0.4330127018922201
 31
0.0
210
0.0
220
0.0
230
-0.9999999999999998
 40
0.577
 41
0.7853981633974484
 42
2.763597698655385
  0
ELLIPSE
  5
F3
330
8F
100
AcDbEntity
  8
0
  6
Continuous
 62
     0
370
    30
100
AcDbEllipse
 10
129.233
 20
42.904
 30
0.0
 11
6.875000000000002
 21
11.90784930203603
 31
0.0
210
0.0
220
0.0
230
0.9999999999999997
 40
0.577
 41
0.7853981633974483
 42
1.192801371860469
  0
ELLIPSE
  5
F4
330
8F
100
AcDbEntity
  8
0
  6
Continuous
 62
     0
370
    30
100
AcDbEllipse
 10
129.233
 20
42.904
 30
0.0
 11
-6.875000000000003
 21
-11.90784930203603
 31
0.0
210
0.0
220
0.0
230
-1.0
 40
0.577
 41
2.356194490192345
 42
2.763597698655365
  0
SPLINE
  5
F5
330
8F
100
AcDbEntity
  8
0
  6
Continuous
 62
     0
370
    30
100
AcDbSpline
210
0.0
220
0.0
230
1.0
 70
     8
 71
     3
 72
    11
 73
     7
 74
     0
 42
0.0
 43
0.0
 40
0.0
 40
0.0
 40
0.0
 40
0.0
 40
0.7181624427210713
 40
1.541064081525891
 40
2.681299361021815
 40
3.802846464063941
 40
3.802846464063941
 40
3.802846464063941
 40
3.802846464063941
 10
127.6466783476747
 20
46.14961795203644
 30
0.0
 10
127.64667834778
 20
45.96164215597334
 30
0.0
 10
127.6723794873767
 20
45.57650426799403
 30
0.0
 10
127.8074533912945
 20
44.99727685421277
 30
0.0
 10
128.0758632630826
 20
44.492334264612
 30
0.0
 10
128.3382433310067
 20
44.26344709350856
 30
0.0
 10
128.4839888915671
 20
44.17930084459317
 30
0.0
  0
SPLINE
  5
F6
330
8F
100
AcDbEntity
  8
0
  6
Continuous
 62
     0
370
    30
100
AcDbSpline
210
0.0
220
0.0
230
1.0
 70
     8
 71
     3
 72
    11
 73
     7
 74
     0
 42
0.0
 43
0.0
 40
0.0
 40
0.0
 40
0.0
 40
0.0
 40
0.285611524517366
 40
0.6852991320806312
 40
1.140508360566634
 40
1.323804129154886
 40
1.323804129154886
 40
1.323804129154886
 40
1.323804129154886
 10
127.043124962794
 20
50.39201591333416
 30
0.0
 10
127.1213810296389
 20
50.3468347513256
 30
0.0
 10
127.2957945129337
 20
50.20975755752019
 30
0.0
 10
127.5208240419898
 20
49.89643598547543
 30
0.0
 10
127.6307021061364
 20
49.56680839749941
 30
0.0
 10
127.6466783478119
 20
49.3657703759569
 30
0.0
 10
127.6466783476747
 20
49.30860243029576
 30
0.0
  0
LINE
  5
F7
330
8F
100
AcDbEntity
  8
0
  6
Continuous
 62
     0
370
    30
100
AcDbLine
 10
127.647
 20
49.309
 30
0.0
 11
127.647
 21
46.15
 31
0.0
  0
SPLINE
  5
F8
330
8F
100
AcDbEntity
  8
0
  6
Continuous
 62
     0
370
    30
100
AcDbSpline
210
0.0
220
0.0
230
1.0
 70
     8
 71
     3
 72
    12
 73
     8
 74
     0
 42
0.0
 43
0.0
 40
0.0
 40
0.0
 40
0.0
 40
0.0
 40
0.8711206392933102
 40
2.296728638537797
 40
5.272058291267158
 40
8.553721179289374
 40
10.72999401121364
 40
10.72999401121364
 40
10.72999401121364
 40
10.72999401121364
 10
137.3804357154057
 20
54.07704633384513
 30
0.0
 10
137.5458372079495
 20
53.98155172998064
 30
0.0
 10
137.9683065830972
 20
53.70586677386748
 30
0.0
 10
138.8451490731061
 20
52.93563857576099
 30
0.0
 10
139.8283330092946
 20
51.4695999616425
 30
0.0
 10
140.4143449316699
 20
49.45457507789725
 30
0.0
 10
140.5210469415606
 20
47.98120461521967
 30
0.0
 10
140.5210470184352
 20
47.37436447539631
 30
0.0
  0
LINE
  5
F9
330
8F
100
AcDbEntity
  8
0
  6
Continuous
 62
     0
370
    30
100
AcDbLine
 10
125.77
 20
51.127
 30
0.0
 11
127.043
 21
50.392
 31
0.0
  0
LINE
  5
FA
330
8F
100
AcDbEntity
  8
0
  6
Continuous
 62
     0
370
    30
100
AcDbLine
 10
137.38
 20
54.077
 30
0.0
 11
131.724
 21
57.343
 31
0.0
  0
ARC
  5
FB
330
8F
100
AcDbEntity
  8
0
  6
Continuous
 62
     0
370
    30
100
AcDbCircle
 10
107.392
 20
35.735
 30
0.0
 40
0.5012372848982378
100
AcDbArc
 50
299.768
 51
317.607
  0
ARC
  5
FC
330
8F
100
AcDbEntity
  8
0
  6
Continuous
 62
     0
370
    30
100
AcDbCircle
 10
142.516
 20
38.211
 30
0.0
 40
1.994951257046588
100
AcDbArc
 50
180.006
 51
235.842
  0
LINE
  5
FD
330
8F
100
AcDbEntity
  8
0
  6
Continuous
 62
     0
370
    30
100
AcDbLine
 10
140.521
 20
38.211
 30
0.0
 11
140.521
 21
47.374
 31
0.0
  0
LINE
  5
FE
330
8F
100
AcDbEntity
  8
0
  6
Continuous
 62
     0
370
    30
100
AcDbLine
 10
141.396
 20
36.561
 30
0.0
 11
143.972
 21
34.813
 31
0.0
  0
LINE
  5
FF
330
8F
100
AcDbEntity
  8
0
  6
Continuous
 62
     0
370
    30
100
AcDbLine
 10
107.762
 20
44.313
 30
0.0
 11
107.762
 21
35.149
 31
0.0
  0
SPLINE
  5
100
330
8F
100
AcDbEntity
  8
0
  6
Continuous
 62
     0
370
    30
100
AcDbSpline
210
0.0
220
0.0
230
1.0
 70
     8
 71
     3
 72
    14
 73
    10
 74
     0
 42
0.0
 43
0.0
 40
0.0
 40
0.0
 40
0.0
 40
0.0
 40
1.19699847001807
 40
2.677742751577048
 40
4.347103567054473
 40
6.041592510743738
 40
8.747593363378755
 40
12.62465863939028
 40
15.2211416112202
 40
15.2211416112202
 40
15.2211416112202
 40
15.2211416112202
 10
100.1384262004269
 20
39.97585661012175
 30
0.0
 10
100.1384262038674
 20
40.22365851368865
 30
0.0
 10
100.1839864496085
 20
40.77942858324101
 30
0.0
 10
100.4192955651325
 20
41.6677462361468
 30
0.0
 10
100.8789120019669
 20
42.61912936045317
 30
0.0
 10
101.6948678595485
 20
43.74254638826999
 30
0.0
 10
103.1980769533808
 20
45.13750094778017
 30
0.0
 10
105.4298423214735
 20
46.426101705128
 30
0.0
 10
107.2991562420634
 20
47.1167747164229
 30
0.0
 10
108.0832534361187
 20
47.35457650275681
 30
0.0
  0
SPLINE
  5
101
330
8F
100
AcDbEntity
  8
0
  6
Continuous
 62
     0
370
    30
100
AcDbSpline
210
0.0
220
0.0
230
1.0
 70
     8
 71
     3
 72
    15
 73
    11
 74
     0
 42
0.0
 43
0.0
 40
0.0
 40
0.0
 40
0.0
 40
0.0
 40
1.446094803294956
 40
3.832744871539505
 40
7.250632467931593
 40
10.43847962688063
 40
13.64080814018194
 40
16.82362046003037
 40
19.32010305147459
 40
21.0037815283509
 40
21.0037815283509
 40
21.0037815283509
 40
21.0037815283509
 10
117.277513481208
 20
60.79402315237995
 30
0.0
 10
116.9281017682135
 20
60.59229020517407
 30
0.0
 10
116.0056085346544
 20
60.00222938535161
 30
0.0
 10
114.3035378239986
 20
58.62774814881308
 30
0.0
 10
112.3398922762249
 20
56.49847487315385
 30
0.0
 10
110.5020424405475
 20
53.78646825290527
 30
0.0
 10
109.0905756068038
 20
50.91479711542017
 30
0.0
 10
108.2070814206503
 20
48.18542778016861
 30
0.0
 10
107.8250935429351
 20
45.97967657536904
 30
0.0
 10
107.7619020277311
 20
44.78217795613948
 30
0.0
 10
107.7619020368246
 20
44.31250039534706
 30
0.0
  0
SPLINE
  5
102
330
8F
100
AcDbEntity
  8
0
  6
Continuous
 62
     0
370
    30
100
AcDbSpline
210
0.0
220
0.0
230
1.0
 70
     8
 71
     3
 72
    11
 73
     7
 74
     0
 42
0.0
 43
0.0
 40
0.0
 40
0.0
 40
0.0
 40
0.0
 40
2.145092072553737
 40
4.962871182494023
 40
8.476051310904081
 40
10.72997661945761
 40
10.72997661945761
 40
10.72997661945761
 40
10.72997661945761
 10
124.6525136540478
 20
61.42551556219466
 30
0.0
 10
124.2456635716939
 20
61.66041058550472
 30
0.0
 10
123.228772781318
 20
62.07743130528078
 30
0.0
 10
121.2997354982945
 20
62.25686215704475
 30
0.0
 10
119.2267122555504
 20
61.78463905328063
 30
0.0
 10
117.8217684607623
 20
61.1082487446244
 30
0.0
 10
117.2775160872388
 20
60.79402465695698
 30
0.0
  0
SPLINE
  5
103
330
8F
100
AcDbEntity
  8
0
  6
Continuous
 62
     0
370
    30
100
AcDbSpline
210
0.0
220
0.0
230
1.0
 70
     8
 71
     3
 72
    12
 73
     8
 74
     0
 42
0.0
 43
0.0
 40
0.0
 40
0.0
 40
0.0
 40
0.0
 40
0.9301050636444728
 40
2.385956351476213
 40
5.444227133109146
 40
8.489521406216218
 40
10.75648713218553
 40
10.75648713218553
 40
10.75648713218553
 40
10.75648713218553
 10
148.1445228548369
 20
28.13665604953182
 30
0.0
 10
148.1445228574842
 20
28.35180446071874
 30
0.0
 10
148.114927032136
 20
28.90471771258045
 30
0.0
 10
147.8759317449531
 20
30.15947382601411
 30
0.0
 10
147.1091439904267
 20
31.8399065029022
 30
0.0
 10
145.6875751818824
 20
33.51535020740299
 30
0.0
 10
144.5138833419584
 20
34.44547414157374
 30
0.0
 10
143.9715238413934
 20
34.81339646090655
 30
0.0
  0
LINE
  5
104
330
8F
100
AcDbEntity
  8
0
  6
Continuous
 62
     0
370
    30
100
AcDbLine
 10
148.145
 20
18.491
 30
0.0
 11
148.145
 21
28.137
 31
0.0
  0
LINE
  5
105
330
8F
100
AcDbEntity
  8
0
  6
Continuous
 62
     0
370
    30
100
AcDbLine
 10
130.309
 20
58.16
 30
0.0
 11
124.653
 21
61.426
 31
0.0
  0
LINE
  5
106
330
8F
100
AcDbEntity
  8
0
  6
Continuous
 62
     0
370
    30
100
AcDbLine
 10
100.138
 20
30.33
 30
0.0
 11
100.138
 21
39.976
 31
0.0
  0
ENDBLK
  5
108
330
8F
100
AcDbEntity
  8
0
100
AcDbBlockEnd
  0
BLOCK
  5
16A
330
10A
100
AcDbEntity
  8
0
100
AcDbBlockBegin
  2
b
 70
     0
 10
-42.908
 20
15.905
 30
0.0
  3
b
  1

  0
LINE
  5
10B
330
10A
100
AcDbEntity
  8
0
  6
Continuous
 62
     0
370
    30
100
AcDbLine
 10
63.664
 20
76.493
 30
0.0
 11
77.414
 21
76.493
 31
0.0
  0
LINE
  5
10C
330
10A
100
AcDbEntity
  8
0
  6
Continuous
 62
     0
370
    30
100
AcDbLine
 10
20.914
 20
76.493
 30
0.0
 11
34.664
 21
76.493
 31
0.0
  0
LINE
  5
10D
330
10A
100
AcDbEntity
  8
0
  6
Continuous
 62
     0
370
    30
100
AcDbLine
 10
63.664
 20
76.493
 30
0.0
 11
34.664
 21
76.493
 31
0.0
  0
ARC
  5
10E
330
10A
100
AcDbEntity
  8
0
  6
Continuous
 62
     0
370
    30
100
AcDbCircle
 10
49.164
 20
96.493
 30
0.0
 40
6.0
100
AcDbArc
 50
326.443
 51
33.557
  0
ARC
  5
10F
330
10A
100
AcDbEntity
  8
0
  6
Continuous
 62
     0
370
    30
100
AcDbCircle
 10
49.164
 20
96.493
 30
0.0
 40
6.0
100
AcDbArc
 50
236.443
 51
303.557
  0
LINE
  5
110
330
10A
100
AcDbEntity
  8
0
  6
Continuous
 62
     0
370
    30
100
AcDbLine
 10
44.164
 20
101.493
 30
0.0
 11
45.848
 21
101.493
 31
0.0
  0
LINE
  5
111
330
10A
100
AcDbEntity
  8
0
  6
Continuous
 62
     0
370
    30
100
AcDbLine
 10
52.481
 20
101.493
 30
0.0
 11
54.164
 21
101.493
 31
0.0
  0
LINE
  5
112
330
10A
100
AcDbEntity
  8
0
  6
Continuous
 62
     0
370
    30
100
AcDbLine
 10
54.164
 20
101.493
 30
0.0
 11
54.164
 21
99.809
 31
0.0
  0
LINE
  5
113
330
10A
100
AcDbEntity
  8
0
  6
Continuous
 62
     0
370
    30
100
AcDbLine
 10
54.164
 20
93.176
 30
0.0
 11
54.164
 21
91.493
 31
0.0
  0
LINE
  5
114
330
10A
100
AcDbEntity
  8
0
  6
Continuous
 62
     0
370
    30
100
AcDbLine
 10
54.164
 20
91.493
 30
0.0
 11
52.481
 21
91.493
 31
0.0
  0
LINE
  5
115
330
10A
100
AcDbEntity
  8
0
  6
Continuous
 62
     0
370
    30
100
AcDbLine
 10
45.848
 20
91.493
 30
0.0
 11
44.164
 21
91.493
 31
0.0
  0
LINE
  5
116
330
10A
100
AcDbEntity
  8
0
  6
Continuous
 62
     0
370
    30
100
AcDbLine
 10
44.164
 20
101.493
 30
0.0
 11
44.164
 21
99.809
 31
0.0
  0
LINE
  5
117
330
10A
100
AcDbEntity
  8
0
  6
Continuous
 62
     0
370
    30
100
AcDbLine
 10
44.164
 20
93.176
 30
0.0
 11
44.164
 21
91.493
 31
0.0
  0
ARC
  5
118
330
10A
100
AcDbEntity
  8
0
  6
Continuous
 62
     0
370
    30
100
AcDbCircle
 10
49.164
 20
96.493
 30
0.0
 40
6.0
100
AcDbArc
 50
146.443
 51
213.557
  0
ARC
  5
119
330
10A
100
AcDbEntity
  8
0
  6
Continuous
 62
     0
370
    30
100
AcDbCircle
 10
49.164
 20
96.493
 30
0.0
 40
6.0
100
AcDbArc
 50
99.594
 51
123.557
  0
ARC
  5
11A
330
10A
100
AcDbEntity
  8
0
  6
Continuous
 62
     0
370
    30
100
AcDbCircle
 10
49.164
 20
96.493
 30
0.0
 40
6.0
100
AcDbArc
 50
56.443
 51
80.406
  0
LINE
  5
11B
330
10A
100
AcDbEntity
  8
0
  6
Continuous
 62
     0
370
    30
100
AcDbLine
 10
50.164
 20
116.493
 30
0.0
 11
50.164
 21
102.743
 31
0.0
  0
LINE
  5
11C
330
10A
100
AcDbEntity
  8
0
  6
Continuous
 62
     0
370
    30
100
AcDbLine
 10
48.164
 20
102.743
 30
0.0
 11
48.164
 21
116.493
 31
0.0
  0
LINE
  5
11D
330
10A
100
AcDbEntity
  8
0
  6
Continuous
 62
     0
370
    30
100
AcDbLine
 10
50.164
 20
102.743
 30
0.0
 11
50.164
 21
102.409
 31
0.0
  0
LINE
  5
11E
330
10A
100
AcDbEntity
  8
0
  6
Continuous
 62
     0
370
    30
100
AcDbLine
 10
48.164
 20
102.743
 30
0.0
 11
48.164
 21
102.409
 31
0.0
  0
LINE
  5
120
330
10A
100
AcDbEntity
  8
0
  6
HIDDEN2
 62
     0
370
    30
100
AcDbLine
 10
64.164
 20
83.493
 30
0.0
 11
74.164
 21
83.493
 31
0.0
  0
LINE
  5
121
330
10A
100
AcDbEntity
  8
0
  6
HIDDEN2
 62
     0
370
    30
100
AcDbLine
 10
64.164
 20
90.055
 30
0.0
 11
64.164
 21
83.493
 31
0.0
  0
LINE
  5
122
330
10A
100
AcDbEntity
  8
0
  6
HIDDEN2
 62
     0
370
    30
100
AcDbLine
 10
24.164
 20
83.493
 30
0.0
 11
34.164
 21
83.493
 31
0.0
  0
LINE
  5
123
330
10A
100
AcDbEntity
  8
0
  6
HIDDEN2
 62
     0
370
    30
100
AcDbLine
 10
24.164
 20
89.18
 30
0.0
 11
24.164
 21
83.493
 31
0.0
  0
LINE
  5
124
330
10A
100
AcDbEntity
  8
0
  6
HIDDEN2
 62
     0
370
    30
100
AcDbLine
 10
56.364
 20
110.493
 30
0.0
 11
56.364
 21
105.743
 31
0.0
  0
LINE
  5
125
330
10A
100
AcDbEntity
  8
0
  6
Continuous
 62
     0
370
    30
100
AcDbLine
 10
56.364
 20
116.493
 30
0.0
 11
50.164
 21
116.493
 31
0.0
  0
LINE
  5
126
330
10A
100
AcDbEntity
  8
0
  6
HIDDEN2
 62
     0
370
    30
100
AcDbLine
 10
50.164
 20
107.743
 30
0.0
 11
56.364
 21
107.743
 31
0.0
  0
LINE
  5
127
330
10A
100
AcDbEntity
  8
0
  6
HIDDEN2
 62
     0
370
    30
100
AcDbLine
 10
44.164
 20
106.243
 30
0.0
 11
44.164
 21
110.493
 31
0.0
  0
LINE
  5
128
330
10A
100
AcDbEntity
  8
0
  6
HIDDEN2
 62
     0
370
    30
100
AcDbLine
 10
44.164
 20
110.493
 30
0.0
 11
44.164
 21
114.743
 31
0.0
  0
LINE
  5
129
330
10A
100
AcDbEntity
  8
0
  6
HIDDEN2
 62
     0
370
    30
100
AcDbLine
 10
39.164
 20
106.243
 30
0.0
 11
44.164
 21
106.243
 31
0.0
  0
LINE
  5
12A
330
10A
100
AcDbEntity
  8
0
  6
HIDDEN2
 62
     0
370
    30
100
AcDbLine
 10
39.164
 20
110.493
 30
0.0
 11
44.164
 21
110.493
 31
0.0
  0
LINE
  5
12B
330
10A
100
AcDbEntity
  8
0
  6
HIDDEN2
 62
     0
370
    30
100
AcDbLine
 10
39.164
 20
114.743
 30
0.0
 11
44.164
 21
114.743
 31
0.0
  0
LINE
  5
12C
330
10A
100
AcDbEntity
  8
0
  6
HIDDEN2
 62
     0
370
    30
100
AcDbLine
 10
44.164
 20
107.743
 30
0.0
 11
48.164
 21
107.743
 31
0.0
  0
LINE
  5
12D
330
10A
100
AcDbEntity
  8
0
  6
Continuous
 62
     0
370
     0
100
AcDbLine
 10
63.664
 20
89.095
 30
0.0
 11
77.414
 21
87.98
 31
0.0
  0
LINE
  5
12E
330
10A
100
AcDbEntity
  8
0
  6
Continuous
 62
     0
370
    30
100
AcDbLine
 10
63.752
 20
90.091
 30
0.0
 11
76.502
 21
88.976
 31
0.0
  0
LINE
  5
12F
330
10A
100
AcDbEntity
  8
0
  6
Continuous
 62
     0
370
     0
100
AcDbLine
 10
58.164
 20
89.576
 30
0.0
 11
63.664
 21
89.095
 31
0.0
  0
LINE
  5
130
330
10A
100
AcDbEntity
  8
0
  6
Continuous
 62
     0
370
     0
100
AcDbLine
 10
58.164
 20
89.576
 30
0.0
 11
58.164
 21
102.743
 31
0.0
  0
LINE
  5
131
330
10A
100
AcDbEntity
  8
0
  6
Continuous
 62
     0
370
     0
100
AcDbLine
 10
40.164
 20
116.493
 30
0.0
 11
40.164
 21
102.743
 31
0.0
  0
LINE
  5
132
330
10A
100
AcDbEntity
  8
0
  6
Continuous
 62
     0
370
    30
100
AcDbLine
 10
39.164
 20
115.493
 30
0.0
 11
39.164
 21
102.743
 31
0.0
  0
LINE
  5
133
330
10A
100
AcDbEntity
  8
0
  6
Continuous
 62
     0
370
     0
100
AcDbLine
 10
40.164
 20
102.743
 30
0.0
 11
40.164
 21
89.576
 31
0.0
  0
LINE
  5
134
330
10A
100
AcDbEntity
  8
0
  6
Continuous
 62
     0
370
     0
100
AcDbLine
 10
34.664
 20
89.095
 30
0.0
 11
20.914
 21
87.98
 31
0.0
  0
LINE
  5
135
330
10A
100
AcDbEntity
  8
0
  6
Continuous
 62
     0
370
    30
100
AcDbLine
 10
34.577
 20
90.091
 30
0.0
 11
21.827
 21
88.976
 31
0.0
  0
LINE
  5
136
330
10A
100
AcDbEntity
  8
0
  6
Continuous
 62
     0
370
     0
100
AcDbLine
 10
40.164
 20
89.576
 30
0.0
 11
34.664
 21
89.095
 31
0.0
  0
LINE
  5
137
330
10A
100
AcDbEntity
  8
0
  6
Continuous
 62
     0
370
     0
100
AcDbLine
 10
63.664
 20
76.493
 30
0.0
 11
63.664
 21
89.095
 31
0.0
  0
LINE
  5
138
330
10A
100
AcDbEntity
  8
0
  6
Continuous
 62
     0
370
     0
100
AcDbLine
 10
63.664
 20
89.095
 30
0.0
 11
63.752
 21
90.091
 31
0.0
  0
LINE
  5
139
330
10A
100
AcDbEntity
  8
0
  6
Continuous
 62
     0
370
     0
100
AcDbLine
 10
58.164
 20
102.743
 30
0.0
 11
50.164
 21
102.743
 31
0.0
  0
LINE
  5
13A
330
10A
100
AcDbEntity
  8
0
  6
Continuous
 62
     0
370
     0
100
AcDbLine
 10
59.164
 20
102.743
 30
0.0
 11
58.164
 21
102.743
 31
0.0
  0
LINE
  5
13B
330
10A
100
AcDbEntity
  8
0
  6
Continuous
 62
     0
370
    30
100
AcDbLine
 10
48.164
 20
116.493
 30
0.0
 11
40.164
 21
116.493
 31
0.0
  0
ARC
  5
13C
330
10A
100
AcDbEntity
  8
0
  6
Continuous
 62
     0
370
    30
100
AcDbCircle
 10
40.164
 20
115.493
 30
0.0
 40
1.0
100
AcDbArc
 50
90.0
 51
180.0
  0
LINE
  5
13D
330
10A
100
AcDbEntity
  8
0
  6
Continuous
 62
     0
370
     0
100
AcDbLine
 10
48.164
 20
102.743
 30
0.0
 11
40.164
 21
102.743
 31
0.0
  0
LINE
  5
13E
330
10A
100
AcDbEntity
  8
0
  6
Continuous
 62
     0
370
     0
100
AcDbLine
 10
39.164
 20
102.743
 30
0.0
 11
40.164
 21
102.743
 31
0.0
  0
LINE
  5
13F
330
10A
100
AcDbEntity
  8
0
  6
Continuous
 62
     0
370
     0
100
AcDbLine
 10
34.664
 20
76.493
 30
0.0
 11
34.664
 21
89.095
 31
0.0
  0
LINE
  5
140
330
10A
100
AcDbEntity
  8
0
  6
Continuous
 62
     0
370
     0
100
AcDbLine
 10
34.664
 20
89.095
 30
0.0
 11
34.577
 21
90.091
 31
0.0
  0
LINE
  5
141
330
10A
100
AcDbEntity
  8
0
  6
Continuous
 62
     0
370
     0
100
AcDbLine
 10
58.164
 20
89.576
 30
0.0
 11
59.164
 21
92.325
 31
0.0
  0
LINE
  5
142
330
10A
100
AcDbEntity
  8
0
  6
Continuous
 62
     0
370
     0
100
AcDbLine
 10
58.164
 20
89.576
 30
0.0
 11
60.99
 21
90.333
 31
0.0
  0
LINE
  5
143
330
10A
100
AcDbEntity
  8
0
  6
Continuous
 62
     0
370
     0
100
AcDbLine
 10
40.164
 20
89.576
 30
0.0
 11
39.164
 21
92.325
 31
0.0
  0
LINE
  5
144
330
10A
100
AcDbEntity
  8
0
  6
Continuous
 62
     0
370
     0
100
AcDbLine
 10
40.164
 20
89.576
 30
0.0
 11
37.339
 21
90.333
 31
0.0
  0
LINE
  5
145
330
10A
100
AcDbEntity
  8
0
  6
Continuous
 62
     0
370
    30
100
AcDbLine
 10
60.99
 20
90.333
 30
0.0
 11
63.752
 21
90.091
 31
0.0
  0
LINE
  5
146
330
10A
100
AcDbEntity
  8
0
  6
Continuous
 62
     0
370
    30
100
AcDbLine
 10
59.164
 20
92.325
 30
0.0
 11
59.164
 21
102.743
 31
0.0
  0
LINE
  5
147
330
10A
100
AcDbEntity
  8
0
  6
Continuous
 62
     0
370
    30
100
AcDbLine
 10
39.164
 20
102.743
 30
0.0
 11
39.164
 21
92.325
 31
0.0
  0
LINE
  5
148
330
10A
100
AcDbEntity
  8
0
  6
Continuous
 62
     0
370
    30
100
AcDbLine
 10
37.339
 20
90.333
 30
0.0
 11
34.577
 21
90.091
 31
0.0
  0
ARC
  5
149
330
10A
100
AcDbEntity
  8
0
  6
Continuous
 62
     0
370
    30
100
AcDbCircle
 10
61.164
 20
92.325
 30
0.0
 40
2.000000000000001
100
AcDbArc
 50
180.0
 51
265.0
  0
ARC
  5
14A
330
10A
100
AcDbEntity
  8
0
  6
Continuous
 62
     0
370
    30
100
AcDbCircle
 10
37.164
 20
92.325
 30
0.0
 40
1.999999999999998
100
AcDbArc
 50
275.0
 51
360.0
  0
LINE
  5
14B
330
10A
100
AcDbEntity
  8
0
  6
HIDDEN2
 62
     0
370
     0
100
AcDbLine
 10
58.664
 20
114.362
 30
0.0
 11
58.664
 21
110.493
 31
0.0
  0
ARC
  5
14C
330
10A
100
AcDbEntity
  8
0
  6
Continuous
 62
     0
370
     0
100
AcDbCircle
 10
58.161
 20
114.364
 30
0.0
 40
1.003351390067059
100
AcDbArc
 50
359.868
 51
89.809
  0
SPLINE
  5
14D
330
10A
100
AcDbEntity
  8
0
  6
HIDDEN2
 62
     0
370
     0
100
AcDbSpline
210
0.0
220
0.0
230
1.0
 70
     8
 71
     3
 72
    11
 73
     7
 74
     0
 42
0.0
 43
0.0
 40
0.0
 40
0.0
 40
0.0
 40
0.0
 40
0.1888290919784754
 40
0.4057708306865476
 40
0.6859340502641222
 40
0.8224402630015989
 40
0.8224402630015989
 40
0.8224402630015989
 40
0.8224402630015989
 10
58.16440582275391
 20
114.9081394132879
 30
0.0
 10
58.22692823516418
 20
114.9081394132879
 30
0.0
 10
58.36277390484241
 20
114.8797584377038
 30
0.0
 10
58.55108102547669
 20
114.7407351673991
 30
0.0
 10
58.64872321076248
 20
114.5460576686816
 30
0.0
 10
58.66440582275391
 20
114.4069769371588
 30
0.0
 10
58.66440582275391
 20
114.3615643913137
 30
0.0
  0
LINE
  5
14E
330
10A
100
AcDbEntity
  8
0
  6
Continuous
 62
     0
370
     0
100
AcDbLine
 10
56.364
 20
115.367
 30
0.0
 11
58.164
 21
115.367
 31
0.0
  0
LINE
  5
14F
330
10A
100
AcDbEntity
  8
0
  6
HIDDEN2
 62
     0
370
     0
100
AcDbLine
 10
56.364
 20
114.908
 30
0.0
 11
58.164
 21
114.908
 31
0.0
  0
LINE
  5
150
330
10A
100
AcDbEntity
  8
0
  6
HIDDEN2
 62
     0
370
     0
100
AcDbLine
 10
58.664
 20
110.493
 30
0.0
 11
58.664
 21
105.743
 31
0.0
  0
LINE
  5
151
330
10A
100
AcDbEntity
  8
0
  6
HIDDEN2
 62
     0
370
     0
100
AcDbLine
 10
58.664
 20
110.493
 30
0.0
 11
56.364
 21
110.493
 31
0.0
  0
LINE
  5
152
330
10A
100
AcDbEntity
  8
0
  6
Continuous
 62
     0
370
    30
100
AcDbLine
 10
59.164
 20
114.362
 30
0.0
 11
59.164
 21
102.743
 31
0.0
  0
LINE
  5
153
330
10A
100
AcDbEntity
  8
0
  6
Continuous
 62
     0
370
     0
100
AcDbLine
 10
58.164
 20
115.367
 30
0.0
 11
58.164
 21
102.743
 31
0.0
  0
LINE
  5
154
330
10A
100
AcDbEntity
  8
0
  6
HIDDEN2
 62
     0
370
    30
100
AcDbLine
 10
56.364
 20
114.908
 30
0.0
 11
56.364
 21
110.493
 31
0.0
  0
LINE
  5
155
330
10A
100
AcDbEntity
  8
0
  6
HIDDEN2
 62
     0
370
     0
100
AcDbLine
 10
58.664
 20
110.493
 30
0.0
 11
59.164
 21
110.493
 31
0.0
  0
LINE
  5
156
330
10A
100
AcDbEntity
  8
0
  6
HIDDEN2
 62
     0
370
    30
100
AcDbLine
 10
56.364
 20
115.367
 30
0.0
 11
56.364
 21
114.908
 31
0.0
  0
LINE
  5
157
330
10A
100
AcDbEntity
  8
0
  6
HIDDEN2
 62
     0
370
     0
100
AcDbLine
 10
58.664
 20
114.362
 30
0.0
 11
59.164
 21
114.362
 31
0.0
  0
LINE
  5
158
330
10A
100
AcDbEntity
  8
0
  6
Continuous
 62
     0
370
     0
100
AcDbLine
 10
58.164
 20
115.408
 30
0.0
 11
58.164
 21
115.367
 31
0.0
  0
LINE
  5
159
330
10A
100
AcDbEntity
  8
0
  6
Continuous
 62
     0
370
    30
100
AcDbLine
 10
56.364
 20
116.493
 30
0.0
 11
56.364
 21
115.367
 31
0.0
  0
ARC
  5
15A
330
10A
100
AcDbEntity
  8
0
  6
HIDDEN2
 62
     0
370
    30
100
AcDbCircle
 10
58.664
 20
105.243
 30
0.0
 40
0.5
100
AcDbArc
 50
0.0
 51
90.0
  0
SPLINE
  5
15B
330
10A
100
AcDbEntity
  8
0
  6
Continuous
 62
     0
370
    30
100
AcDbSpline
210
0.0
220
0.0
230
1.0
 70
     8
 71
     3
 72
    11
 73
     7
 74
     0
 42
0.0
 43
0.0
 40
0.0
 40
0.0
 40
0.0
 40
0.0
 40
0.391748664767279
 40
0.9552549070750138
 40
1.361292266046136
 40
1.607554676566641
 40
1.607554676566641
 40
1.607554676566641
 40
1.607554676566641
 10
59.16440582275391
 20
114.3615644131694
 30
0.0
 10
59.16440582275391
 20
114.491480163421
 30
0.0
 10
59.10772401902796
 20
114.8112628448781
 30
0.0
 10
58.83391890523573
 20
115.193603571556
 30
0.0
 10
58.46415646965244
 20
115.3799540626956
 30
0.0
 10
58.24628494837339
 20
115.4081394351435
 30
0.0
 10
58.16440582275391
 20
115.4081394351435
 30
0.0
  0
LINE
  5
15C
330
10A
100
AcDbEntity
  8
0
  6
HIDDEN2
 62
     0
370
    30
100
AcDbLine
 10
58.664
 20
105.743
 30
0.0
 11
56.364
 21
105.743
 31
0.0
  0
LINE
  5
15D
330
10A
100
AcDbEntity
  8
0
  6
Continuous
 62
     0
370
    30
100
AcDbLine
 10
56.364
 20
115.408
 30
0.0
 11
58.164
 21
115.408
 31
0.0
  0
ARC
  5
15E
330
10A
100
AcDbEntity
  8
0
  6
Continuous
 62
     0
370
    30
100
AcDbCircle
 10
21.914
 20
87.98
 30
0.0
 40
1.000004664786634
100
AcDbArc
 50
95.0
 51
180.0
  0
ARC
  5
15F
330
10A
100
AcDbEntity
  8
0
  6
Continuous
 62
     0
370
    30
100
AcDbCircle
 10
76.414
 20
87.98
 30
0.0
 40
0.9999934052962489
100
AcDbArc
 50
360.0
 51
85.0
  0
LINE
  5
160
330
10A
100
AcDbEntity
  8
0
  6
Continuous
 62
     0
370
    30
100
AcDbLine
 10
77.414
 20
76.493
 30
0.0
 11
77.414
 21
87.98
 31
0.0
  0
LINE
  5
161
330
10A
100
AcDbEntity
  8
0
  6
Continuous
 62
     0
370
    30
100
AcDbLine
 10
20.914
 20
76.493
 30
0.0
 11
20.914
 21
87.98
 31
0.0
  0
LINE
  5
162
330
10A
100
AcDbEntity
  8
0
  6
HIDDEN2
 62
     0
370
    30
100
AcDbLine
 10
50.164
 20
113.243
 30
0.0
 11
56.364
 21
113.243
 31
0.0
  0
LINE
  5
163
330
10A
100
AcDbEntity
  8
0
  6
HIDDEN2
 62
     0
370
    30
100
AcDbLine
 10
44.164
 20
113.243
 30
0.0
 11
48.164
 21
113.243
 31
0.0
  0
LINE
  5
164
330
10A
100
AcDbEntity
  8
0
  6
HIDDEN2
 62
     0
370
    30
100
AcDbLine
 10
34.164
 20
90.055
 30
0.0
 11
34.164
 21
83.493
 31
0.0
  0
LINE
  5
165
330
10A
100
AcDbEntity
  8
0
  6
HIDDEN2
 62
     0
370
    30
100
AcDbLine
 10
74.164
 20
89.18
 30
0.0
 11
74.164
 21
83.493
 31
0.0
  0
LINE
  5
166
330
10A
100
AcDbEntity
  8
0
  6
HIDDEN2
 62
     0
370
    30
100
AcDbLine
 10
32.164
 20
76.493
 30
0.0
 11
32.164
 21
83.493
 31
0.0
  0
LINE
  5
167
330
10A
100
AcDbEntity
  8
0
  6
HIDDEN2
 62
     0
370
    30
100
AcDbLine
 10
26.164
 20
76.493
 30
0.0
 11
26.164
 21
83.493
 31
0.0
  0
LINE
  5
168
330
10A
100
AcDbEntity
  8
0
  6
HIDDEN2
 62
     0
370
    30
100
AcDbLine
 10
72.164
 20
76.493
 30
0.0
 11
72.164
 21
83.493
 31
0.0
  0
LINE
  5
169
330
10A
100
AcDbEntity
  8
0
  6
HIDDEN2
 62
     0
370
    30
100
AcDbLine
 10
66.164
 20
76.493
 30
0.0
 11
66.164
 21
83.493
 31
0.0
  0
ENDBLK
  5
16B
330
10A
100
AcDbEntity
  8
0
100
AcDbBlockEnd
  0
BLOCK
  5
1AF
330
16D
100
AcDbEntity
  8
0
100
AcDbBlockBegin
  2
c
 70
     0
 10
55.089
 20
-31.709
 30
0.0
  3
c
  1

  0
LINE
  5
16E
330
16D
100
AcDbEntity
  8
0
  6
Continuous
 62
     0
370
    30
100
AcDbLine
 10
108.669
 20
76.493
 30
0.0
 11
136.169
 21
76.493
 31
0.0
  0
LINE
  5
16F
330
16D
100
AcDbEntity
  8
0
  6
HIDDEN2
 62
     0
370
    30
100
AcDbLine
 10
108.669
 20
101.493
 30
0.0
 11
136.169
 21
101.493
 31
0.0
  0
LINE
  5
170
330
16D
100
AcDbEntity
  8
0
  6
HIDDEN2
 62
     0
370
    30
100
AcDbLine
 10
108.669
 20
91.493
 30
0.0
 11
136.169
 21
91.493
 31
0.0
  0
LINE
  5
171
330
16D
100
AcDbEntity
  8
0
  6
HIDDEN2
 62
     0
370
    30
100
AcDbLine
 10
108.669
 20
99.809
 30
0.0
 11
136.169
 21
99.809
 31
0.0
  0
LINE
  5
172
330
16D
100
AcDbEntity
  8
0
  6
HIDDEN2
 62
     0
370
    30
100
AcDbLine
 10
136.169
 20
93.176
 30
0.0
 11
108.669
 21
93.176
 31
0.0
  0
LINE
  5
173
330
16D
100
AcDbEntity
  8
0
  6
HIDDEN2
 62
     0
370
    30
100
AcDbLine
 10
136.169
 20
102.409
 30
0.0
 11
108.669
 21
102.409
 31
0.0
  0
SPLINE
  5
174
330
16D
100
AcDbEntity
  8
0
  6
HIDDEN2
 62
     0
370
    30
100
AcDbSpline
210
0.0
220
0.0
230
1.0
 70
    11
 71
     3
 72
    57
 73
    53
 74
     0
 42
0.0
 43
0.0
 40
0.0
 40
0.0
 40
0.0
 40
0.0
 40
0.3708862400693506
 40
1.112658720208052
 40
2.169967833214907
 40
3.119429516740558
 40
3.538790293159822
 40
3.91419998696857
 40
4.241120787718583
 40
4.515721311056755
 40
4.735027663354126
 40
4.897250171682838
 40
4.957024343911471
 40
5.003148302017392
 40
5.061348486859519
 40
5.119548698139027
 40
5.165672676881603
 40
5.225446871122793
 40
5.387669424521673
 40
5.606975821128497
 40
5.881576386841046
 40
6.20849722726801
 40
6.583906957452997
 40
7.003267766436093
 40
7.952729501959846
 40
9.010038647280071
 40
10.12269737844696
 40
11.23535609865501
 40
12.29266521166185
 40
13.24212689518751
 40
13.66148767160678
 40
14.03689736541553
 40
14.36381816616554
 40
14.63841868950371
 40
14.85772504180108
 40
15.01994755012979
 40
15.07972172235843
 40
15.12584568046435
 40
15.18404586530646
 40
15.24224607658598
 40
15.28837005532856
 40
15.34814424956975
 40
15.51036680296863
 40
15.72967319957545
 40
16.004273765288
 40
16.33119460571497
 40
16.70660433589996
 40
17.12596514488305
 40
18.07542688040679
 40
19.13273602572703
 40
19.87450851317163
 40
20.24539475689392
 40
20.24539475689392
 40
20.24539475689392
 40
20.24539475689392
 10
122.4194613734464
 20
90.05517082743272
 30
0.0
 10
122.5430901201362
 20
90.05517083283671
 30
0.0
 10
122.9139763602582
 20
90.05396738471248
 30
0.0
 10
123.6372780116793
 20
90.04454603457857
 30
0.0
 10
124.5531077354386
 20
90.0172203741172
 30
0.0
 10
125.3607980258104
 20
89.97438250919589
 30
0.0
 10
125.9405083769951
 20
89.9295797211806
 30
0.0
 10
126.3127002791366
 20
89.89365061007364
 30
0.0
 10
126.6360271900942
 20
89.85443085651653
 30
0.0
 10
126.9064844165281
 20
89.81284443916229
 30
0.0
 10
127.1209647236764
 20
89.76879039538747
 30
0.0
 10
127.2626066396536
 20
89.72952771535095
 30
0.0
 10
127.3455240936456
 20
89.69358399454302
 30
0.0
 10
127.391752958686
 20
89.66792843963628
 30
0.0
 10
127.4349190021555
 20
89.61772771370838
 30
0.0
 10
127.3917529099898
 20
89.56752701762858
 30
0.0
 10
127.3455240274798
 20
89.54187145585612
 30
0.0
 10
127.262606541646
 20
89.50592773021202
 30
0.0
 10
127.120964593132
 20
89.46666503621981
 30
0.0
 10
126.9064842438638
 20
89.42261097419794
 30
0.0
 10
126.6360269801096
 20
89.3810245306133
 30
0.0
 10
126.3127000270475
 20
89.34180475834226
 30
0.0
 10
125.9405081176797
 20
89.30587557033218
 30
0.0
 10
125.3607975711837
 20
89.26107300246602
 30
0.0
 10
124.5531087102176
 20
89.21823257071189
 30
0.0
 10
123.5136907436094
 20
89.18723124238198
 30
0.0
 10
122.4194609783849
 20
89.17672209208213
 30
0.0
 10
121.3252312230064
 20
89.1872311465066
 30
0.0
 10
120.2858132854525
 20
89.21823238372079
 30
0.0
 10
119.4781244597176
 20
89.26107274475653
 30
0.0
 10
118.8984139497686
 20
89.30587526219706
 30
0.0
 10
118.5262220735672
 20
89.34180441751235
 30
0.0
 10
118.2028951569471
 20
89.38102416141905
 30
0.0
 10
117.9324379316849
 20
89.42261058077037
 30
0.0
 10
117.7179576243107
 20
89.46666462416027
 30
0.0
 10
117.5763157083706
 20
89.50592730425977
 30
0.0
 10
117.4933982543756
 20
89.54187102506268
 30
0.0
 10
117.4471693893356
 20
89.56752657997012
 30
0.0
 10
117.4040033458659
 20
89.61772730589769
 30
0.0
 10
117.4471694380316
 20
89.66792800197781
 30
0.0
 10
117.493398320542
 20
89.69358356374954
 30
0.0
 10
117.5763158063729
 20
89.72952728939875
 30
0.0
 10
117.7179577549237
 20
89.76878998332793
 30
0.0
 10
117.9324381039661
 20
89.81284404573479
 30
0.0
 10
118.2028953688921
 20
89.85443048732223
 30
0.0
 10
118.5262223162918
 20
89.89365026924375
 30
0.0
 10
118.8984142515994
 20
89.9295794130455
 30
0.0
 10
119.4781246393311
 20
89.9743822514864
 30
0.0
 10
120.2858149649344
 20
90.01722018712644
 30
0.0
 10
121.20164471685
 20
90.04454592794438
 30
0.0
 10
121.9249463818693
 20
90.05396734145685
 30
0.0
 10
122.295832625539
 20
90.05517082202873
 30
0.0
 10
122.4194613734464
 20
90.05517082743272
 30
0.0
  0
LINE
  5
175
330
16D
100
AcDbEntity
  8
0
  6
HIDDEN2
 62
     0
370
    30
100
AcDbLine
 10
117.419
 20
83.493
 30
0.0
 11
122.419
 21
83.493
 31
0.0
  0
LINE
  5
176
330
16D
100
AcDbEntity
  8
0
  6
HIDDEN2
 62
     0
370
    30
100
AcDbLine
 10
122.419
 20
83.493
 30
0.0
 11
127.419
 21
83.493
 31
0.0
  0
LINE
  5
177
330
16D
100
AcDbEntity
  8
0
  6
HIDDEN2
 62
     0
370
    30
100
AcDbLine
 10
119.419
 20
76.493
 30
0.0
 11
119.419
 21
83.493
 31
0.0
  0
SPLINE
  5
178
330
16D
100
AcDbEntity
  8
0
  6
Continuous
 62
     0
370
    30
100
AcDbSpline
210
0.0
220
0.0
230
1.0
 70
    11
 71
     3
 72
    57
 73
    53
 74
     0
 42
0.0
 43
0.0
 40
0.0
 40
0.0
 40
0.0
 40
0.0
 40
0.3708862437222912
 40
1.112658731166874
 40
2.16996787648712
 40
3.119429612010861
 40
3.538790420993958
 40
3.914200151178947
 40
4.241120991605914
 40
4.515721557318454
 40
4.735027953925274
 40
4.897250507324167
 40
4.957024701565353
 40
5.003148680307938
 40
5.061348891587438
 40
5.119549076429577
 40
5.165673034535491
 40
5.225447206764129
 40
5.387669715092843
 40
5.606976067390206
 40
5.881576590728388
 40
6.208497391478384
 40
6.583907085287144
 40
7.003267861706408
 40
7.952729545232071
 40
9.01003865823892
 40
10.12269737844697
 40
11.23535610961384
 40
12.29266525493409
 40
13.24212699045783
 40
13.66148779944093
 40
14.03689752962592
 40
14.36381837005288
 40
14.63841893576542
 40
14.85772533237224
 40
15.01994788577114
 40
15.07972208001232
 40
15.12584605875491
 40
15.18404627003441
 40
15.24224645487655
 40
15.28837041298246
 40
15.3481445852111
 40
15.51036709353981
 40
15.72967344583717
 40
16.00427396917535
 40
16.33119476992535
 40
16.70660446373411
 40
17.12596524015337
 40
18.07542692367904
 40
19.13273603668588
 40
19.87450851682458
 40
20.24539475689393
 40
20.24539475689393
 40
20.24539475689393
 40
20.24539475689393
 10
122.4194631601445
 20
89.18028419217349
 30
0.0
 10
122.2958344122371
 20
89.1802841867695
 30
0.0
 10
121.9249481684622
 20
89.18148763491743
 30
0.0
 10
121.2016465026192
 20
89.19090898519687
 30
0.0
 10
120.2858167483148
 20
89.21823464595045
 30
0.0
 10
119.4781264189665
 20
89.26107251098
 30
0.0
 10
118.898416027318
 20
89.30587529874101
 30
0.0
 10
118.5262240888693
 20
89.34180441000468
 30
0.0
 10
118.2028971380409
 20
89.38102416366004
 30
0.0
 10
117.9324398694794
 20
89.42261058160341
 30
0.0
 10
117.7179595165857
 20
89.46666462525974
 30
0.0
 10
117.5763175646023
 20
89.50592730680633
 30
0.0
 10
117.4934000756291
 20
89.5418710252065
 30
0.0
 10
117.4471711908758
 20
89.56752658293688
 30
0.0
 10
117.4040050943215
 20
89.61772727524323
 30
0.0
 10
117.4471711334024
 20
89.66792800494457
 30
0.0
 10
117.4933999961996
 20
89.6935835638934
 30
0.0
 10
117.5763174470522
 20
89.72952729194525
 30
0.0
 10
117.71795935956
 20
89.76878998442741
 30
0.0
 10
117.9324396630829
 20
89.81284404656783
 30
0.0
 10
118.2028968847094
 20
89.85443048956323
 30
0.0
 10
118.5262237979007
 20
89.89365026173608
 30
0.0
 10
118.8984156709613
 20
89.92957944958948
 30
0.0
 10
119.4781261769934
 20
89.97438201770984
 30
0.0
 10
120.2858149989831
 20
90.01722244935607
 30
0.0
 10
121.3252329338268
 20
90.04822377743898
 30
0.0
 10
122.4194626882865
 20
90.05873292752406
 30
0.0
 10
123.5136924544298
 20
90.04822387288485
 30
0.0
 10
124.5531104237482
 20
90.0172226354237
 30
0.0
 10
125.3607992884595
 20
89.97438227427998
 30
0.0
 10
125.9405098388723
 20
89.92957975709373
 30
0.0
 10
126.3127017513811
 20
89.89365060162177
 30
0.0
 10
126.6360287078719
 20
89.85443085761676
 30
0.0
 10
126.9064859752617
 20
89.81284443767632
 30
0.0
 10
127.1209663283812
 20
89.7687903944049
 30
0.0
 10
127.2626082803277
 20
89.72952771279539
 30
0.0
 10
127.3455257693037
 20
89.6935839944002
 30
0.0
 10
127.3917546540567
 20
89.66792843666916
 30
0.0
 10
127.4349207506111
 20
89.61772774436307
 30
0.0
 10
127.3917547115302
 20
89.56752701466148
 30
0.0
 10
127.3455258487326
 20
89.5418714557133
 30
0.0
 10
127.2626083978831
 20
89.50592772765646
 30
0.0
 10
127.1209664853383
 20
89.46666503523724
 30
0.0
 10
126.9064861820413
 20
89.42261097271191
 30
0.0
 10
126.6360289592429
 20
89.38102453171354
 30
0.0
 10
126.3127020517141
 20
89.34180474989037
 30
0.0
 10
125.9405101527136
 20
89.30587560624528
 30
0.0
 10
125.3607998054458
 20
89.26107276755008
 30
0.0
 10
124.553109518819
 20
89.21823483201831
 30
0.0
 10
123.6372797974485
 20
89.1909090914925
 30
0.0
 10
122.913978146851
 20
89.18148767812565
 30
0.0
 10
122.5430919068343
 20
89.18028419757748
 30
0.0
 10
122.4194631601445
 20
89.18028419217349
 30
0.0
  0
ARC
  5
179
330
16D
100
AcDbEntity
  8
0
  6
HIDDEN2
 62
     0
370
    30
100
AcDbCircle
 10
122.419
 20
110.493
 30
0.0
 40
4.75
100
AcDbArc
 50
180.0
 51
0.0
  0
LINE
  5
17A
330
16D
100
AcDbEntity
  8
0
  6
Continuous
 62
     0
370
    30
100
AcDbLine
 10
117.512
 20
110.493
 30
0.0
 11
119.966
 21
106.243
 31
0.0
  0
LINE
  5
17B
330
16D
100
AcDbEntity
  8
0
  6
Continuous
 62
     0
370
    30
100
AcDbLine
 10
119.966
 20
106.243
 30
0.0
 11
124.873
 21
106.243
 31
0.0
  0
LINE
  5
17C
330
16D
100
AcDbEntity
  8
0
  6
Continuous
 62
     0
370
    30
100
AcDbLine
 10
124.873
 20
106.243
 30
0.0
 11
127.327
 21
110.493
 31
0.0
  0
LINE
  5
17D
330
16D
100
AcDbEntity
  8
0
  6
Continuous
 62
     0
370
    30
100
AcDbLine
 10
127.327
 20
110.493
 30
0.0
 11
124.873
 21
114.743
 31
0.0
  0
LINE
  5
17E
330
16D
100
AcDbEntity
  8
0
  6
Continuous
 62
     0
370
    30
100
AcDbLine
 10
124.873
 20
114.743
 30
0.0
 11
119.966
 21
114.743
 31
0.0
  0
LINE
  5
17F
330
16D
100
AcDbEntity
  8
0
  6
Continuous
 62
     0
370
    30
100
AcDbLine
 10
119.966
 20
114.743
 30
0.0
 11
117.512
 21
110.493
 31
0.0
  0
CIRCLE
  5
180
330
16D
100
AcDbEntity
  8
0
  6
Continuous
 62
     0
370
    30
100
AcDbCircle
 10
122.419
 20
110.493
 30
0.0
 40
2.75
  0
LINE
  5
181
330
16D
100
AcDbEntity
  8
0
  6
Continuous
 62
     0
370
    30
100
AcDbLine
 10
108.669
 20
102.743
 30
0.0
 11
108.669
 21
89.576
 31
0.0
  0
ARC
  5
182
330
16D
100
AcDbEntity
  8
0
  6
Continuous
 62
     0
370
    30
100
AcDbCircle
 10
122.419
 20
102.743
 30
0.0
 40
13.75
100
AcDbArc
 50
90.0
 51
180.0
  0
ARC
  5
183
330
16D
100
AcDbEntity
  8
0
  6
Continuous
 62
     0
370
     0
100
AcDbCircle
 10
122.419
 20
102.743
 30
0.0
 40
12.75
100
AcDbArc
 50
90.0
 51
180.0
  0
ARC
  5
184
330
16D
100
AcDbEntity
  8
0
  6
Continuous
 62
     0
370
    30
100
AcDbCircle
 10
122.419
 20
102.743
 30
0.0
 40
13.75
100
AcDbArc
 50
0.0
 51
90.0
  0
ARC
  5
185
330
16D
100
AcDbEntity
  8
0
  6
Continuous
 62
     0
370
     0
100
AcDbCircle
 10
122.419
 20
102.743
 30
0.0
 40
12.75
100
AcDbArc
 50
0.0
 51
90.0
  0
LINE
  5
186
330
16D
100
AcDbEntity
  8
0
  6
Continuous
 62
     0
370
    30
100
AcDbLine
 10
136.169
 20
102.743
 30
0.0
 11
136.169
 21
89.576
 31
0.0
  0
LINE
  5
187
330
16D
100
AcDbEntity
  8
0
  6
Continuous
 62
     0
370
    30
100
AcDbLine
 10
108.669
 20
89.576
 30
0.0
 11
108.669
 21
89.095
 31
0.0
  0
SPLINE
  5
188
330
16D
100
AcDbEntity
  8
0
  6
Continuous
 62
     0
370
     0
100
AcDbSpline
210
0.0
220
0.0
230
1.0
 70
     8
 71
     3
 72
    63
 73
    59
 74
     0
 42
0.0
 43
0.0
 40
-64.89331792297897
 40
-64.89331792297897
 40
-64.89331792297897
 40
-64.89331792297897
 40
-64.12077842389587
 40
-63.3482389248128
 40
-62.57569942572972
 40
-61.80315992664664
 40
-61.03062042756355
 40
-60.25808092848047
 40
-59.48554142939739
 40
-58.71300193031431
 40
-57.94046243123122
 40
-57.16792293214814
 40
-56.39538343306506
 40
-55.62284393398197
 40
-54.85030443489889
 40
-54.07776493581581
 40
-53.30522543673273
 40
-52.53268593764965
 40
-51.76014643856656
 40
-50.98760693948348
 40
-50.21506744040039
 40
-49.44252794131731
 40
-48.66998844223423
 40
-47.89744894315115
 40
-47.12490944406805
 40
-46.35236994498497
 40
-45.57983044590189
 40
-44.80729094681881
 40
-44.03475144773573
 40
-43.26221194865264
 40
-42.48967244956956
 40
-41.71713295048647
 40
-40.94459345140339
 40
-40.17205395232031
 40
-39.39951445323723
 40
-38.62697495415415
 40
-37.85443545507106
 40
-37.08189595598798
 40
-36.30935645690489
 40
-35.53681695782181
 40
-34.76427745873873
 40
-33.99173795965565
 40
-33.21919846057257
 40
-32.44665896148948
 40
-31.6741194624064
 40
-30.90157996332331
 40
-30.12904046424023
 40
-29.35650096515715
 40
-28.58396146607407
 40
-27.81142196699098
 40
-27.0388824679079
 40
-26.26634296882482
 40
-25.49380346974174
 40
-24.72126397065865
 40
-23.94872447157557
 40
-23.17618497249249
 40
-22.40364547340941
 40
-21.63110597432632
 40
-21.63110597432632
 40
-21.63110597432632
 40
-21.63110597432632
 10
136.1694627048986
 20
89.09509592268395
 30
0.0
 10
136.1694627170497
 20
89.0742364868612
 30
0.0
 10
136.1550343128194
 20
89.03251761856274
 30
0.0
 10
136.0901745165235
 20
88.97013620552471
 30
0.0
 10
135.9823016031919
 20
88.90814796095273
 30
0.0
 10
135.8317549809192
 20
88.84674792171194
 30
0.0
 10
135.6390083250759
 20
88.78612927533251
 30
0.0
 10
135.4046680879507
 20
88.7264827504248
 30
0.0
 10
135.1294715906271
 20
88.66799601704406
 30
0.0
 10
134.8142847030987
 20
88.61085309608598
 30
0.0
 10
134.4600991199214
 20
88.5552337803222
 30
0.0
 10
134.0680292399761
 20
88.5013130686969
 30
0.0
 10
133.6393086601568
 20
88.44926061571769
 30
0.0
 10
133.1752862940191
 20
88.39924019765917
 30
0.0
 10
132.6774221275986
 20
88.35140919726237
 30
0.0
 10
132.1472826257547
 20
88.30591810855023
 30
0.0
 10
131.5865358034932
 20
88.26291006331797
 30
0.0
 10
130.996945977773
 20
88.22252038078733
 30
0.0
 10
130.3803682163133
 20
88.18487614184227
 30
0.0
 10
129.7387425008632
 20
88.15009578918557
 30
0.0
 10
129.0740876233023
 20
88.11828875467415
 30
0.0
 10
128.3884948337741
 20
88.08955511500608
 30
0.0
 10
127.6841212608392
 20
88.06398527684215
 30
0.0
 10
126.9631831243512
 20
88.04165969235319
 30
0.0
 10
126.227948762409
 20
88.02264860608761
 30
0.0
 10
125.4807314943258
 20
88.00701183395634
 30
0.0
 10
124.7238823420706
 20
87.99479857502942
 30
0.0
 10
123.9597826330837
 20
87.98604725673798
 30
0.0
 10
123.1908365077393
 20
87.98078541396703
 30
0.0
 10
122.4194633550303
 20
87.97902960242061
 30
0.0
 10
121.6480902002758
 20
87.98078534653143
 30
0.0
 10
120.8791440688012
 20
87.98604712207899
 30
0.0
 10
120.1150443496187
 20
87.99479837357069
 30
0.0
 10
119.3581951831346
 20
88.00701156633176
 30
0.0
 10
118.6109778968339
 20
88.02264827313925
 30
0.0
 10
117.875743512743
 20
88.04165929512857
 30
0.0
 10
117.1548053502448
 20
88.06398481659113
 30
0.0
 10
116.45043174752
 20
88.08955459317676
 30
0.0
 10
115.7648389245159
 20
88.1182881729084
 30
0.0
 10
115.1001840098986
 20
88.15009514931384
 30
0.0
 10
114.4585582539279
 20
88.18487544587785
 30
0.0
 10
113.8419804486111
 20
88.22251963091998
 30
0.0
 10
113.2523905758353
 20
88.26290926190703
 30
0.0
 10
112.6916437034676
 20
88.30591725811723
 30
0.0
 10
112.1615041486248
 20
88.35140830048311
 30
0.0
 10
111.6636399264791
 20
88.39923925735525
 30
0.0
 10
111.1996175020656
 20
88.44925963484764
 30
0.0
 10
110.7708968616031
 20
88.50131205034688
 30
0.0
 10
110.3788269188378
 20
88.55523272769636
 30
0.0
 10
110.0246412708617
 20
88.61085201249622
 30
0.0
 10
109.7094543167594
 20
88.6679949058998
 30
0.0
 10
109.4342577512963
 20
88.7264816152221
 30
0.0
 10
109.1999174446805
 20
88.78612811964314
 30
0.0
 10
109.0071707182139
 20
88.84674674917213
 30
0.0
 10
108.8566240244076
 20
88.90814677525171
 30
0.0
 10
108.7487510388571
 20
88.97013501039311
 30
0.0
 10
108.6838911698842
 20
89.03251641776095
 30
0.0
 10
108.6694627170497
 20
89.07423528479802
 30
0.0
 10
108.6694627048986
 20
89.09509472062075
 30
0.0
  0
SPLINE
  5
189
330
16D
100
AcDbEntity
  8
0
  6
Continuous
 62
     0
370
     0
100
AcDbSpline
210
0.0
220
0.0
230
1.0
 70
     8
 71
     3
 72
    63
 73
    59
 74
     0
 42
0.0
 43
0.0
 40
-60.18987414860604
 40
-60.18987414860604
 40
-60.18987414860604
 40
-60.18987414860604
 40
-59.4733280277893
 40
-58.75678190697257
 40
-58.04023578615583
 40
-57.32368966533909
 40
-56.60714354452234
 40
-55.89059742370561
 40
-55.17405130288888
 40
-54.45750518207214
 40
-53.7409590612554
 40
-53.02441294043866
 40
-52.30786681962193
 40
-51.59132069880518
 40
-50.87477457798845
 40
-50.1582284571717
 40
-49.44168233635497
 40
-48.72513621553823
 40
-48.00859009472149
 40
-47.29204397390475
 40
-46.57549785308801
 40
-45.85895173227127
 40
-45.14240561145454
 40
-44.4258594906378
 40
-43.70931336982105
 40
-42.99276724900432
 40
-42.27622112818757
 40
-41.55967500737084
 40
-40.8431288865541
 40
-40.12658276573736
 40
-39.41003664492062
 40
-38.69349052410388
 40
-37.97694440328715
 40
-37.2603982824704
 40
-36.54385216165367
 40
-35.82730604083693
 40
-35.11075992002019
 40
-34.39421379920346
 40
-33.67766767838671
 40
-32.96112155756997
 40
-32.24457543675324
 40
-31.5280293159365
 40
-30.81148319511976
 40
-30.09493707430302
 40
-29.37839095348628
 40
-28.66184483266954
 40
-27.9452987118528
 40
-27.22875259103606
 40
-26.51220647021933
 40
-25.79566034940258
 40
-25.07911422858584
 40
-24.36256810776911
 40
-23.64602198695237
 40
-22.92947586613563
 40
-22.21292974531889
 40
-21.49638362450215
 40
-20.77983750368541
 40
-20.06329138286868
 40
-20.06329138286868
 40
-20.06329138286868
 40
-20.06329138286868
 10
135.1694626651633
 20
90.09129057706429
 30
0.0
 10
135.1694626764969
 20
90.07043114124156
 30
0.0
 10
135.1560836108888
 20
90.02871227298894
 30
0.0
 10
135.0959408908854
 20
89.96633086015711
 30
0.0
 10
134.9959132805386
 20
89.90434261592807
 30
0.0
 10
134.8563155037173
 20
89.84294257716584
 30
0.0
 10
134.6775867866735
 20
89.78232393139919
 30
0.0
 10
134.4602894760743
 20
89.72267740723643
 30
0.0
 10
134.2051072696511
 20
89.66419067473055
 30
0.0
 10
133.9128430650337
 20
89.60704775477447
 30
0.0
 10
133.584416433537
 20
89.55142844013662
 30
0.0
 10
133.22086072685
 20
89.49750772975773
 30
0.0
 10
132.8233198257285
 20
89.44545527814145
 30
0.0
 10
132.3930445409235
 20
89.39543486155807
 30
0.0
 10
131.9313886776674
 20
89.34760386274394
 30
0.0
 10
131.4398047761023
 20
89.30211277571715
 30
0.0
 10
130.919839541051
 20
89.2591047322675
 30
0.0
 10
130.3731289755117
 20
89.21871505161118
 30
0.0
 10
129.8013932331868
 20
89.18107081462622
 30
0.0
 10
129.2064312062437
 20
89.14629046400927
 30
0.0
 10
128.5901148653338
 20
89.11448343161078
 30
0.0
 10
127.9543833696808
 20
89.08574979412222
 30
0.0
 10
127.3012369657679
 20
89.0601799581975
 30
0.0
 10
126.6327306938228
 20
89.03785437600041
 30
0.0
 10
125.9509679219004
 20
89.01884329207218
 30
0.0
 10
125.2580937279093
 20
89.00320652231625
 30
0.0
 10
124.5562881504024
 20
88.9909932657954
 30
0.0
 10
123.8477593293697
 20
88.98224194993304
 30
0.0
 10
123.1347365586125
 20
88.97698010960656
 30
0.0
 10
122.4194632715607
 20
88.97522430051237
 30
0.0
 10
121.7041899826009
 20
88.97698004707536
 30
0.0
 10
120.9911672061259
 20
88.98224182506743
 30
0.0
 10
120.2826383755834
 20
88.99099307898823
 30
0.0
 10
119.5808327848048
 20
89.0032062741553
 30
0.0
 10
118.8879585738216
 20
89.01884298333823
 30
0.0
 10
118.2061957812406
 20
89.03785400766486
 30
0.0
 10
117.5376894850349
 20
89.0601795314193
 30
0.0
 10
116.8845430533361
 20
89.08574931024413
 30
0.0
 10
116.2488115264591
 20
89.11448289215528
 30
0.0
 10
115.6324951509855
 20
89.14628987067368
 30
0.0
 10
115.0375330862477
 20
89.1810701692774
 30
0.0
 10
114.465797303016
 20
89.21871435627963
 30
0.0
 10
113.9190866935865
 20
89.25910398914101
 30
0.0
 10
113.3991214117997
 20
89.30211198713383
 30
0.0
 10
112.9075374608008
 20
89.347603031185
 30
0.0
 10
112.4458815455683
 20
89.39543398963988
 30
0.0
 10
112.0156062064076
 20
89.44545436860739
 30
0.0
 10
111.6180652487223
 20
89.49750678546954
 30
0.0
 10
111.2545094834413
 20
89.5514274640654
 30
0.0
 10
110.9260827915049
 20
89.60704674999124
 30
0.0
 10
110.6338185247919
 20
89.66418964439677
 30
0.0
 10
110.378636254813
 20
89.72267635459394
 30
0.0
 10
110.1613388793977
 20
89.78232285975997
 30
0.0
 10
109.9826100964815
 20
89.84294148990165
 30
0.0
 10
109.8430122529386
 20
89.90434151645985
 30
0.0
 10
109.7429845752311
 20
89.96632975194422
 30
0.0
 10
109.6828417874397
 20
90.0287111595182
 30
0.0
 10
109.6694626764969
 20
90.07043002660114
 30
0.0
 10
109.6694626651633
 20
90.09128946242387
 30
0.0
  0
LINE
  5
18A
330
16D
100
AcDbEntity
  8
0
  6
Continuous
 62
     0
370
    30
100
AcDbLine
 10
136.169
 20
89.576
 30
0.0
 11
136.169
 21
89.095
 31
0.0
  0
LINE
  5
18B
330
16D
100
AcDbEntity
  8
0
  6
Continuous
 62
     0
370
     0
100
AcDbLine
 10
122.419
 20
116.493
 30
0.0
 11
122.419
 21
115.493
 31
0.0
  0
LINE
  5
18C
330
16D
100
AcDbEntity
  8
0
  6
Continuous
 62
     0
370
     0
100
AcDbLine
 10
109.669
 20
102.743
 30
0.0
 11
108.669
 21
102.743
 31
0.0
  0
LINE
  5
18D
330
16D
100
AcDbEntity
  8
0
  6
Continuous
 62
     0
370
     0
100
AcDbLine
 10
135.169
 20
102.743
 30
0.0
 11
136.169
 21
102.743
 31
0.0
  0
LINE
  5
18E
330
16D
100
AcDbEntity
  8
0
  6
Continuous
 62
     0
370
    30
100
AcDbLine
 10
108.669
 20
76.493
 30
0.0
 11
108.669
 21
89.095
 31
0.0
  0
ELLIPSE
  5
18F
330
16D
100
AcDbEntity
  8
0
  6
Continuous
 62
     0
370
     0
100
AcDbEllipse
 10
109.669
 20
89.095
 30
0.0
 11
0.9999999999998525
 21
5.433348426303809E-7
 31
0.0
210
0.0
220
0.0
230
1.0
 40
0.996
 41
1.570795825262961
 42
3.141592152057858
  0
LINE
  5
190
330
16D
100
AcDbEntity
  8
0
  6
Continuous
 62
     0
370
    30
100
AcDbLine
 10
136.169
 20
76.493
 30
0.0
 11
136.169
 21
89.095
 31
0.0
  0
ELLIPSE
  5
191
330
16D
100
AcDbEntity
  8
0
  6
Continuous
 62
     0
370
     0
100
AcDbEllipse
 10
135.169
 20
89.095
 30
0.0
 11
0.9999999999998525
 21
5.433348426303629E-7
 31
0.0
210
0.0
220
0.0
230
1.0
 40
0.996
 41
6.283184805647651
 42
7.853981132442546
  0
SPLINE
  5
192
330
16D
100
AcDbEntity
  8
0
  6
Continuous
 62
     0
370
     0
100
AcDbSpline
210
0.0
220
0.0
230
1.0
 70
     8
 71
     3
 72
    13
 73
     9
 74
     0
 42
0.0
 43
0.0
 40
0.0
 40
0.0
 40
0.0
 40
0.0
 40
1.012593040846001
 40
1.623652246326113
 40
2.065666906312385
 40
2.398817108384383
 40
2.775686860619898
 40
3.27011958944254
 40
3.27011958944254
 40
3.27011958944254
 40
3.27011958944254
 10
136.1694624434526
 20
89.57628357207653
 30
0.0
 10
136.1694624326244
 20
89.96564123454402
 30
0.0
 10
136.121880914487
 20
90.5909575674822
 30
0.0
 10
135.9565423656602
 20
91.31709620256007
 30
0.0
 10
135.7954413386501
 20
91.74211886099647
 30
0.0
 10
135.6299420403566
 20
92.03433476135157
 30
0.0
 10
135.4282423943382
 20
92.2595196500597
 30
0.0
 10
135.2632652956599
 20
92.32527705451767
 30
0.0
 10
135.1694623670016
 20
92.32527705041741
 30
0.0
  0
SPLINE
  5
193
330
16D
100
AcDbEntity
  8
0
  6
Continuous
 62
     0
370
     0
100
AcDbSpline
210
0.0
220
0.0
230
1.0
 70
     8
 71
     3
 72
    13
 73
     9
 74
     0
 42
0.0
 43
0.0
 40
0.0
 40
0.0
 40
0.0
 40
0.0
 40
1.012593040846
 40
1.62365224632611
 40
2.065666906312382
 40
2.39881710838438
 40
2.775686860619894
 40
3.270119589442536
 40
3.270119589442536
 40
3.270119589442536
 40
3.270119589442536
 10
136.1694624434526
 20
89.57628357207653
 30
0.0
 10
136.1694624562626
 20
89.68344628872111
 30
0.0
 10
136.1218809760887
 20
89.85555179189345
 30
0.0
 10
135.9565424713462
 20
90.05540656362939
 30
0.0
 10
135.7954414701396
 20
90.17238533435062
 30
0.0
 10
135.6299421895867
 20
90.25281176666712
 30
0.0
 10
135.4282425572395
 20
90.31478928569257
 30
0.0
 10
135.2632654625534
 20
90.33288765833416
 30
0.0
 10
135.1694625338951
 20
90.3328876542339
 30
0.0
  0
LINE
  5
194
330
16D
100
AcDbEntity
  8
0
  6
Continuous
 62
     0
370
     0
100
AcDbLine
 10
109.669
 20
90.333
 30
0.0
 11
135.169
 21
90.333
 31
0.0
  0
LINE
  5
195
330
16D
100
AcDbEntity
  8
0
  6
Continuous
 62
     0
370
     0
100
AcDbLine
 10
109.669
 20
92.325
 30
0.0
 11
135.169
 21
92.325
 31
0.0
  0
SPLINE
  5
196
330
16D
100
AcDbEntity
  8
0
  6
Continuous
 62
     0
370
     0
100
AcDbSpline
210
0.0
220
0.0
230
1.0
 70
     8
 71
     3
 72
    13
 73
     9
 74
     0
 42
0.0
 43
0.0
 40
0.0
 40
0.0
 40
0.0
 40
0.0
 40
0.4706725826896925
 40
0.8928674251534839
 40
1.256071739303241
 40
1.675049796070329
 40
2.259806424709599
 40
3.270132260241308
 40
3.270132260241308
 40
3.270132260241308
 40
3.270132260241308
 10
109.6694623670017
 20
92.325275935777
 30
0.0
 10
109.5801673631683
 20
92.32527593187379
 30
0.0
 10
109.4110274694626
 20
92.2612681977696
 30
0.0
 10
109.2003094260198
 20
92.02580478901905
 30
0.0
 10
109.0303802995391
 20
91.71286973105265
 30
0.0
 10
108.8753583860869
 20
91.2883883941146
 30
0.0
 10
108.7161059660481
 20
90.57910009049851
 30
0.0
 10
108.6694624326487
 20
89.96476742744198
 30
0.0
 10
108.6694624434526
 20
89.57628237001333
 30
0.0
  0
SPLINE
  5
197
330
16D
100
AcDbEntity
  8
0
  6
Continuous
 62
     0
370
     0
100
AcDbSpline
210
0.0
220
0.0
230
1.0
 70
     8
 71
     3
 72
    13
 73
     9
 74
     0
 42
0.0
 43
0.0
 40
0.0
 40
0.0
 40
0.0
 40
0.0
 40
0.470672582689692
 40
0.8928674251534828
 40
1.256071739303239
 40
1.675049796070327
 40
2.259806424709597
 40
3.270132260241304
 40
3.270132260241304
 40
3.270132260241304
 40
3.270132260241304
 10
109.6694625338952
 20
90.33288653959349
 30
0.0
 10
109.5801675300618
 20
90.33288653569028
 30
0.0
 10
109.4110276324701
 20
90.3152697133687
 30
0.0
 10
109.2003095747322
 20
90.25046322929586
 30
0.0
 10
109.030380429253
 20
90.16433426286281
 30
0.0
 10
108.8753584900302
 20
90.04750446977451
 30
0.0
 10
108.71610602693
 20
89.85228739613981
 30
0.0
 10
108.6694624562339
 20
89.68320492000518
 30
0.0
 10
108.6694624434526
 20
89.57628237001333
 30
0.0
  0
LINE
  5
198
330
16D
100
AcDbEntity
  8
0
  6
Continuous
 62
     0
370
     0
100
AcDbLine
 10
135.169
 20
102.743
 30
0.0
 11
135.169
 21
92.325
 31
0.0
  0
LINE
  5
199
330
16D
100
AcDbEntity
  8
0
  6
Continuous
 62
     0
370
     0
100
AcDbLine
 10
135.169
 20
90.333
 30
0.0
 11
135.169
 21
90.091
 31
0.0
  0
LINE
  5
19A
330
16D
100
AcDbEntity
  8
0
  6
Continuous
 62
     0
370
     0
100
AcDbLine
 10
109.669
 20
90.333
 30
0.0
 11
109.669
 21
90.091
 31
0.0
  0
LINE
  5
19B
330
16D
100
AcDbEntity
  8
0
  6
Continuous
 62
     0
370
     0
100
AcDbLine
 10
109.669
 20
102.743
 30
0.0
 11
109.669
 21
92.325
 31
0.0
  0
LINE
  5
19C
330
16D
100
AcDbEntity
  8
0
  6
Continuous
 62
     0
370
     0
100
AcDbLine
 10
135.169
 20
92.325
 30
0.0
 11
135.169
 21
90.333
 31
0.0
  0
LINE
  5
19D
330
16D
100
AcDbEntity
  8
0
  6
Continuous
 62
     0
370
     0
100
AcDbLine
 10
109.669
 20
90.333
 30
0.0
 11
109.669
 21
92.325
 31
0.0
  0
LINE
  5
19E
330
16D
100
AcDbEntity
  8
0
  6
HIDDEN2
 62
     0
370
     0
100
AcDbLine
 10
127.669
 20
114.362
 30
0.0
 11
127.669
 21
110.493
 31
0.0
  0
ARC
  5
19F
330
16D
100
AcDbEntity
  8
0
  6
HIDDEN2
 62
     0
370
     0
100
AcDbCircle
 10
60.126
 20
128.19
 30
0.0
 40
68.94466469354803
100
AcDbArc
 50
348.43
 51
349.281
  0
ARC
  5
1A0
330
16D
100
AcDbEntity
  8
0
  6
HIDDEN2
 62
     0
370
     0
100
AcDbCircle
 10
122.419
 20
110.493
 30
0.0
 40
5.25
100
AcDbArc
 50
180.0
 51
0.0
  0
LINE
  5
1A1
330
16D
100
AcDbEntity
  8
0
  6
HIDDEN2
 62
     0
370
     0
100
AcDbLine
 10
117.169
 20
110.493
 30
0.0
 11
117.169
 21
114.362
 31
0.0
  0
ARC
  5
1A2
330
16D
100
AcDbEntity
  8
0
  6
HIDDEN2
 62
     0
370
     0
100
AcDbCircle
 10
184.712
 20
128.19
 30
0.0
 40
68.94315753682767
100
AcDbArc
 50
190.719
 51
191.57
  0
LINE
  5
1A3
330
16D
100
AcDbEntity
  8
0
  6
HIDDEN2
 62
     0
370
    30
100
AcDbLine
 10
127.169
 20
114.908
 30
0.0
 11
127.169
 21
110.493
 31
0.0
  0
LINE
  5
1A4
330
16D
100
AcDbEntity
  8
0
  6
HIDDEN2
 62
     0
370
     0
100
AcDbLine
 10
127.169
 20
110.493
 30
0.0
 11
127.669
 21
110.493
 31
0.0
  0
LINE
  5
1A5
330
16D
100
AcDbEntity
  8
0
  6
HIDDEN2
 62
     0
370
     0
100
AcDbLine
 10
117.169
 20
110.493
 30
0.0
 11
117.669
 21
110.493
 31
0.0
  0
LINE
  5
1A6
330
16D
100
AcDbEntity
  8
0
  6
HIDDEN2
 62
     0
370
    30
100
AcDbLine
 10
117.669
 20
110.493
 30
0.0
 11
117.669
 21
114.908
 31
0.0
  0
ARC
  5
1A7
330
16D
100
AcDbEntity
  8
0
  6
HIDDEN2
 62
     0
370
    30
100
AcDbCircle
 10
127.669
 20
114.908
 30
0.0
 40
0.5000000000000012
100
AcDbArc
 50
66.658
 51
180.0
  0
ARC
  5
1A8
330
16D
100
AcDbEntity
  8
0
  6
HIDDEN2
 62
     0
370
    30
100
AcDbCircle
 10
117.169
 20
114.908
 30
0.0
 40
0.5000000000000009
100
AcDbArc
 50
0.0
 51
113.342
  0
LINE
  5
1A9
330
16D
100
AcDbEntity
  8
0
  6
HIDDEN2
 62
     0
370
     0
100
AcDbLine
 10
127.169
 20
114.362
 30
0.0
 11
127.669
 21
114.362
 31
0.0
  0
LINE
  5
1AA
330
16D
100
AcDbEntity
  8
0
  6
HIDDEN2
 62
     0
370
     0
100
AcDbLine
 10
117.169
 20
114.362
 30
0.0
 11
117.669
 21
114.362
 31
0.0
  0
LINE
  5
1AB
330
16D
100
AcDbEntity
  8
0
  6
HIDDEN2
 62
     0
370
    30
100
AcDbLine
 10
127.419
 20
89.618
 30
0.0
 11
127.419
 21
83.493
 31
0.0
  0
LINE
  5
1AC
330
16D
100
AcDbEntity
  8
0
  6
HIDDEN2
 62
     0
370
    30
100
AcDbLine
 10
117.419
 20
89.618
 30
0.0
 11
117.419
 21
83.493
 31
0.0
  0
LINE
  5
1AD
330
16D
100
AcDbEntity
  8
0
  6
HIDDEN2
 62
     0
370
    30
100
AcDbLine
 10
125.419
 20
76.493
 30
0.0
 11
125.419
 21
83.493
 31
0.0
  0
LINE
  5
1AE
330
16D
100
AcDbEntity
  8
0
  6
HIDDEN2
 62
     0
370
    30
100
AcDbLine
 10
108.669
 20
90.493
 30
0.0
 11
136.169
 21
90.493
 31
0.0
  0
ENDBLK
  5
1B0
330
16D
100
AcDbEntity
  8
0
100
AcDbBlockEnd
  0
ENDSEC
  0
SECTION
  2
ENTITIES
  0
INSERT
  5
8E
330
1F
100
AcDbEntity
  8
0
  6
Continuous
 62
    72
370
     0
100
AcDbBlockReference
  2
a
 10
19.698
 20
14.746
 30
0.0
  0
INSERT
  5
109
330
1F
100
AcDbEntity
  8
0
  6
Continuous
 62
    72
370
     0
100
AcDbBlockReference
  2
d
 10
93.194
 20
6.074
 30
0.0
  0
INSERT
  5
16C
330
1F
100
AcDbEntity
  8
0
  6
Continuous
 62
    72
370
     0
100
AcDbBlockReference
  2
b
 10
-42.908
 20
15.905
 30
0.0
  0
INSERT
  5
1B1
330
1F
100
AcDbEntity
  8
0
  6
Continuous
 62
    72
370
     0
100
AcDbBlockReference
  2
c
 10
55.089
 20
-31.709
 30
0.0
  0
ENDSEC
  0
SECTION
  2
OBJECTS
  0
DICTIONARY
  5
C
330
0
100
AcDbDictionary
281
     1
  3
ACAD_GROUP
350
D
  3
ACAD_LAYOUT
350
1A
  3
ACAD_MLEADERSTYLE
350
1B3
  3
ACAD_MLINESTYLE
350
17
  3
ACAD_PLOTSETTINGS
350
19
  3
ACAD_PLOTSTYLENAME
350
E
  3
ACAD_TABLESTYLE
350
1B2
  3
ACAD_VISUALSTYLE
350
2A
  0
DICTIONARY
  5
D
102
{ACAD_REACTORS
330
C
102
}
330
C
100
AcDbDictionary
281
     1
  0
DICTIONARY
  5
1A
102
{ACAD_REACTORS
330
C
102
}
330
C
100
AcDbDictionary
281
     1
  3
Layout1
350
1E
  3
Layout2
350
26
  3
Model
350
22
  0
DICTIONARY
  5
1B3
102
{ACAD_REACTORS
330
C
102
}
330
C
100
AcDbDictionary
281
     1
  0
DICTIONARY
  5
17
102
{ACAD_REACTORS
330
C
102
}
330
C
100
AcDbDictionary
281
     1
  3
Standard
350
18
  0
DICTIONARY
  5
19
102
{ACAD_REACTORS
330
C
102
}
330
C
100
AcDbDictionary
281
     1
  0
ACDBDICTIONARYWDFLT
  5
E
102
{ACAD_REACTORS
330
C
102
}
330
C
100
AcDbDictionary
281
     1
  3
Normal
350
F
100
AcDbDictionaryWithDefault
340
F
  0
DICTIONARY
  5
1B2
102
{ACAD_REACTORS
330
C
102
}
330
C
100
AcDbDictionary
281
     1
  0
DICTIONARY
  5
2A
102
{ACAD_REACTORS
330
C
102
}
330
C
100
AcDbDictionary
281
     1
  3
2dWireframe
350
2F
  3
3D Hidden
350
31
  3
3dWireframe
350
30
  3
Basic
350
32
  3
Brighten
350
36
  3
ColorChange
350
3A
  3
Conceptual
350
34
  3
Dim
350
35
  3
Facepattern
350
39
  3
Flat
350
2B
  3
FlatWithEdges
350
2C
  3
Gouraud
350
2D
  3
GouraudWithEdges
350
2E
  3
Linepattern
350
38
  3
Realistic
350
33
  3
Thicken
350
37
  0
LAYOUT
  5
1E
102
{ACAD_REACTORS
330
1A
102
}
330
1A
100
AcDbPlotSettings
  1

  2
none_device
  4

  6

 40
0.0
 41
0.0
 42
0.0
 43
0.0
 44
0.0
 45
0.0
 46
0.0
 47
0.0
 48
0.0
 49
0.0
140
0.0
141
0.0
142
1.0
143
1.0
 70
   688
 72
     0
 73
     0
 74
     5
  7

 75
    16
 76
     0
 77
     2
 78
   300
147
1.0
148
0.0
149
0.0
100
AcDbLayout
  1
Layout1
 70
     1
 71
     1
 10
0.0
 20
0.0
 11
420.0
 21
297.0
 12
0.0
 22
0.0
 32
0.0
 14
1.000E+20
 24
1.000E+20
 34
1.000E+20
 15
-1.000E+20
 25
-1.000E+20
 35
-1.000E+20
146
0.0
 13
0.0
 23
0.0
 33
0.0
 16
1.0
 26
0.0
 36
0.0
 17
0.0
 27
1.0
 37
0.0
 76
     0
330
1B
  0
LAYOUT
  5
26
102
{ACAD_REACTORS
330
1A
102
}
330
1A
100
AcDbPlotSettings
  1

  2
none_device
  4

  6

 40
0.0
 41
0.0
 42
0.0
 43
0.0
 44
0.0
 45
0.0
 46
0.0
 47
0.0
 48
0.0
 49
0.0
140
0.0
141
0.0
142
1.0
143
1.0
 70
   688
 72
     0
 73
     0
 74
     5
  7

 75
    16
 76
     0
 77
     2
 78
   300
147
1.0
148
0.0
149
0.0
100
AcDbLayout
  1
Layout2
 70
     1
 71
     2
 10
0.0
 20
0.0
 11
0.0
 21
0.0
 12
0.0
 22
0.0
 32
0.0
 14
0.0
 24
0.0
 34
0.0
 15
0.0
 25
0.0
 35
0.0
146
0.0
 13
0.0
 23
0.0
 33
0.0
 16
1.0
 26
0.0
 36
0.0
 17
0.0
 27
1.0
 37
0.0
 76
     0
330
23
  0
LAYOUT
  5
22
102
{ACAD_REACTORS
330
1A
102
}
330
1A
100
AcDbPlotSettings
  1

  2
none_device
  4

  6

 40
0.0
 41
0.0
 42
0.0
 43
0.0
 44
0.0
 45
0.0
 46
0.0
 47
0.0
 48
0.0
 49
0.0
140
0.0
141
0.0
142
1.0
143
1.0
 70
  1712
 72
     0
 73
     0
 74
     0
  7

 75
     0
 76
     0
 77
     2
 78
   300
147
1.0
148
0.0
149
0.0
100
AcDbLayout
  1
Model
 70
     1
 71
     0
 10
0.0
 20
0.0
 11
420.0
 21
297.0
 12
0.0
 22
0.0
 32
0.0
 14
1.000E+20
 24
1.000E+20
 34
1.000E+20
 15
-1.000E+20
 25
-1.000E+20
 35
-1.000E+20
146
0.0
 13
0.0
 23
0.0
 33
0.0
 16
1.0
 26
0.0
 36
0.0
 17
0.0
 27
1.0
 37
0.0
 76
     0
330
1F
331
29
  0
MLINESTYLE
  5
18
102
{ACAD_REACTORS
330
17
102
}
330
17
100
AcDbMlineStyle
  2
Standard
 70
     0
  3

 62
   256
 51
90.0
 52
90.0
 71
     2
 49
0.5
 62
   256
  6
BYLAYER
 49
-0.5
 62
   256
  6
BYLAYER
  0
ACDBPLACEHOLDER
  5
F
102
{ACAD_REACTORS
330
E
102
}
330
E
  0
VISUALSTYLE
  5
2F
102
{ACAD_REACTORS
330
2A
102
}
330
2A
100
AcDbVisualStyle
  2
2dWireframe
 70
     4
 71
     0
 72
     2
 73
     0
 90
        0
 40
-0.6
 41
-30.0
 62
     5
 63
     7
421
 16777215
 74
     1
 91
        4
 64
     7
 65
   257
 75
     1
175
     1
 42
1.0
 92
        0
 66
   257
 43
1.0
 76
     1
 77
     6
 78
     2
 67
     7
 79
     5
170
     0
171
     0
290
     0
174
     0
 93
        1
 44
0.0
173
     0
291
     0
 45
0.0
1001
ACAD
1000
AcDbSavedByObjectVersion
1070
     0
  0
VISUALSTYLE
  5
31
102
{ACAD_REACTORS
330
2A
102
}
330
2A
100
AcDbVisualStyle
  2
3D Hidden
 70
     6
 71
     1
 72
     2
 73
     2
 90
        0
 40
-0.6
 41
-30.0
 62
     5
 63
     7
421
 16777215
 74
     2
 91
        2
 64
     7
 65
   257
 75
     2
175
     1
 42
40.0
 92
        0
 66
   257
 43
1.0
 76
     1
 77
     6
 78
     2
 67
     7
 79
     3
170
     0
171
     0
290
     0
174
     0
 93
        1
 44
0.0
173
     0
291
     0
 45
0.0
1001
ACAD
1000
AcDbSavedByObjectVersion
1070
     0
  0
VISUALSTYLE
  5
30
102
{ACAD_REACTORS
330
2A
102
}
330
2A
100
AcDbVisualStyle
  2
3dWireframe
 70
     5
 71
     0
 72
     2
 73
     0
 90
        0
 40
-0.6
 41
-30.0
 62
     5
 63
     7
421
 16777215
 74
     1
 91
        4
 64
     7
 65
   257
 75
     1
175
     1
 42
1.0
 92
        0
 66
   257
 43
1.0
 76
     1
 77
     6
 78
     2
 67
     7
 79
     5
170
     0
171
     0
290
     0
174
     0
 93
        1
 44
0.0
173
     0
291
     0
 45
0.0
1001
ACAD
1000
AcDbSavedByObjectVersion
1070
     0
  0
VISUALSTYLE
  5
32
102
{ACAD_REACTORS
330
2A
102
}
330
2A
100
AcDbVisualStyle
  2
Basic
 70
     7
 71
     1
 72
     0
 73
     1
 90
        0
 40
-0.6
 41
-30.0
 62
     5
 63
     7
421
 16777215
 74
     0
 91
        4
 64
     7
 65
   257
 75
     1
175
     1
 42
1.0
 92
        8
 66
     7
 43
1.0
 76
     1
 77
     6
 78
     2
 67
     7
 79
     5
170
     0
171
     0
290
     0
174
     0
 93
        1
 44
0.0
173
     0
291
     1
 45
0.0
1001
ACAD
1000
AcDbSavedByObjectVersion
1070
     0
  0
VISUALSTYLE
  5
36
102
{ACAD_REACTORS
330
2A
102
}
330
2A
100
AcDbVisualStyle
  2
Brighten
 70
    12
 71
     2
 72
     2
 73
     0
 90
        0
 40
-0.6
 41
-30.0
 62
     5
 63
     7
421
 16777215
 74
     1
 91
        4
 64
     7
 65
   257
 75
     1
175
     1
 42
1.0
 92
        8
 66
     7
 43
1.0
 76
     1
 77
     6
 78
     2
 67
     7
 79
     5
170
     0
171
     0
290
     0
174
     0
 93
        1
 44
50.0
173
     0
291
     1
 45
0.0
1001
ACAD
1000
AcDbSavedByObjectVersion
1070
     0
  0
VISUALSTYLE
  5
3A
102
{ACAD_REACTORS
330
2A
102
}
330
2A
100
AcDbVisualStyle
  2
ColorChange
 70
    16
 71
     2
 72
     2
 73
     3
 90
        0
 40
-0.6
 41
-30.0
 62
     5
 63
     8
421
  8421504
 74
     1
 91
        4
 64
     7
 65
   257
 75
     1
175
     1
 42
1.0
 92
        8
 66
     8
424
  8421504
 43
1.0
 76
     1
 77
     6
 78
     2
 67
     7
 79
     5
170
     0
171
     0
290
     0
174
     0
 93
        1
 44
0.0
173
     0
291
     1
 45
0.0
1001
ACAD
1000
AcDbSavedByObjectVersion
1070
     0
  0
VISUALSTYLE
  5
34
102
{ACAD_REACTORS
330
2A
102
}
330
2A
100
AcDbVisualStyle
  2
Conceptual
 70
     9
 71
     3
 72
     2
 73
     0
 90
        0
 40
-0.6
 41
-30.0
 62
     5
 63
     7
421
 16777215
 74
     2
 91
        2
 64
     7
 65
   257
 75
     1
175
     1
 42
40.0
 92
        8
 66
     7
 43
1.0
 76
     1
 77
     6
 78
     2
 67
     7
 79
     3
170
     0
171
     0
290
     0
174
     0
 93
        1
 44
0.0
173
     0
291
     0
 45
0.0
1001
ACAD
1000
AcDbSavedByObjectVersion
1070
     0
  0
VISUALSTYLE
  5
35
102
{ACAD_REACTORS
330
2A
102
}
330
2A
100
AcDbVisualStyle
  2
Dim
 70
    11
 71
     2
 72
     2
 73
     0
 90
        0
 40
-0.6
 41
-30.0
 62
     5
 63
     7
421
 16777215
 74
     1
 91
        4
 64
     7
 65
   257
 75
     1
175
     1
 42
1.0
 92
        8
 66
     7
 43
1.0
 76
     1
 77
     6
 78
     2
 67
     7
 79
     5
170
     0
171
     0
290
     0
174
     0
 93
        1
 44
-50.0
173
     0
291
     1
 45
0.0
1001
ACAD
1000
AcDbSavedByObjectVersion
1070
     0
  0
VISUALSTYLE
  5
39
102
{ACAD_REACTORS
330
2A
102
}
330
2A
100
AcDbVisualStyle
  2
Facepattern
 70
    15
 71
     2
 72
     2
 73
     0
 90
        0
 40
-0.6
 41
-30.0
 62
     5
 63
     7
421
 16777215
 74
     1
 91
        4
 64
     7
 65
   257
 75
     1
175
     1
 42
1.0
 92
        8
 66
     7
 43
1.0
 76
     1
 77
     6
 78
     2
 67
     7
 79
     5
170
     0
171
     0
290
     0
174
     0
 93
        1
 44
0.0
173
     0
291
     1
 45
0.0
1001
ACAD
1000
AcDbSavedByObjectVersion
1070
     0
  0
VISUALSTYLE
  5
2B
102
{ACAD_REACTORS
330
2A
102
}
330
2A
100
AcDbVisualStyle
  2
Flat
 70
     0
 71
     2
 72
     1
 73
     1
 90
        2
 40
-0.6
 41
30.0
 62
     5
 63
     7
421
 16777215
 74
     0
 91
        4
 64
     7
 65
   257
 75
     1
175
     1
 42
1.0
 92
        8
 66
     7
 43
1.0
 76
     1
 77
     6
 78
     2
 67
     7
 79
     5
170
     0
171
     0
290
     0
174
     0
 93
       13
 44
0.0
173
     0
291
     1
 45
0.0
1001
ACAD
1000
AcDbSavedByObjectVersion
1070
     0
  0
VISUALSTYLE
  5
2C
102
{ACAD_REACTORS
330
2A
102
}
330
2A
100
AcDbVisualStyle
  2
FlatWithEdges
 70
     1
 71
     2
 72
     1
 73
     1
 90
        2
 40
-0.6
 41
30.0
 62
     5
 63
     7
421
 16777215
 74
     1
 91
        4
 64
     7
 65
   257
 75
     1
175
     1
 42
1.0
 92
        0
 66
   257
 43
1.0
 76
     1
 77
     6
 78
     2
 67
     7
 79
     5
170
     0
171
     0
290
     0
174
     0
 93
       13
 44
0.0
173
     0
291
     1
 45
0.0
1001
ACAD
1000
AcDbSavedByObjectVersion
1070
     0
  0
VISUALSTYLE
  5
2D
102
{ACAD_REACTORS
330
2A
102
}
330
2A
100
AcDbVisualStyle
  2
Gouraud
 70
     2
 71
     2
 72
     2
 73
     1
 90
        2
 40
-0.6
 41
30.0
 62
     5
 63
     7
421
 16777215
 74
     0
 91
        4
 64
     7
 65
   257
 75
     1
175
     1
 42
1.0
 92
        0
 66
     7
 43
1.0
 76
     1
 77
     6
 78
     2
 67
     7
 79
     5
170
     0
171
     0
290
     0
174
     0
 93
       13
 44
0.0
173
     0
291
     1
 45
0.0
1001
ACAD
1000
AcDbSavedByObjectVersion
1070
     0
  0
VISUALSTYLE
  5
2E
102
{ACAD_REACTORS
330
2A
102
}
330
2A
100
AcDbVisualStyle
  2
GouraudWithEdges
 70
     3
 71
     2
 72
     2
 73
     1
 90
        2
 40
-0.6
 41
30.0
 62
     5
 63
     7
421
 16777215
 74
     1
 91
        4
 64
     7
 65
   257
 75
     1
175
     1
 42
1.0
 92
        0
 66
   257
 43
1.0
 76
     1
 77
     6
 78
     2
 67
     7
 79
     5
170
     0
171
     0
290
     0
174
     0
 93
       13
 44
0.0
173
     0
291
     1
 45
0.0
1001
ACAD
1000
AcDbSavedByObjectVersion
1070
     0
  0
VISUALSTYLE
  5
38
102
{ACAD_REACTORS
330
2A
102
}
330
2A
100
AcDbVisualStyle
  2
Linepattern
 70
    14
 71
     2
 72
     2
 73
     0
 90
        0
 40
-0.6
 41
-30.0
 62
     5
 63
     7
421
 16777215
 74
     1
 91
        4
 64
     7
 65
   257
 75
     7
175
     7
 42
1.0
 92
        8
 66
     7
 43
1.0
 76
     1
 77
     6
 78
     2
 67
     7
 79
     5
170
     0
171
     0
290
     0
174
     0
 93
        1
 44
0.0
173
     0
291
     1
 45
0.0
1001
ACAD
1000
AcDbSavedByObjectVersion
1070
     0
  0
VISUALSTYLE
  5
33
102
{ACAD_REACTORS
330
2A
102
}
330
2A
100
AcDbVisualStyle
  2
Realistic
 70
     8
 71
     2
 72
     2
 73
     0
 90
        0
 40
-0.6
 41
-30.0
 62
     5
 63
     7
421
 16777215
 74
     1
 91
        0
 64
     7
 65
   257
 75
     1
175
     1
 42
1.0
 92
        8
 66
     8
424
  7895160
 43
1.0
 76
     1
 77
     6
 78
     2
 67
     7
 79
     5
170
     0
171
     0
290
     0
174
     0
 93
       13
 44
0.0
173
     0
291
     0
 45
0.0
1001
ACAD
1000
AcDbSavedByObjectVersion
1070
     0
  0
VISUALSTYLE
  5
37
102
{ACAD_REACTORS
330
2A
102
}
330
2A
100
AcDbVisualStyle
  2
Thicken
 70
    13
 71
     2
 72
     2
 73
     0
 90
        0
 40
-0.6
 41
-30.0
 62
     5
 63
     7
421
 16777215
 74
     1
 91
        4
 64
     7
 65
   257
 75
     1
175
     1
 42
1.0
 92
       12
 66
     7
 43
1.0
 76
     1
 77
     6
 78
     2
 67
     7
 79
     5
170
     0
171
     0
290
     0
174
     0
 93
        1
 44
0.0
173
     0
291
     1
 45
0.0
1001
ACAD
1000
AcDbSavedByObjectVersion
1070
     0
  0
ENDSEC
  0
EOF
