  0
SECTION
  2
HEADER
  9
$ACADVER
  1
AC1018
  9
$ACADMAINTVER
 70
     0
  9
$DWGCODEPAGE
  3
ANSI_1252
  9
$INSBASE
 10
0.0
 20
0.0
 30
0.0
  9
$EXTMIN
 10
1.000E+20
 20
1.000E+20
 30
1.000E+20
  9
$EXTMAX
 10
-1.000E+20
 20
-1.000E+20
 30
-1.000E+20
  9
$LIMMIN
 10
0.0
 20
0.0
  9
$LIMMAX
 10
420.0
 20
297.0
  9
$ORTHOMODE
 70
     0
  9
$REGENMODE
 70
     1
  9
$FILLMODE
 70
     1
  9
$QTEXTMODE
 70
     0
  9
$MIRRTEXT
 70
     1
  9
$LTSCALE
 40
1.0
  9
$ATTMODE
 70
     1
  9
$TEXTSIZE
 40
2.5
  9
$TRACEWID
 40
1.0
  9
$TEXTSTYLE
  7
Standard
  9
$CLAYER
  8
0
  9
$CELTYPE
  6
ByLayer
  9
$CECOLOR
 62
   256
  9
$CELTSCALE
 40
1.0
  9
$DISPSILH
 70
     0
  9
$DIMSCALE
 40
1.0
  9
$DIMASZ
 40
2.5
  9
$DIMEXO
 40
0.625
  9
$DIMDLI
 40
3.75
  9
$DIMRND
 40
0.0
  9
$DIMDLE
 40
0.0
  9
$DIMEXE
 40
1.25
  9
$DIMTP
 40
0.0
  9
$DIMTM
 40
0.0
  9
$DIMTXT
 40
2.5
  9
$DIMCEN
 40
2.5
  9
$DIMTSZ
 40
0.0
  9
$DIMTOL
 70
     0
  9
$DIMLIM
 70
     0
  9
$DIMTIH
 70
     0
  9
$DIMTOH
 70
     0
  9
$DIMSE1
 70
     0
  9
$DIMSE2
 70
     0
  9
$DIMTAD
 70
     1
  9
$DIMZIN
 70
     8
  9
$DIMBLK
  1

  9
$DIMASO
 70
     1
  9
$DIMSHO
 70
     1
  9
$DIMPOST
  1

  9
$DIMAPOST
  1

  9
$DIMALT
 70
     0
  9
$DIMALTD
 70
     3
  9
$DIMALTF
 40
0.039
  9
$DIMLFAC
 40
1.0
  9
$DIMTOFL
 70
     1
  9
$DIMTVP
 40
0.0
  9
$DIMTIX
 70
     0
  9
$DIMSOXD
 70
     0
  9
$DIMSAH
 70
     0
  9
$DIMBLK1
  1

  9
$DIMBLK2
  1

  9
$DIMSTYLE
  2
ISO-25
  9
$DIMCLRD
 70
     0
  9
$DIMCLRE
 70
     0
  9
$DIMCLRT
 70
     0
  9
$DIMTFAC
 40
1.0
  9
$DIMGAP
 40
0.625
  9
$DIMJUST
 70
     0
  9
$DIMSD1
 70
     0
  9
$DIMSD2
 70
     0
  9
$DIMTOLJ
 70
     0
  9
$DIMTZIN
 70
     8
  9
$DIMALTZ
 70
     0
  9
$DIMALTTZ
 70
     0
  9
$DIMUPT
 70
     0
  9
$DIMDEC
 70
     2
  9
$DIMTDEC
 70
     2
  9
$DIMALTU
 70
     2
  9
$DIMALTTD
 70
     3
  9
$DIMTXSTY
  7
Standard
  9
$DIMAUNIT
 70
     0
  9
$DIMADEC
 70
     0
  9
$DIMALTRND
 40
0.0
  9
$DIMAZIN
 70
     0
  9
$DIMDSEP
 70
    44
  9
$DIMATFIT
 70
     3
  9
$DIMFRAC
 70
     0
  9
$DIMLDRBLK
  1

  9
$DIMLUNIT
 70
     2
  9
$DIMLWD
 70
    -2
  9
$DIMLWE
 70
    -2
  9
$DIMTMOVE
 70
     0
  9
$LUNITS
 70
     2
  9
$LUPREC
 70
     4
  9
$SKETCHINC
 40
1.0
  9
$FILLETRAD
 40
10.0
  9
$AUNITS
 70
     0
  9
$AUPREC
 70
     0
  9
$MENU
  1
.
  9
$ELEVATION
 40
0.0
  9
$PELEVATION
 40
0.0
  9
$THICKNESS
 40
0.0
  9
$LIMCHECK
 70
     0
  9
$CHAMFERA
 40
10.0
  9
$CHAMFERB
 40
10.0
  9
$CHAMFERC
 40
20.0
  9
$CHAMFERD
 40
0.0
  9
$SKPOLY
 70
     0
  9
$TDCREATE
 40
2455813.761873877
  9
$TDUCREATE
 40
2455813.678540544
  9
$TDUPDATE
 40
2455813.761873889
  9
$TDUUPDATE
 40
2455813.678540556
  9
$TDINDWG
 40
0.0000000116
  9
$TDUSRTIMER
 40
0.0000000116
  9
$USRTIMER
 70
     1
  9
$ANGBASE
 50
0.0
  9
$ANGDIR
 70
     0
  9
$PDMODE
 70
     0
  9
$PDSIZE
 40
0.0
  9
$PLINEWID
 40
0.0
  9
$SPLFRAME
 70
     0
  9
$SPLINETYPE
 70
     6
  9
$SPLINESEGS
 70
     8
  9
$HANDSEED
  5
241
  9
$SURFTAB1
 70
     6
  9
$SURFTAB2
 70
     6
  9
$SURFTYPE
 70
     6
  9
$SURFU
 70
     6
  9
$SURFV
 70
     6
  9
$UCSBASE
  2

  9
$UCSNAME
  2

  9
$UCSORG
 10
0.0
 20
0.0
 30
0.0
  9
$UCSXDIR
 10
1.0
 20
0.0
 30
0.0
  9
$UCSYDIR
 10
0.0
 20
1.0
 30
0.0
  9
$UCSORTHOREF
  2

  9
$UCSORTHOVIEW
 70
     0
  9
$UCSORGTOP
 10
0.0
 20
0.0
 30
0.0
  9
$UCSORGBOTTOM
 10
0.0
 20
0.0
 30
0.0
  9
$UCSORGLEFT
 10
0.0
 20
0.0
 30
0.0
  9
$UCSORGRIGHT
 10
0.0
 20
0.0
 30
0.0
  9
$UCSORGFRONT
 10
0.0
 20
0.0
 30
0.0
  9
$UCSORGBACK
 10
0.0
 20
0.0
 30
0.0
  9
$PUCSBASE
  2

  9
$PUCSNAME
  2

  9
$PUCSORG
 10
0.0
 20
0.0
 30
0.0
  9
$PUCSXDIR
 10
1.0
 20
0.0
 30
0.0
  9
$PUCSYDIR
 10
0.0
 20
1.0
 30
0.0
  9
$PUCSORTHOREF
  2

  9
$PUCSORTHOVIEW
 70
     0
  9
$PUCSORGTOP
 10
0.0
 20
0.0
 30
0.0
  9
$PUCSORGBOTTOM
 10
0.0
 20
0.0
 30
0.0
  9
$PUCSORGLEFT
 10
0.0
 20
0.0
 30
0.0
  9
$PUCSORGRIGHT
 10
0.0
 20
0.0
 30
0.0
  9
$PUCSORGFRONT
 10
0.0
 20
0.0
 30
0.0
  9
$PUCSORGBACK
 10
0.0
 20
0.0
 30
0.0
  9
$USERI1
 70
     0
  9
$USERI2
 70
     0
  9
$USERI3
 70
     0
  9
$USERI4
 70
     0
  9
$USERI5
 70
     0
  9
$USERR1
 40
0.0
  9
$USERR2
 40
0.0
  9
$USERR3
 40
0.0
  9
$USERR4
 40
0.0
  9
$USERR5
 40
0.0
  9
$WORLDVIEW
 70
     1
  9
$SHADEDGE
 70
     3
  9
$SHADEDIF
 70
    70
  9
$TILEMODE
 70
     1
  9
$MAXACTVP
 70
    64
  9
$PINSBASE
 10
0.0
 20
0.0
 30
0.0
  9
$PLIMCHECK
 70
     0
  9
$PEXTMIN
 10
1.000E+20
 20
1.000E+20
 30
1.000E+20
  9
$PEXTMAX
 10
-1.000E+20
 20
-1.000E+20
 30
-1.000E+20
  9
$PLIMMIN
 10
0.0
 20
0.0
  9
$PLIMMAX
 10
420.0
 20
297.0
  9
$UNITMODE
 70
     0
  9
$VISRETAIN
 70
     1
  9
$PLINEGEN
 70
     0
  9
$PSLTSCALE
 70
     1
  9
$TREEDEPTH
 70
  3020
  9
$CMLSTYLE
  2
Standard
  9
$CMLJUST
 70
     0
  9
$CMLSCALE
 40
20.0
  9
$PROXYGRAPHICS
 70
     1
  9
$MEASUREMENT
 70
     1
  9
$CELWEIGHT
370
    -1
  9
$ENDCAPS
280
     0
  9
$JOINSTYLE
280
     0
  9
$LWDISPLAY
290
     0
  9
$INSUNITS
 70
     4
  9
$HYPERLINKBASE
  1

  9
$STYLESHEET
  1

  9
$XEDIT
290
     1
  9
$CEPSNTYPE
380
     0
  9
$PSTYLEMODE
290
     1
  9
$FINGERPRINTGUID
  2
{FE27D160-9EDD-4CA1-AF8A-9E2AF3538744}
  9
$VERSIONGUID
  2
{FAEB1C32-E019-11D5-929B-00C0DF256EC4}
  9
$EXTNAMES
290
     1
  9
$PSVPSCALE
 40
0.0
  9
$OLESTARTUP
290
     0
  9
$SORTENTS
280
   127
  9
$INDEXCTL
280
     0
  9
$HIDETEXT
280
     1
  9
$XCLIPFRAME
290
     0
  9
$HALOGAP
280
     0
  9
$OBSCOLOR
 70
   257
  9
$OBSLTYPE
280
     0
  9
$INTERSECTIONDISPLAY
280
     0
  9
$INTERSECTIONCOLOR
 70
   257
  9
$DIMASSOC
280
     2
  9
$PROJECTNAME
  1

  0
ENDSEC
  0
SECTION
  2
CLASSES
  0
CLASS
  1
ACDBDICTIONARYWDFLT
  2
AcDbDictionaryWithDefault
  3
ObjectDBX Classes
 90
        0
 91
        4
280
     0
281
     0
  0
CLASS
  1
VISUALSTYLE
  2
AcDbVisualStyle
  3
ObjectDBX Classes
 90
     4095
 91
        4
280
     0
281
     0
  0
ENDSEC
  0
SECTION
  2
TABLES
  0
TABLE
  2
VPORT
  5
8
330
0
100
AcDbSymbolTable
 70
     1
  0
VPORT
  5
29
330
8
100
AcDbSymbolTableRecord
100
AcDbViewportTableRecord
  2
*Active
 70
     0
 10
0.0
 20
0.0
 11
1.0
 21
1.0
 12
344.187
 22
148.5
 13
0.0
 23
0.0
 14
10.0
 24
10.0
 15
10.0
 25
10.0
 16
0.0
 26
0.0
 36
1.0
 17
0.0
 27
0.0
 37
0.0
 40
297.0
 41
1.973
 42
50.0
 43
0.0
 44
0.0
 50
0.0
 51
0.0
 71
     0
 72
   100
 73
     1
 74
     3
 75
     0
 76
     0
 77
     0
 78
     0
281
     0
 65
     1
110
0.0
120
0.0
130
0.0
111
1.0
121
0.0
131
0.0
112
0.0
122
1.0
132
0.0
 79
     0
146
0.0
  0
ENDTAB
  0
TABLE
  2
LTYPE
  5
5
330
0
100
AcDbSymbolTable
 70
     2
  0
LTYPE
  5
14
330
5
100
AcDbSymbolTableRecord
100
AcDbLinetypeTableRecord
  2
ByBlock
 70
     0
  3

 72
    65
 73
     0
 40
0.0
  0
LTYPE
  5
15
330
5
100
AcDbSymbolTableRecord
100
AcDbLinetypeTableRecord
  2
ByLayer
 70
     0
  3

 72
    65
 73
     0
 40
0.0
  0
LTYPE
  5
16
330
5
100
AcDbSymbolTableRecord
100
AcDbLinetypeTableRecord
  2
Continuous
 70
     0
  3
Solid line
 72
    65
 73
     0
 40
0.0
  0
LTYPE
  5
CB
330
5
100
AcDbSymbolTableRecord
100
AcDbLinetypeTableRecord
  2
HIDDEN2
 70
     0
  3
Hidden (.5x) _ _ _ _ _ _ _ _ _ _ _ _ _ _ _ _ _ 
 72
    65
 73
     2
 40
4.762
 49
3.175
 74
     0
 49
-1.587
 74
     0
  0
ENDTAB
  0
TABLE
  2
LAYER
  5
2
330
0
100
AcDbSymbolTable
 70
     1
  0
LAYER
  5
10
330
2
100
AcDbSymbolTableRecord
100
AcDbLayerTableRecord
  2
0
 70
     0
 62
    72
  6
Continuous
370
     0
390
F
  0
ENDTAB
  0
TABLE
  2
STYLE
  5
3
330
0
100
AcDbSymbolTable
 70
     3
  0
STYLE
  5
11
330
3
100
AcDbSymbolTableRecord
100
AcDbTextStyleTableRecord
  2
Standard
 70
     0
 40
0.0
 41
1.0
 50
0.0
 71
     0
 42
2.5
  3
txt
  4

  0
STYLE
  5
3B
330
3
100
AcDbSymbolTableRecord
100
AcDbTextStyleTableRecord
  2
Default
 70
     0
 40
0.0
 41
1.0
 50
0.0
 71
     0
 42
0.2
  3

  4

1001
ACAD
1000
txt
1071
        0
  0
STYLE
  5
3C
330
3
100
AcDbSymbolTableRecord
100
AcDbTextStyleTableRecord
  2
ISO
 70
     0
 40
0.0
 41
1.0
 50
0.0
 71
     0
 42
0.2
  3

  4

1001
ACAD
1000
txt
1071
        0
  0
ENDTAB
  0
TABLE
  2
VIEW
  5
6
330
0
100
AcDbSymbolTable
 70
     0
  0
ENDTAB
  0
TABLE
  2
UCS
  5
7
330
0
100
AcDbSymbolTable
 70
     0
  0
ENDTAB
  0
TABLE
  2
APPID
  5
9
330
0
100
AcDbSymbolTable
 70
     1
  0
APPID
  5
12
330
9
100
AcDbSymbolTableRecord
100
AcDbRegAppTableRecord
  2
ACAD
 70
     0
  0
ENDTAB
  0
TABLE
  2
DIMSTYLE
  5
A
330
0
100
AcDbSymbolTable
 70
     3
100
AcDbDimStyleTable
  0
DIMSTYLE
105
27
330
A
100
AcDbSymbolTableRecord
100
AcDbDimStyleTableRecord
  2
ISO-25
 70
     0
 41
2.5
 42
0.625
 43
3.75
 44
1.25
 73
     0
 74
     0
 77
     1
 78
     8
140
2.5
141
2.5
143
0.039
147
0.625
171
     3
172
     1
271
     2
272
     2
274
     3
278
    44
283
     0
284
     8
340
11
  0
DIMSTYLE
105
3D
330
A
100
AcDbSymbolTableRecord
100
AcDbDimStyleTableRecord
  2
Default
 70
     0
  3
<>
 41
4.375
 42
1.05
 44
2.1
 73
     0
 74
     0
 77
     1
 78
     8
140
3.5
146
0.4
147
1.75
178
    12
271
     2
272
     3
284
     8
340
3B
341
3E
342
3E
  0
DIMSTYLE
105
45
330
A
100
AcDbSymbolTableRecord
100
AcDbDimStyleTableRecord
  2
ISO
 70
     0
  3
<>
 41
4.375
 42
1.05
 44
2.1
 73
     0
 74
     0
 77
     1
 78
     8
140
3.5
146
0.4
147
1.75
178
    12
271
     2
272
     3
284
     8
340
3C
341
3E
342
3E
  0
ENDTAB
  0
TABLE
  2
BLOCK_RECORD
  5
1
330
0
100
AcDbSymbolTable
 70
     7
  0
BLOCK_RECORD
  5
1F
330
1
100
AcDbSymbolTableRecord
100
AcDbBlockTableRecord
  2
*Model_Space
340
22
  0
BLOCK_RECORD
  5
1B
330
1
100
AcDbSymbolTableRecord
100
AcDbBlockTableRecord
  2
*Paper_Space
340
1E
  0
BLOCK_RECORD
  5
23
330
1
100
AcDbSymbolTableRecord
100
AcDbBlockTableRecord
  2
*Paper_Space0
340
26
  0
BLOCK_RECORD
  5
3E
330
1
100
AcDbSymbolTableRecord
100
AcDbBlockTableRecord
  2
_CLOSED
340
0
  0
BLOCK_RECORD
  5
46
330
1
100
AcDbSymbolTableRecord
100
AcDbBlockTableRecord
  2
a
340
0
102
{BLKREFS
331
C6
102
}
  0
BLOCK_RECORD
  5
C7
330
1
100
AcDbSymbolTableRecord
100
AcDbBlockTableRecord
  2
b
340
0
102
{BLKREFS
331
106
102
}
  0
BLOCK_RECORD
  5
107
330
1
100
AcDbSymbolTableRecord
100
AcDbBlockTableRecord
  2
c
340
0
102
{BLKREFS
331
15B
102
}
  0
BLOCK_RECORD
  5
15C
330
1
100
AcDbSymbolTableRecord
100
AcDbBlockTableRecord
  2
d
340
0
102
{BLKREFS
331
1CE
102
}
  0
BLOCK_RECORD
  5
1CF
330
1
100
AcDbSymbolTableRecord
100
AcDbBlockTableRecord
  2
e
340
0
102
{BLKREFS
331
23E
102
}
  0
ENDTAB
  0
ENDSEC
  0
SECTION
  2
BLOCKS
  0
BLOCK
  5
20
330
1F
100
AcDbEntity
  8
0
100
AcDbBlockBegin
  2
*Model_Space
 70
     0
 10
0.0
 20
0.0
 30
0.0
  3
*Model_Space
  1

  0
ENDBLK
  5
21
330
1F
100
AcDbEntity
  8
0
100
AcDbBlockEnd
  0
BLOCK
  5
1C
330
1B
100
AcDbEntity
 67
     1
  8
0
100
AcDbBlockBegin
  2
*Paper_Space
 70
     0
 10
0.0
 20
0.0
 30
0.0
  3
*Paper_Space
  1

  0
ENDBLK
  5
1D
330
1B
100
AcDbEntity
 67
     1
  8
0
100
AcDbBlockEnd
  0
BLOCK
  5
24
330
23
100
AcDbEntity
  8
0
100
AcDbBlockBegin
  2
*Paper_Space0
 70
     0
 10
0.0
 20
0.0
 30
0.0
  3
*Paper_Space0
  1

  0
ENDBLK
  5
25
330
23
100
AcDbEntity
  8
0
100
AcDbBlockEnd
  0
BLOCK
  5
3F
330
3E
100
AcDbEntity
  8
0
100
AcDbBlockBegin
  2
_CLOSED
 70
     0
 10
0.0
 20
0.0
 30
0.0
  3
_CLOSED
  1

  0
LINE
  5
41
330
3E
100
AcDbEntity
  8
0
  6
ByBlock
 62
     0
370
    -2
100
AcDbLine
 10
-1.0
 20
0.167
 30
0.0
 11
0.0
 21
0.0
 31
0.0
  0
LINE
  5
42
330
3E
100
AcDbEntity
  8
0
  6
ByBlock
 62
     0
370
    -2
100
AcDbLine
 10
0.0
 20
0.0
 30
0.0
 11
-1.0
 21
-0.167
 31
0.0
  0
LINE
  5
43
330
3E
100
AcDbEntity
  8
0
  6
ByBlock
 62
     0
370
    -2
100
AcDbLine
 10
-1.0
 20
0.167
 30
0.0
 11
-1.0
 21
-0.167
 31
0.0
  0
LINE
  5
44
330
3E
100
AcDbEntity
  8
0
  6
ByBlock
 62
     0
370
    -2
100
AcDbLine
 10
0.0
 20
0.0
 30
0.0
 11
-1.0
 21
0.0
 31
0.0
  0
ENDBLK
  5
40
330
3E
100
AcDbEntity
  8
0
100
AcDbBlockEnd
  0
BLOCK
  5
C4
330
46
100
AcDbEntity
  8
0
100
AcDbBlockBegin
  2
a
 70
     0
 10
15.396
 20
20.616
 30
0.0
  3
a
  1

  0
LINE
  5
47
330
46
100
AcDbEntity
  8
0
  6
Continuous
 62
     0
370
    30
100
AcDbLine
 10
38.129
 20
30.106
 30
0.0
 11
57.144
 21
30.106
 31
0.0
  0
LINE
  5
48
330
46
100
AcDbEntity
  8
0
  6
Continuous
 62
     0
370
    30
100
AcDbLine
 10
57.144
 20
35.106
 30
0.0
 11
38.129
 21
35.106
 31
0.0
  0
ARC
  5
49
330
46
100
AcDbEntity
  8
0
  6
Continuous
 62
     0
370
    30
100
AcDbCircle
 10
67.636
 20
32.606
 30
0.0
 40
4.75
100
AcDbArc
 50
180.0
 51
211.757
  0
ARC
  5
4A
330
46
100
AcDbEntity
  8
0
  6
Continuous
 62
     0
370
    30
100
AcDbCircle
 10
67.636
 20
32.606
 30
0.0
 40
4.75
100
AcDbArc
 50
148.243
 51
180.0
  0
CIRCLE
  5
4B
330
46
100
AcDbEntity
  8
0
  6
Continuous
 62
     0
370
    30
100
AcDbCircle
 10
67.636
 20
32.606
 30
0.0
 40
2.5
  0
ARC
  5
4C
330
46
100
AcDbEntity
  8
0
  6
Continuous
 62
     0
370
    30
100
AcDbCircle
 10
27.636
 20
32.606
 30
0.0
 40
4.75
100
AcDbArc
 50
328.243
 51
31.757
  0
CIRCLE
  5
4D
330
46
100
AcDbEntity
  8
0
  6
Continuous
 62
     0
370
    30
100
AcDbCircle
 10
27.636
 20
32.606
 30
0.0
 40
2.5
  0
LINE
  5
4E
330
46
100
AcDbEntity
  8
0
  6
Continuous
 62
     0
370
    30
100
AcDbLine
 10
31.675
 20
30.106
 30
0.0
 11
38.129
 21
30.106
 31
0.0
  0
LINE
  5
4F
330
46
100
AcDbEntity
  8
0
  6
Continuous
 62
     0
370
    30
100
AcDbLine
 10
31.675
 20
35.106
 30
0.0
 11
38.129
 21
35.106
 31
0.0
  0
LINE
  5
50
330
46
100
AcDbEntity
  8
0
  6
Continuous
 62
     0
370
    30
100
AcDbLine
 10
63.598
 20
35.106
 30
0.0
 11
57.144
 21
35.106
 31
0.0
  0
LINE
  5
51
330
46
100
AcDbEntity
  8
0
  6
Continuous
 62
     0
370
    30
100
AcDbLine
 10
63.598
 20
30.106
 30
0.0
 11
57.144
 21
30.106
 31
0.0
  0
LINE
  5
52
330
46
100
AcDbEntity
  8
0
  6
Continuous
 62
     0
370
    30
100
AcDbLine
 10
54.636
 20
22.106
 30
0.0
 11
47.636
 21
22.106
 31
0.0
  0
LINE
  5
53
330
46
100
AcDbEntity
  8
0
  6
Continuous
 62
     0
370
    30
100
AcDbLine
 10
47.636
 20
22.106
 30
0.0
 11
40.636
 21
22.106
 31
0.0
  0
LINE
  5
54
330
46
100
AcDbEntity
  8
0
  6
Continuous
 62
     0
370
    30
100
AcDbLine
 10
40.636
 20
43.106
 30
0.0
 11
54.636
 21
43.106
 31
0.0
  0
LINE
  5
55
330
46
100
AcDbEntity
  8
0
  6
Continuous
 62
     0
370
     0
100
AcDbLine
 10
38.129
 20
23.606
 30
0.0
 11
57.144
 21
23.606
 31
0.0
  0
LINE
  5
56
330
46
100
AcDbEntity
  8
0
  6
Continuous
 62
     0
370
    30
100
AcDbLine
 10
38.993
 20
22.606
 30
0.0
 11
56.28
 21
22.606
 31
0.0
  0
LINE
  5
57
330
46
100
AcDbEntity
  8
0
  6
Continuous
 62
     0
370
     0
100
AcDbLine
 10
57.144
 20
41.606
 30
0.0
 11
38.129
 21
41.606
 31
0.0
  0
LINE
  5
58
330
46
100
AcDbEntity
  8
0
  6
Continuous
 62
     0
370
    30
100
AcDbLine
 10
56.28
 20
42.606
 30
0.0
 11
38.993
 21
42.606
 31
0.0
  0
LINE
  5
59
330
46
100
AcDbEntity
  8
0
  6
Continuous
 62
     0
370
     0
100
AcDbLine
 10
57.144
 20
30.106
 30
0.0
 11
57.144
 21
23.606
 31
0.0
  0
ELLIPSE
  5
5A
330
46
100
AcDbEntity
  8
0
  6
Continuous
 62
     0
370
     0
100
AcDbEllipse
 10
56.28
 20
23.606
 30
0.0
 11
-1.052338350350288E-16
 21
-1.000000000000001
 31
0.0
210
0.0
220
0.0
230
1.0
 40
0.864
 41
6.283185307179586
 42
7.853981633974483
  0
LINE
  5
5B
330
46
100
AcDbEntity
  8
0
  6
Continuous
 62
     0
370
     0
100
AcDbLine
 10
38.129
 20
30.106
 30
0.0
 11
38.129
 21
23.606
 31
0.0
  0
ELLIPSE
  5
5C
330
46
100
AcDbEntity
  8
0
  6
Continuous
 62
     0
370
     0
100
AcDbEllipse
 10
38.993
 20
23.606
 30
0.0
 11
-7.279689977421476E-15
 21
0.9999999999999988
 31
0.0
210
0.0
220
0.0
230
1.0
 40
0.864
 41
1.57079632679489
 42
3.141592653589793
  0
LINE
  5
5D
330
46
100
AcDbEntity
  8
0
  6
Continuous
 62
     0
370
     0
100
AcDbLine
 10
57.144
 20
41.606
 30
0.0
 11
57.144
 21
35.106
 31
0.0
  0
ELLIPSE
  5
5E
330
46
100
AcDbEntity
  8
0
  6
Continuous
 62
     0
370
     0
100
AcDbEllipse
 10
56.28
 20
41.606
 30
0.0
 11
1.052338350350198E-16
 21
1.000000000000001
 31
0.0
210
0.0
220
0.0
230
-1.0
 40
0.864
 41
0.0
 42
1.570796326794893
  0
LINE
  5
5F
330
46
100
AcDbEntity
  8
0
  6
Continuous
 62
     0
370
     0
100
AcDbLine
 10
38.129
 20
41.606
 30
0.0
 11
38.129
 21
35.106
 31
0.0
  0
ELLIPSE
  5
60
330
46
100
AcDbEntity
  8
0
  6
Continuous
 62
     0
370
     0
100
AcDbEllipse
 10
38.993
 20
41.606
 30
0.0
 11
-1.052338350350283E-16
 21
0.9999999999999988
 31
0.0
210
0.0
220
0.0
230
1.0
 40
0.864
 41
6.283185307179586
 42
7.853981633974483
  0
LINE
  5
61
330
46
100
AcDbEntity
  8
0
  6
Continuous
 62
     0
370
    30
100
AcDbLine
 10
40.636
 20
22.106
 30
0.0
 11
27.136
 21
22.106
 31
0.0
  0
LINE
  5
62
330
46
100
AcDbEntity
  8
0
  6
Continuous
 62
     0
370
    30
100
AcDbLine
 10
68.136
 20
22.106
 30
0.0
 11
54.636
 21
22.106
 31
0.0
  0
ARC
  5
63
330
46
100
AcDbEntity
  8
0
  6
Continuous
 62
     0
370
    30
100
AcDbCircle
 10
68.136
 20
32.606
 30
0.0
 40
10.5
100
AcDbArc
 50
270.0
 51
360.0
  0
ARC
  5
64
330
46
100
AcDbEntity
  8
0
  6
Continuous
 62
     0
370
     0
100
AcDbCircle
 10
68.136
 20
32.606
 30
0.0
 40
10.0
100
AcDbArc
 50
270.0
 51
360.0
  0
ARC
  5
65
330
46
100
AcDbEntity
  8
0
  6
Continuous
 62
     0
370
    30
100
AcDbCircle
 10
68.136
 20
32.606
 30
0.0
 40
10.5
100
AcDbArc
 50
0.0
 51
90.0
  0
ARC
  5
66
330
46
100
AcDbEntity
  8
0
  6
Continuous
 62
     0
370
     0
100
AcDbCircle
 10
68.136
 20
32.606
 30
0.0
 40
10.0
100
AcDbArc
 50
0.0
 51
90.0
  0
LINE
  5
67
330
46
100
AcDbEntity
  8
0
  6
Continuous
 62
     0
370
    30
100
AcDbLine
 10
54.636
 20
43.106
 30
0.0
 11
68.136
 21
43.106
 31
0.0
  0
LINE
  5
68
330
46
100
AcDbEntity
  8
0
  6
Continuous
 62
     0
370
    30
100
AcDbLine
 10
27.136
 20
43.106
 30
0.0
 11
40.636
 21
43.106
 31
0.0
  0
ARC
  5
69
330
46
100
AcDbEntity
  8
0
  6
Continuous
 62
     0
370
    30
100
AcDbCircle
 10
27.136
 20
32.606
 30
0.0
 40
10.5
100
AcDbArc
 50
90.0
 51
180.0
  0
ARC
  5
6A
330
46
100
AcDbEntity
  8
0
  6
Continuous
 62
     0
370
     0
100
AcDbCircle
 10
27.136
 20
32.606
 30
0.0
 40
10.0
100
AcDbArc
 50
90.0
 51
180.0
  0
ARC
  5
6B
330
46
100
AcDbEntity
  8
0
  6
Continuous
 62
     0
370
    30
100
AcDbCircle
 10
27.136
 20
32.606
 30
0.0
 40
10.5
100
AcDbArc
 50
180.0
 51
270.0
  0
ARC
  5
6C
330
46
100
AcDbEntity
  8
0
  6
Continuous
 62
     0
370
     0
100
AcDbCircle
 10
27.136
 20
32.606
 30
0.0
 40
10.0
100
AcDbArc
 50
180.0
 51
270.0
  0
LINE
  5
6D
330
46
100
AcDbEntity
  8
0
  6
Continuous
 62
     0
370
     0
100
AcDbLine
 10
68.136
 20
22.106
 30
0.0
 11
68.136
 21
22.606
 31
0.0
  0
LINE
  5
6E
330
46
100
AcDbEntity
  8
0
  6
Continuous
 62
     0
370
     0
100
AcDbLine
 10
27.136
 20
22.606
 30
0.0
 11
27.136
 21
22.106
 31
0.0
  0
LINE
  5
6F
330
46
100
AcDbEntity
  8
0
  6
Continuous
 62
     0
370
     0
100
AcDbLine
 10
78.136
 20
32.606
 30
0.0
 11
78.636
 21
32.606
 31
0.0
  0
LINE
  5
70
330
46
100
AcDbEntity
  8
0
  6
Continuous
 62
     0
370
     0
100
AcDbLine
 10
27.136
 20
43.106
 30
0.0
 11
27.136
 21
42.606
 31
0.0
  0
LINE
  5
71
330
46
100
AcDbEntity
  8
0
  6
Continuous
 62
     0
370
     0
100
AcDbLine
 10
68.136
 20
42.606
 30
0.0
 11
68.136
 21
43.106
 31
0.0
  0
LINE
  5
72
330
46
100
AcDbEntity
  8
0
  6
Continuous
 62
     0
370
     0
100
AcDbLine
 10
17.136
 20
32.606
 30
0.0
 11
16.636
 21
32.606
 31
0.0
  0
LINE
  5
73
330
46
100
AcDbEntity
  8
0
  6
Continuous
 62
     0
370
     0
100
AcDbLine
 10
67.492
 20
27.858
 30
0.0
 11
67.492
 21
23.606
 31
0.0
  0
LINE
  5
74
330
46
100
AcDbEntity
  8
0
  6
Continuous
 62
     0
370
     0
100
AcDbLine
 10
67.924
 20
27.865
 30
0.0
 11
67.924
 21
23.606
 31
0.0
  0
SPLINE
  5
75
330
46
100
AcDbEntity
  8
0
  6
Continuous
 62
     0
370
     0
100
AcDbSpline
210
0.0
220
0.0
230
1.0
 70
     8
 71
     3
 72
    14
 73
    10
 74
     0
 42
0.0
 43
0.0
 40
-3.323261350731898
 40
-3.323261350731898
 40
-3.323261350731898
 40
-3.323261350731898
 40
-3.212986268545334
 40
-3.10271118635877
 40
-2.992436104172205
 40
-2.882161021985641
 40
-2.771885939799076
 40
-2.661610857612512
 40
-2.551335775425948
 40
-2.551335775425948
 40
-2.551335775425948
 40
-2.551335775425948
 10
67.49188161692999
 20
23.60589826107025
 30
0.0
 10
67.49188161692999
 20
23.57114932505945
 30
0.0
 10
67.48715623305253
 20
23.50165153213058
 30
0.0
 10
67.46596896468198
 20
23.39853664420824
 30
0.0
 10
67.43091254613765
 20
23.29767321449305
 30
0.0
 10
67.38236760320046
 20
23.20015635089592
 30
0.0
 10
67.32086122046505
 20
23.10704485858591
 30
0.0
 10
67.24706118837078
 20
23.01934968345236
 30
0.0
 10
67.19019963946693
 20
22.96513192209224
 30
0.0
 10
67.1600077840599
 20
22.93923159440358
 30
0.0
  0
SPLINE
  5
76
330
46
100
AcDbEntity
  8
0
  6
Continuous
 62
     0
370
     0
100
AcDbSpline
210
0.0
220
0.0
230
1.0
 70
     8
 71
     3
 72
    14
 73
    10
 74
     0
 42
0.0
 43
0.0
 40
-4.836507031854486
 40
-4.836507031854486
 40
-4.836507031854486
 40
-4.836507031854486
 40
-4.676018236618389
 40
-4.51552944138229
 40
-4.355040646146192
 40
-4.194551850910094
 40
-4.034063055673997
 40
-3.873574260437898
 40
-3.7130854652018
 40
-3.7130854652018
 40
-3.7130854652018
 40
-3.7130854652018
 10
67.92404617923363
 20
23.60589826107025
 30
0.0
 10
67.92404617923363
 20
23.55377485705404
 30
0.0
 10
67.91775387581691
 20
23.44952816766076
 30
0.0
 10
67.88954098886069
 20
23.29485583577721
 30
0.0
 10
67.842859993643
 20
23.14356069120444
 30
0.0
 10
67.77821773002368
 20
22.99728539580875
 30
0.0
 10
67.69631606186847
 20
22.85761815734375
 30
0.0
 10
67.5980442164174
 20
22.72607539464342
 30
0.0
 10
67.52232759154049
 20
22.64474875260323
 30
0.0
 10
67.48212423031904
 20
22.60589826107025
 30
0.0
  0
LINE
  5
77
330
46
100
AcDbEntity
  8
0
  6
Continuous
 62
     0
370
     0
100
AcDbLine
 10
40.636
 20
22.356
 30
0.0
 11
29.006
 21
22.356
 31
0.0
  0
LINE
  5
78
330
46
100
AcDbEntity
  8
0
  6
Continuous
 62
     0
370
     0
100
AcDbLine
 10
66.267
 20
22.356
 30
0.0
 11
54.636
 21
22.356
 31
0.0
  0
SPLINE
  5
79
330
46
100
AcDbEntity
  8
0
  6
Continuous
 62
     0
370
     0
100
AcDbSpline
210
0.0
220
0.0
230
1.0
 70
     8
 71
     3
 72
    14
 73
    10
 74
     0
 42
0.0
 43
0.0
 40
-3.323261350731809
 40
-3.323261350731809
 40
-3.323261350731809
 40
-3.323261350731809
 40
-3.212986268545246
 40
-3.102711186358684
 40
-2.992436104172121
 40
-2.882161021985559
 40
-2.771885939798997
 40
-2.661610857612434
 40
-2.551335775425872
 40
-2.551335775425872
 40
-2.551335775425872
 40
-2.551335775425872
 10
27.78111337818724
 20
23.60589826107025
 30
0.0
 10
27.78111337818724
 20
23.57114932505945
 30
0.0
 10
27.78583876206469
 20
23.50165153213059
 30
0.0
 10
27.80702603043524
 20
23.39853664420824
 30
0.0
 10
27.84208244897957
 20
23.29767321449305
 30
0.0
 10
27.89062739191675
 20
23.20015635089592
 30
0.0
 10
27.95213377465215
 20
23.10704485858591
 30
0.0
 10
28.02593380674644
 20
23.01934968345236
 30
0.0
 10
28.08279535565029
 20
22.96513192209224
 30
0.0
 10
28.11298721105732
 20
22.93923159440359
 30
0.0
  0
SPLINE
  5
7A
330
46
100
AcDbEntity
  8
0
  6
Continuous
 62
     0
370
     0
100
AcDbSpline
210
0.0
220
0.0
230
1.0
 70
     8
 71
     3
 72
    14
 73
    10
 74
     0
 42
0.0
 43
0.0
 40
-4.836507031854392
 40
-4.836507031854392
 40
-4.836507031854392
 40
-4.836507031854392
 40
-4.676018236618296
 40
-4.5155294413822
 40
-4.355040646146104
 40
-4.194551850910007
 40
-4.034063055673911
 40
-3.873574260437814
 40
-3.713085465201718
 40
-3.713085465201718
 40
-3.713085465201718
 40
-3.713085465201718
 10
27.34894881588359
 20
23.60589826107025
 30
0.0
 10
27.34894881588359
 20
23.55377485705404
 30
0.0
 10
27.35524111930032
 20
23.44952816766077
 30
0.0
 10
27.38345400625653
 20
23.29485583577721
 30
0.0
 10
27.43013500147421
 20
23.14356069120444
 30
0.0
 10
27.49477726509352
 20
22.99728539580875
 30
0.0
 10
27.57667893324874
 20
22.85761815734375
 30
0.0
 10
27.67495077869981
 20
22.72607539464342
 30
0.0
 10
27.75066740357673
 20
22.64474875260323
 30
0.0
 10
27.79087076479819
 20
22.60589826107025
 30
0.0
  0
LINE
  5
7B
330
46
100
AcDbEntity
  8
0
  6
Continuous
 62
     0
370
     0
100
AcDbLine
 10
27.781
 20
27.858
 30
0.0
 11
27.781
 21
23.606
 31
0.0
  0
LINE
  5
7C
330
46
100
AcDbEntity
  8
0
  6
Continuous
 62
     0
370
     0
100
AcDbLine
 10
27.349
 20
27.865
 30
0.0
 11
27.349
 21
23.606
 31
0.0
  0
LINE
  5
7D
330
46
100
AcDbEntity
  8
0
  6
Continuous
 62
     0
370
     0
100
AcDbLine
 10
67.492
 20
41.606
 30
0.0
 11
67.492
 21
37.354
 31
0.0
  0
LINE
  5
7E
330
46
100
AcDbEntity
  8
0
  6
Continuous
 62
     0
370
     0
100
AcDbLine
 10
67.924
 20
41.606
 30
0.0
 11
67.924
 21
37.347
 31
0.0
  0
SPLINE
  5
7F
330
46
100
AcDbEntity
  8
0
  6
Continuous
 62
     0
370
     0
100
AcDbSpline
210
0.0
220
0.0
230
1.0
 70
     8
 71
     3
 72
    14
 73
    10
 74
     0
 42
0.0
 43
0.0
 40
-3.32326135073187
 40
-3.32326135073187
 40
-3.32326135073187
 40
-3.32326135073187
 40
-3.212986268545306
 40
-3.102711186358743
 40
-2.992436104172179
 40
-2.882161021985616
 40
-2.771885939799052
 40
-2.661610857612488
 40
-2.551335775425925
 40
-2.551335775425925
 40
-2.551335775425925
 40
-2.551335775425925
 10
67.49188161692999
 20
41.60589826107025
 30
0.0
 10
67.49188161692999
 20
41.64064719708105
 30
0.0
 10
67.48715623305253
 20
41.71014499000991
 30
0.0
 10
67.46596896468198
 20
41.81325987793227
 30
0.0
 10
67.43091254613765
 20
41.91412330764746
 30
0.0
 10
67.38236760320046
 20
42.01164017124458
 30
0.0
 10
67.32086122046505
 20
42.10475166355458
 30
0.0
 10
67.24706118837078
 20
42.19244683868814
 30
0.0
 10
67.19019963946693
 20
42.24666460004826
 30
0.0
 10
67.1600077840599
 20
42.27256492773692
 30
0.0
  0
SPLINE
  5
80
330
46
100
AcDbEntity
  8
0
  6
Continuous
 62
     0
370
     0
100
AcDbSpline
210
0.0
220
0.0
230
1.0
 70
     8
 71
     3
 72
    14
 73
    10
 74
     0
 42
0.0
 43
0.0
 40
-4.836507031854457
 40
-4.836507031854457
 40
-4.836507031854457
 40
-4.836507031854457
 40
-4.67601823661836
 40
-4.515529441382262
 40
-4.355040646146165
 40
-4.194551850910067
 40
-4.03406305567397
 40
-3.873574260437873
 40
-3.713085465201775
 40
-3.713085465201775
 40
-3.713085465201775
 40
-3.713085465201775
 10
67.92404617923363
 20
41.60589826107025
 30
0.0
 10
67.92404617923363
 20
41.65802166508647
 30
0.0
 10
67.91775387581691
 20
41.76226835447974
 30
0.0
 10
67.88954098886069
 20
41.91694068636329
 30
0.0
 10
67.842859993643
 20
42.06823583093606
 30
0.0
 10
67.77821773002368
 20
42.21451112633176
 30
0.0
 10
67.69631606186847
 20
42.35417836479675
 30
0.0
 10
67.5980442164174
 20
42.48572112749709
 30
0.0
 10
67.52232759154049
 20
42.56704776953728
 30
0.0
 10
67.48212423031903
 20
42.60589826107025
 30
0.0
  0
LINE
  5
81
330
46
100
AcDbEntity
  8
0
  6
Continuous
 62
     0
370
     0
100
AcDbLine
 10
40.636
 20
42.856
 30
0.0
 11
29.006
 21
42.856
 31
0.0
  0
LINE
  5
82
330
46
100
AcDbEntity
  8
0
  6
Continuous
 62
     0
370
     0
100
AcDbLine
 10
66.267
 20
42.856
 30
0.0
 11
54.636
 21
42.856
 31
0.0
  0
SPLINE
  5
83
330
46
100
AcDbEntity
  8
0
  6
Continuous
 62
     0
370
     0
100
AcDbSpline
210
0.0
220
0.0
230
1.0
 70
     8
 71
     3
 72
    14
 73
    10
 74
     0
 42
0.0
 43
0.0
 40
-3.323261350731885
 40
-3.323261350731885
 40
-3.323261350731885
 40
-3.323261350731885
 40
-3.21298626854532
 40
-3.102711186358755
 40
-2.99243610417219
 40
-2.882161021985625
 40
-2.77188593979906
 40
-2.661610857612495
 40
-2.55133577542593
 40
-2.55133577542593
 40
-2.55133577542593
 40
-2.55133577542593
 10
27.78111337818724
 20
41.60589826107025
 30
0.0
 10
27.78111337818724
 20
41.64064719708105
 30
0.0
 10
27.78583876206469
 20
41.71014499000991
 30
0.0
 10
27.80702603043522
 20
41.81325987793227
 30
0.0
 10
27.84208244897958
 20
41.91412330764746
 30
0.0
 10
27.89062739191675
 20
42.01164017124458
 30
0.0
 10
27.95213377465215
 20
42.10475166355458
 30
0.0
 10
28.02593380674645
 20
42.19244683868814
 30
0.0
 10
28.08279535565029
 20
42.24666460004826
 30
0.0
 10
28.11298721105732
 20
42.27256492773691
 30
0.0
  0
SPLINE
  5
84
330
46
100
AcDbEntity
  8
0
  6
Continuous
 62
     0
370
     0
100
AcDbSpline
210
0.0
220
0.0
230
1.0
 70
     8
 71
     3
 72
    14
 73
    10
 74
     0
 42
0.0
 43
0.0
 40
-4.836507031854445
 40
-4.836507031854445
 40
-4.836507031854445
 40
-4.836507031854445
 40
-4.676018236618347
 40
-4.515529441382249
 40
-4.355040646146151
 40
-4.194551850910053
 40
-4.034063055673955
 40
-3.873574260437856
 40
-3.713085465201758
 40
-3.713085465201758
 40
-3.713085465201758
 40
-3.713085465201758
 10
27.34894881588359
 20
41.60589826107025
 30
0.0
 10
27.34894881588359
 20
41.65802166508647
 30
0.0
 10
27.35524111930032
 20
41.76226835447974
 30
0.0
 10
27.38345400625651
 20
41.91694068636328
 30
0.0
 10
27.43013500147423
 20
42.06823583093606
 30
0.0
 10
27.49477726509352
 20
42.21451112633176
 30
0.0
 10
27.57667893324874
 20
42.35417836479674
 30
0.0
 10
27.67495077869979
 20
42.48572112749709
 30
0.0
 10
27.75066740357673
 20
42.56704776953727
 30
0.0
 10
27.79087076479819
 20
42.60589826107025
 30
0.0
  0
LINE
  5
85
330
46
100
AcDbEntity
  8
0
  6
Continuous
 62
     0
370
     0
100
AcDbLine
 10
27.781
 20
41.606
 30
0.0
 11
27.781
 21
37.354
 31
0.0
  0
LINE
  5
86
330
46
100
AcDbEntity
  8
0
  6
Continuous
 62
     0
370
     0
100
AcDbLine
 10
27.349
 20
41.606
 30
0.0
 11
27.349
 21
37.347
 31
0.0
  0
LINE
  5
87
330
46
100
AcDbEntity
  8
0
  6
Continuous
 62
     0
370
     0
100
AcDbLine
 10
67.492
 20
23.606
 30
0.0
 11
57.144
 21
23.606
 31
0.0
  0
LINE
  5
88
330
46
100
AcDbEntity
  8
0
  6
Continuous
 62
     0
370
     0
100
AcDbLine
 10
67.924
 20
23.606
 30
0.0
 11
67.492
 21
23.606
 31
0.0
  0
LINE
  5
89
330
46
100
AcDbEntity
  8
0
  6
Continuous
 62
     0
370
     0
100
AcDbLine
 10
68.136
 20
22.606
 30
0.0
 11
67.482
 21
22.606
 31
0.0
  0
LINE
  5
8A
330
46
100
AcDbEntity
  8
0
  6
Continuous
 62
     0
370
    30
100
AcDbLine
 10
66.267
 20
22.606
 30
0.0
 11
56.28
 21
22.606
 31
0.0
  0
LINE
  5
8B
330
46
100
AcDbEntity
  8
0
  6
Continuous
 62
     0
370
    30
100
AcDbLine
 10
29.006
 20
22.606
 30
0.0
 11
38.993
 21
22.606
 31
0.0
  0
LINE
  5
8C
330
46
100
AcDbEntity
  8
0
  6
Continuous
 62
     0
370
     0
100
AcDbLine
 10
27.781
 20
23.606
 30
0.0
 11
38.129
 21
23.606
 31
0.0
  0
LINE
  5
8D
330
46
100
AcDbEntity
  8
0
  6
Continuous
 62
     0
370
     0
100
AcDbLine
 10
27.791
 20
22.606
 30
0.0
 11
27.136
 21
22.606
 31
0.0
  0
ARC
  5
8E
330
46
100
AcDbEntity
  8
0
  6
Continuous
 62
     0
370
    30
100
AcDbCircle
 10
27.636
 20
32.606
 30
0.0
 40
4.75
100
AcDbArc
 50
180.0
 51
266.529
  0
LINE
  5
8F
330
46
100
AcDbEntity
  8
0
  6
Continuous
 62
     0
370
     0
100
AcDbLine
 10
27.349
 20
23.606
 30
0.0
 11
27.781
 21
23.606
 31
0.0
  0
LINE
  5
90
330
46
100
AcDbEntity
  8
0
  6
Continuous
 62
     0
370
     0
100
AcDbLine
 10
67.492
 20
41.606
 30
0.0
 11
57.144
 21
41.606
 31
0.0
  0
ARC
  5
91
330
46
100
AcDbEntity
  8
0
  6
Continuous
 62
     0
370
    30
100
AcDbCircle
 10
67.636
 20
32.606
 30
0.0
 40
4.75
100
AcDbArc
 50
273.471
 51
86.529
  0
LINE
  5
92
330
46
100
AcDbEntity
  8
0
  6
Continuous
 62
     0
370
     0
100
AcDbLine
 10
67.492
 20
41.606
 30
0.0
 11
67.924
 21
41.606
 31
0.0
  0
LINE
  5
93
330
46
100
AcDbEntity
  8
0
  6
Continuous
 62
     0
370
     0
100
AcDbLine
 10
67.482
 20
42.606
 30
0.0
 11
68.136
 21
42.606
 31
0.0
  0
LINE
  5
94
330
46
100
AcDbEntity
  8
0
  6
Continuous
 62
     0
370
    30
100
AcDbLine
 10
66.267
 20
42.606
 30
0.0
 11
56.28
 21
42.606
 31
0.0
  0
LINE
  5
95
330
46
100
AcDbEntity
  8
0
  6
Continuous
 62
     0
370
    30
100
AcDbLine
 10
29.006
 20
42.606
 30
0.0
 11
38.993
 21
42.606
 31
0.0
  0
LINE
  5
96
330
46
100
AcDbEntity
  8
0
  6
Continuous
 62
     0
370
     0
100
AcDbLine
 10
27.781
 20
41.606
 30
0.0
 11
38.129
 21
41.606
 31
0.0
  0
LINE
  5
97
330
46
100
AcDbEntity
  8
0
  6
Continuous
 62
     0
370
     0
100
AcDbLine
 10
27.136
 20
42.606
 30
0.0
 11
27.791
 21
42.606
 31
0.0
  0
ARC
  5
98
330
46
100
AcDbEntity
  8
0
  6
Continuous
 62
     0
370
    30
100
AcDbCircle
 10
27.636
 20
32.606
 30
0.0
 40
4.75
100
AcDbArc
 50
93.471
 51
180.0
  0
LINE
  5
99
330
46
100
AcDbEntity
  8
0
  6
Continuous
 62
     0
370
     0
100
AcDbLine
 10
27.781
 20
41.606
 30
0.0
 11
27.349
 21
41.606
 31
0.0
  0
ARC
  5
9A
330
46
100
AcDbEntity
  8
0
  6
Continuous
 62
     0
370
    30
100
AcDbCircle
 10
67.636
 20
32.606
 30
0.0
 40
4.749999999999982
100
AcDbArc
 50
211.757
 51
268.255
  0
ARC
  5
9B
330
46
100
AcDbEntity
  8
0
  6
Continuous
 62
     0
370
    30
100
AcDbCircle
 10
67.636
 20
32.608
 30
0.0
 40
4.751972529036111
100
AcDbArc
 50
268.256
 51
273.47
  0
ARC
  5
9C
330
46
100
AcDbEntity
  8
0
  6
Continuous
 62
     0
370
    30
100
AcDbCircle
 10
27.636
 20
32.606
 30
0.0
 40
4.749999999999996
100
AcDbArc
 50
271.745
 51
328.243
  0
ARC
  5
9D
330
46
100
AcDbEntity
  8
0
  6
Continuous
 62
     0
370
    30
100
AcDbCircle
 10
27.637
 20
32.608
 30
0.0
 40
4.751972529032818
100
AcDbArc
 50
266.53
 51
271.744
  0
ARC
  5
9E
330
46
100
AcDbEntity
  8
0
  6
Continuous
 62
     0
370
    30
100
AcDbCircle
 10
67.636
 20
32.606
 30
0.0
 40
4.749999999999972
100
AcDbArc
 50
91.745
 51
148.243
  0
ARC
  5
9F
330
46
100
AcDbEntity
  8
0
  6
Continuous
 62
     0
370
    30
100
AcDbCircle
 10
67.636
 20
32.604
 30
0.0
 40
4.751972529032043
100
AcDbArc
 50
86.53
 51
91.744
  0
ARC
  5
A0
330
46
100
AcDbEntity
  8
0
  6
Continuous
 62
     0
370
    30
100
AcDbCircle
 10
27.636
 20
32.606
 30
0.0
 40
4.75000000000002
100
AcDbArc
 50
31.757
 51
88.255
  0
ARC
  5
A1
330
46
100
AcDbEntity
  8
0
  6
Continuous
 62
     0
370
    30
100
AcDbCircle
 10
27.637
 20
32.604
 30
0.0
 40
4.751972529034787
100
AcDbArc
 50
88.256
 51
93.47
  0
SPLINE
  5
A2
330
46
100
AcDbEntity
  8
0
  6
Continuous
 62
     0
370
     0
100
AcDbSpline
210
0.0
220
0.0
230
1.0
 70
     8
 71
     3
 72
    11
 73
     7
 74
     0
 42
0.0
 43
0.0
 40
0.0
 40
0.0
 40
0.0
 40
0.0
 40
0.4067430187024405
 40
0.6788431679166578
 40
0.9112953912868322
 40
1.254054072765633
 40
1.254054072765633
 40
1.254054072765633
 40
1.254054072765633
 10
67.48212423031904
 20
22.60589826107025
 30
0.0
 10
67.37652908075896
 20
22.55487735959251
 30
0.0
 10
67.18389544215192
 20
22.47840835801841
 30
0.0
 10
66.8904873237798
 20
22.40739869683124
 30
0.0
 10
66.5981320229038
 20
22.36557055556551
 30
0.0
 10
66.390295132739
 20
22.35589826107025
 30
0.0
 10
66.26655186238528
 20
22.35589826107025
 30
0.0
  0
SPLINE
  5
A3
330
46
100
AcDbEntity
  8
0
  6
Continuous
 62
     0
370
     0
100
AcDbSpline
210
0.0
220
0.0
230
1.0
 70
     8
 71
     3
 72
    11
 73
     7
 74
     0
 42
0.0
 43
0.0
 40
0.0
 40
0.0
 40
0.0
 40
0.0
 40
0.2651073411125844
 40
0.5302146822251688
 40
0.7580294481445119
 40
0.9794867402513825
 40
0.9794867402513825
 40
0.9794867402513825
 40
0.9794867402513825
 10
67.1600077840599
 20
22.93923159440358
 30
0.0
 10
67.09383327059697
 20
22.88246325207349
 30
0.0
 10
66.9545449248538
 20
22.77849993083686
 30
0.0
 10
66.73066152598498
 20
22.6724762854041
 30
0.0
 10
66.49810323436998
 20
22.61651369939401
 30
0.0
 10
66.34342387507613
 20
22.60589826107025
 30
0.0
 10
66.26655186238528
 20
22.60589826107025
 30
0.0
  0
LINE
  5
A4
330
46
100
AcDbEntity
  8
0
  6
Continuous
 62
     0
370
     0
100
AcDbLine
 10
67.482
 20
22.606
 30
0.0
 11
67.16
 21
22.939
 31
0.0
  0
LINE
  5
A5
330
46
100
AcDbEntity
  8
0
  6
Continuous
 62
     0
370
     0
100
AcDbLine
 10
66.267
 20
22.606
 30
0.0
 11
66.267
 21
22.356
 31
0.0
  0
SPLINE
  5
A6
330
46
100
AcDbEntity
  8
0
  6
Continuous
 62
     0
370
     0
100
AcDbSpline
210
0.0
220
0.0
230
1.0
 70
     8
 71
     3
 72
    10
 73
     6
 74
     0
 42
0.0
 43
0.0
 40
0.0
 40
0.0
 40
0.0
 40
0.0
 40
0.294076914531363
 40
0.5074777470852594
 40
0.979480505365418
 40
0.979480505365418
 40
0.979480505365418
 40
0.979480505365418
 10
29.00644313273193
 20
22.60589826107025
 30
0.0
 10
28.90436151956538
 20
22.60589826107025
 30
0.0
 10
28.73020068414259
 20
22.62199126224263
 30
0.0
 10
28.41868603148494
 20
22.71472839549931
 30
0.0
 10
28.23080798304622
 20
22.83815809090729
 30
0.0
 10
28.11298721105732
 20
22.93923159440358
 30
0.0
  0
SPLINE
  5
A7
330
46
100
AcDbEntity
  8
0
  6
Continuous
 62
     0
370
     0
100
AcDbSpline
210
0.0
220
0.0
230
1.0
 70
     8
 71
     3
 72
    10
 73
     6
 74
     0
 42
0.0
 43
0.0
 40
0.0
 40
0.0
 40
0.0
 40
0.0
 40
0.3765132492803122
 40
0.6497351068750618
 40
1.254050792356654
 40
1.254050792356654
 40
1.254050792356654
 40
1.254050792356654
 10
29.00644313273196
 20
22.35589826107018
 30
0.0
 10
28.8705116401862
 20
22.35589826107018
 30
0.0
 10
28.63573034871172
 20
22.3679680119495
 30
0.0
 10
28.20788791887043
 20
22.43752086189201
 30
0.0
 10
27.94776046209565
 20
22.53009313344796
 30
0.0
 10
27.79087076479812
 20
22.60589826107018
 30
0.0
  0
LINE
  5
A8
330
46
100
AcDbEntity
  8
0
  6
Continuous
 62
     0
370
     0
100
AcDbLine
 10
29.006
 20
22.356
 30
0.0
 11
29.006
 21
22.606
 31
0.0
  0
LINE
  5
A9
330
46
100
AcDbEntity
  8
0
  6
Continuous
 62
     0
370
     0
100
AcDbLine
 10
27.791
 20
22.606
 30
0.0
 11
28.113
 21
22.939
 31
0.0
  0
SPLINE
  5
AA
330
46
100
AcDbEntity
  8
0
  6
Continuous
 62
     0
370
     0
100
AcDbSpline
210
0.0
220
0.0
230
1.0
 70
     8
 71
     3
 72
    11
 73
     7
 74
     0
 42
0.0
 43
0.0
 40
0.0
 40
0.0
 40
0.0
 40
0.0
 40
0.4067430187026377
 40
0.6788431679170711
 40
0.9112953912872531
 40
1.254054072765606
 40
1.254054072765606
 40
1.254054072765606
 40
1.254054072765606
 10
67.48212423031903
 20
42.60589826107025
 30
0.0
 10
67.3765290807589
 20
42.65691916254802
 30
0.0
 10
67.18389544215172
 20
42.73338816412216
 30
0.0
 10
66.89048732377944
 20
42.80439782530935
 30
0.0
 10
66.59813202290346
 20
42.84622596657501
 30
0.0
 10
66.39029513273884
 20
42.85589826107025
 30
0.0
 10
66.26655186238528
 20
42.85589826107025
 30
0.0
  0
SPLINE
  5
AB
330
46
100
AcDbEntity
  8
0
  6
Continuous
 62
     0
370
     0
100
AcDbSpline
210
0.0
220
0.0
230
1.0
 70
     8
 71
     3
 72
    11
 73
     7
 74
     0
 42
0.0
 43
0.0
 40
0.0
 40
0.0
 40
0.0
 40
0.0
 40
0.2651073411127506
 40
0.5302146822255012
 40
0.7580294481448557
 40
0.9794867402513793
 40
0.9794867402513793
 40
0.9794867402513793
 40
0.9794867402513793
 10
67.1600077840599
 20
42.27256492773692
 30
0.0
 10
67.09383327059692
 20
42.32933327006705
 30
0.0
 10
66.95454492485366
 20
42.43329659130374
 30
0.0
 10
66.73066152598471
 20
42.53932023673649
 30
0.0
 10
66.49810323436975
 20
42.59528282274653
 30
0.0
 10
66.34342387507601
 20
42.60589826107025
 30
0.0
 10
66.26655186238528
 20
42.60589826107025
 30
0.0
  0
LINE
  5
AC
330
46
100
AcDbEntity
  8
0
  6
Continuous
 62
     0
370
     0
100
AcDbLine
 10
67.482
 20
42.606
 30
0.0
 11
67.16
 21
42.273
 31
0.0
  0
LINE
  5
AD
330
46
100
AcDbEntity
  8
0
  6
Continuous
 62
     0
370
     0
100
AcDbLine
 10
66.267
 20
42.606
 30
0.0
 11
66.267
 21
42.856
 31
0.0
  0
SPLINE
  5
AE
330
46
100
AcDbEntity
  8
0
  6
Continuous
 62
     0
370
     0
100
AcDbSpline
210
0.0
220
0.0
230
1.0
 70
     8
 71
     3
 72
    10
 73
     6
 74
     0
 42
0.0
 43
0.0
 40
0.0
 40
0.0
 40
0.0
 40
0.0
 40
0.2940769145303212
 40
0.5074777470832239
 40
0.979480505365406
 40
0.979480505365406
 40
0.979480505365406
 40
0.979480505365406
 10
29.00644313273192
 20
42.60589826107024
 30
0.0
 10
28.90436151956573
 20
42.60589826107024
 30
0.0
 10
28.73020068414361
 20
42.58980525989799
 30
0.0
 10
28.41868603148578
 20
42.49706812664172
 30
0.0
 10
28.23080798304674
 20
42.37363843123364
 30
0.0
 10
28.11298721105733
 20
42.27256492773691
 30
0.0
  0
SPLINE
  5
AF
330
46
100
AcDbEntity
  8
0
  6
Continuous
 62
     0
370
     0
100
AcDbSpline
210
0.0
220
0.0
230
1.0
 70
     8
 71
     3
 72
    10
 73
     6
 74
     0
 42
0.0
 43
0.0
 40
0.0
 40
0.0
 40
0.0
 40
0.0
 40
0.3765132492789578
 40
0.64973510687242
 40
1.25405079235657
 40
1.25405079235657
 40
1.25405079235657
 40
1.25405079235657
 10
29.00644313273193
 20
42.85589826107025
 30
0.0
 10
28.87051164018666
 20
42.85589826107025
 30
0.0
 10
28.63573034871315
 20
42.84382851019106
 30
0.0
 10
28.20788791887161
 20
42.77427566024885
 30
0.0
 10
27.9477604620964
 20
42.6817033886928
 30
0.0
 10
27.79087076479819
 20
42.60589826107025
 30
0.0
  0
LINE
  5
B0
330
46
100
AcDbEntity
  8
0
  6
Continuous
 62
     0
370
     0
100
AcDbLine
 10
29.006
 20
42.856
 30
0.0
 11
29.006
 21
42.606
 31
0.0
  0
LINE
  5
B1
330
46
100
AcDbEntity
  8
0
  6
Continuous
 62
     0
370
     0
100
AcDbLine
 10
27.791
 20
42.606
 30
0.0
 11
28.113
 21
42.273
 31
0.0
  0
LINE
  5
B2
330
46
100
AcDbEntity
  8
0
  6
Continuous
 62
     0
370
    30
100
AcDbLine
 10
40.636
 20
42.606
 30
0.0
 11
40.636
 21
43.106
 31
0.0
  0
LINE
  5
B3
330
46
100
AcDbEntity
  8
0
  6
Continuous
 62
     0
370
    30
100
AcDbLine
 10
54.636
 20
42.606
 30
0.0
 11
54.636
 21
43.106
 31
0.0
  0
LINE
  5
B4
330
46
100
AcDbEntity
  8
0
  6
Continuous
 62
     0
370
    30
100
AcDbLine
 10
40.636
 20
22.606
 30
0.0
 11
40.636
 21
22.106
 31
0.0
  0
LINE
  5
B5
330
46
100
AcDbEntity
  8
0
  6
Continuous
 62
     0
370
    30
100
AcDbLine
 10
54.636
 20
22.606
 30
0.0
 11
54.636
 21
22.106
 31
0.0
  0
LINE
  5
B6
330
46
100
AcDbEntity
  8
0
  6
Continuous
 62
     0
370
    30
100
AcDbLine
 10
52.636
 20
21.106
 30
0.0
 11
47.636
 21
21.106
 31
0.0
  0
LINE
  5
B7
330
46
100
AcDbEntity
  8
0
  6
Continuous
 62
     0
370
    30
100
AcDbLine
 10
47.636
 20
21.106
 30
0.0
 11
42.636
 21
21.106
 31
0.0
  0
LINE
  5
B8
330
46
100
AcDbEntity
  8
0
  6
Continuous
 62
     0
370
    30
100
AcDbLine
 10
44.136
 20
45.606
 30
0.0
 11
47.636
 21
45.606
 31
0.0
  0
LINE
  5
B9
330
46
100
AcDbEntity
  8
0
  6
Continuous
 62
     0
370
    30
100
AcDbLine
 10
47.636
 20
45.606
 30
0.0
 11
51.136
 21
45.606
 31
0.0
  0
LINE
  5
BA
330
46
100
AcDbEntity
  8
0
  6
Continuous
 62
     0
370
    30
100
AcDbLine
 10
43.636
 20
45.106
 30
0.0
 11
47.636
 21
45.106
 31
0.0
  0
LINE
  5
BB
330
46
100
AcDbEntity
  8
0
  6
Continuous
 62
     0
370
    30
100
AcDbLine
 10
47.636
 20
45.106
 30
0.0
 11
51.636
 21
45.106
 31
0.0
  0
LINE
  5
BC
330
46
100
AcDbEntity
  8
0
  6
Continuous
 62
     0
370
    30
100
AcDbLine
 10
51.136
 20
45.606
 30
0.0
 11
51.636
 21
45.106
 31
0.0
  0
LINE
  5
BD
330
46
100
AcDbEntity
  8
0
  6
Continuous
 62
     0
370
    30
100
AcDbLine
 10
44.136
 20
45.606
 30
0.0
 11
43.636
 21
45.106
 31
0.0
  0
LINE
  5
BE
330
46
100
AcDbEntity
  8
0
  6
Continuous
 62
     0
370
    30
100
AcDbLine
 10
51.636
 20
43.106
 30
0.0
 11
51.636
 21
45.106
 31
0.0
  0
LINE
  5
BF
330
46
100
AcDbEntity
  8
0
  6
Continuous
 62
     0
370
    30
100
AcDbLine
 10
51.636
 20
30.106
 30
0.0
 11
51.636
 21
35.106
 31
0.0
  0
LINE
  5
C0
330
46
100
AcDbEntity
  8
0
  6
Continuous
 62
     0
370
    30
100
AcDbLine
 10
43.636
 20
43.106
 30
0.0
 11
43.636
 21
45.106
 31
0.0
  0
LINE
  5
C1
330
46
100
AcDbEntity
  8
0
  6
Continuous
 62
     0
370
    30
100
AcDbLine
 10
43.636
 20
30.106
 30
0.0
 11
43.636
 21
35.106
 31
0.0
  0
LINE
  5
C2
330
46
100
AcDbEntity
  8
0
  6
Continuous
 62
     0
370
    30
100
AcDbLine
 10
42.636
 20
22.106
 30
0.0
 11
42.636
 21
21.106
 31
0.0
  0
LINE
  5
C3
330
46
100
AcDbEntity
  8
0
  6
Continuous
 62
     0
370
    30
100
AcDbLine
 10
52.636
 20
22.106
 30
0.0
 11
52.636
 21
21.106
 31
0.0
  0
ENDBLK
  5
C5
330
46
100
AcDbEntity
  8
0
100
AcDbBlockEnd
  0
BLOCK
  5
104
330
C7
100
AcDbEntity
  8
0
100
AcDbBlockBegin
  2
b
 70
     0
 10
-30.272
 20
19.157
 30
0.0
  3
b
  1

  0
LINE
  5
C8
330
C7
100
AcDbEntity
  8
0
  6
Continuous
 62
     0
370
    30
100
AcDbLine
 10
27.136
 20
69.144
 30
0.0
 11
68.136
 21
69.144
 31
0.0
  0
LINE
  5
C9
330
C7
100
AcDbEntity
  8
0
  6
Continuous
 62
     0
370
    30
100
AcDbLine
 10
68.136
 20
69.144
 30
0.0
 11
78.636
 21
69.144
 31
0.0
  0
LINE
  5
CA
330
C7
100
AcDbEntity
  8
0
  6
Continuous
 62
     0
370
    30
100
AcDbLine
 10
27.136
 20
69.144
 30
0.0
 11
16.636
 21
69.144
 31
0.0
  0
LINE
  5
CC
330
C7
100
AcDbEntity
  8
0
  6
HIDDEN2
 62
     0
370
    30
100
AcDbLine
 10
62.886
 20
74.144
 30
0.0
 11
72.386
 21
74.144
 31
0.0
  0
LINE
  5
CD
330
C7
100
AcDbEntity
  8
0
  6
HIDDEN2
 62
     0
370
    30
100
AcDbLine
 10
70.136
 20
69.144
 30
0.0
 11
70.136
 21
74.144
 31
0.0
  0
LINE
  5
CE
330
C7
100
AcDbEntity
  8
0
  6
HIDDEN2
 62
     0
370
    30
100
AcDbLine
 10
22.886
 20
74.144
 30
0.0
 11
32.386
 21
74.144
 31
0.0
  0
LINE
  5
CF
330
C7
100
AcDbEntity
  8
0
  6
HIDDEN2
 62
     0
370
    30
100
AcDbLine
 10
31.675
 20
75.644
 30
0.0
 11
63.598
 21
75.644
 31
0.0
  0
LINE
  5
D0
330
C7
100
AcDbEntity
  8
0
  6
HIDDEN2
 62
     0
370
    30
100
AcDbLine
 10
30.136
 20
69.144
 30
0.0
 11
30.136
 21
74.144
 31
0.0
  0
LINE
  5
D1
330
C7
100
AcDbEntity
  8
0
  6
HIDDEN2
 62
     0
370
    30
100
AcDbLine
 10
31.675
 20
75.644
 30
0.0
 11
31.675
 21
82.585
 31
0.0
  0
LINE
  5
D2
330
C7
100
AcDbEntity
  8
0
  6
HIDDEN2
 62
     0
370
    30
100
AcDbLine
 10
22.886
 20
75.644
 30
0.0
 11
22.886
 21
74.144
 31
0.0
  0
LINE
  5
D3
330
C7
100
AcDbEntity
  8
0
  6
HIDDEN2
 62
     0
370
    30
100
AcDbLine
 10
63.598
 20
82.585
 30
0.0
 11
63.598
 21
75.644
 31
0.0
  0
LINE
  5
D4
330
C7
100
AcDbEntity
  8
0
  6
HIDDEN2
 62
     0
370
    30
100
AcDbLine
 10
62.886
 20
75.644
 30
0.0
 11
62.886
 21
74.144
 31
0.0
  0
CIRCLE
  5
D5
330
C7
100
AcDbEntity
  8
0
  6
Continuous
 62
     0
370
    30
100
AcDbCircle
 10
47.636
 20
88.144
 30
0.0
 40
7.0
  0
CIRCLE
  5
D6
330
C7
100
AcDbEntity
  8
0
  6
HIDDEN2
 62
     0
370
    30
100
AcDbCircle
 10
47.636
 20
88.144
 30
0.0
 40
7.0
  0
CIRCLE
  5
D7
330
C7
100
AcDbEntity
  8
0
  6
HIDDEN2
 62
     0
370
    30
100
AcDbCircle
 10
47.636
 20
88.144
 30
0.0
 40
4.0
  0
ARC
  5
D8
330
C7
100
AcDbEntity
  8
0
  6
Continuous
 62
     0
370
    30
100
AcDbCircle
 10
47.636
 20
88.144
 30
0.0
 40
11.0
100
AcDbArc
 50
30.194
 51
149.806
  0
ARC
  5
D9
330
C7
100
AcDbEntity
  8
0
  6
Continuous
 62
     0
370
     0
100
AcDbCircle
 10
47.636
 20
88.144
 30
0.0
 40
10.00000000000001
100
AcDbArc
 50
30.194
 51
149.806
  0
LINE
  5
DA
330
C7
100
AcDbEntity
  8
0
  6
Continuous
 62
     0
370
     0
100
AcDbLine
 10
56.28
 20
93.174
 30
0.0
 11
57.144
 21
93.676
 31
0.0
  0
LINE
  5
DB
330
C7
100
AcDbEntity
  8
0
  6
Continuous
 62
     0
370
     0
100
AcDbLine
 10
38.129
 20
93.676
 30
0.0
 11
38.993
 21
93.174
 31
0.0
  0
LINE
  5
DC
330
C7
100
AcDbEntity
  8
0
  6
Continuous
 62
     0
370
     0
100
AcDbLine
 10
68.136
 20
75.144
 30
0.0
 11
27.136
 21
75.144
 31
0.0
  0
LINE
  5
DD
330
C7
100
AcDbEntity
  8
0
  6
Continuous
 62
     0
370
     0
100
AcDbLine
 10
68.136
 20
75.144
 30
0.0
 11
78.636
 21
75.144
 31
0.0
  0
LINE
  5
DE
330
C7
100
AcDbEntity
  8
0
  6
Continuous
 62
     0
370
    30
100
AcDbLine
 10
68.136
 20
75.644
 30
0.0
 11
78.136
 21
75.644
 31
0.0
  0
LINE
  5
DF
330
C7
100
AcDbEntity
  8
0
  6
Continuous
 62
     0
370
     0
100
AcDbLine
 10
27.136
 20
75.144
 30
0.0
 11
16.636
 21
75.144
 31
0.0
  0
LINE
  5
E0
330
C7
100
AcDbEntity
  8
0
  6
Continuous
 62
     0
370
    30
100
AcDbLine
 10
27.136
 20
75.644
 30
0.0
 11
17.136
 21
75.644
 31
0.0
  0
LINE
  5
E1
330
C7
100
AcDbEntity
  8
0
  6
Continuous
 62
     0
370
     0
100
AcDbLine
 10
68.136
 20
69.144
 30
0.0
 11
68.136
 21
75.144
 31
0.0
  0
LINE
  5
E2
330
C7
100
AcDbEntity
  8
0
  6
Continuous
 62
     0
370
     0
100
AcDbLine
 10
27.136
 20
75.144
 30
0.0
 11
27.136
 21
69.144
 31
0.0
  0
LINE
  5
E3
330
C7
100
AcDbEntity
  8
0
  6
Continuous
 62
     0
370
     0
100
AcDbLine
 10
68.136
 20
75.144
 30
0.0
 11
68.136
 21
75.644
 31
0.0
  0
LINE
  5
E4
330
C7
100
AcDbEntity
  8
0
  6
Continuous
 62
     0
370
     0
100
AcDbLine
 10
27.136
 20
75.644
 30
0.0
 11
27.136
 21
75.144
 31
0.0
  0
LINE
  5
E5
330
C7
100
AcDbEntity
  8
0
  6
Continuous
 62
     0
370
    30
100
AcDbLine
 10
78.636
 20
69.144
 30
0.0
 11
78.636
 21
75.144
 31
0.0
  0
ARC
  5
E6
330
C7
100
AcDbEntity
  8
0
  6
Continuous
 62
     0
370
    30
100
AcDbCircle
 10
78.136
 20
75.144
 30
0.0
 40
0.5
100
AcDbArc
 50
0.0
 51
90.0
  0
LINE
  5
E7
330
C7
100
AcDbEntity
  8
0
  6
Continuous
 62
     0
370
    30
100
AcDbLine
 10
16.636
 20
75.144
 30
0.0
 11
16.636
 21
69.144
 31
0.0
  0
ARC
  5
E8
330
C7
100
AcDbEntity
  8
0
  6
Continuous
 62
     0
370
    30
100
AcDbCircle
 10
17.136
 20
75.144
 30
0.0
 40
0.5
100
AcDbArc
 50
90.0
 51
180.0
  0
LINE
  5
E9
330
C7
100
AcDbEntity
  8
0
  6
Continuous
 62
     0
370
     0
100
AcDbLine
 10
67.492
 20
75.893
 30
0.0
 11
67.16
 21
75.957
 31
0.0
  0
LINE
  5
EA
330
C7
100
AcDbEntity
  8
0
  6
Continuous
 62
     0
370
     0
100
AcDbLine
 10
66.267
 20
76.01
 30
0.0
 11
29.006
 21
76.01
 31
0.0
  0
LINE
  5
EB
330
C7
100
AcDbEntity
  8
0
  6
Continuous
 62
     0
370
     0
100
AcDbLine
 10
66.267
 20
75.577
 30
0.0
 11
29.006
 21
75.577
 31
0.0
  0
LINE
  5
EC
330
C7
100
AcDbEntity
  8
0
  6
Continuous
 62
     0
370
     0
100
AcDbLine
 10
27.781
 20
75.893
 30
0.0
 11
28.113
 21
75.957
 31
0.0
  0
LINE
  5
ED
330
C7
100
AcDbEntity
  8
0
  6
Continuous
 62
     0
370
    30
100
AcDbLine
 10
67.492
 20
75.893
 30
0.0
 11
57.144
 21
93.676
 31
0.0
  0
ARC
  5
EE
330
C7
100
AcDbEntity
  8
0
  6
Continuous
 62
     0
370
    30
100
AcDbCircle
 10
67.924
 20
76.144
 30
0.0
 40
0.4999999999999974
100
AcDbArc
 50
210.194
 51
270.0
  0
LINE
  5
EF
330
C7
100
AcDbEntity
  8
0
  6
Continuous
 62
     0
370
    30
100
AcDbLine
 10
68.136
 20
75.644
 30
0.0
 11
67.482
 21
75.644
 31
0.0
  0
LINE
  5
F0
330
C7
100
AcDbEntity
  8
0
  6
Continuous
 62
     0
370
     0
100
AcDbLine
 10
66.267
 20
76.01
 30
0.0
 11
56.28
 21
93.174
 31
0.0
  0
LINE
  5
F1
330
C7
100
AcDbEntity
  8
0
  6
Continuous
 62
     0
370
     0
100
AcDbLine
 10
29.006
 20
76.01
 30
0.0
 11
38.993
 21
93.174
 31
0.0
  0
LINE
  5
F2
330
C7
100
AcDbEntity
  8
0
  6
Continuous
 62
     0
370
    30
100
AcDbLine
 10
27.781
 20
75.893
 30
0.0
 11
38.129
 21
93.676
 31
0.0
  0
LINE
  5
F3
330
C7
100
AcDbEntity
  8
0
  6
Continuous
 62
     0
370
    30
100
AcDbLine
 10
27.791
 20
75.644
 30
0.0
 11
27.136
 21
75.644
 31
0.0
  0
ARC
  5
F4
330
C7
100
AcDbEntity
  8
0
  6
Continuous
 62
     0
370
    30
100
AcDbCircle
 10
27.349
 20
76.144
 30
0.0
 40
0.4999999999999989
100
AcDbArc
 50
270.0
 51
329.806
  0
SPLINE
  5
F5
330
C7
100
AcDbEntity
  8
0
  6
Continuous
 62
     0
370
     0
100
AcDbSpline
210
0.0
220
0.0
230
1.0
 70
     8
 71
     3
 72
    11
 73
     7
 74
     0
 42
0.0
 43
0.0
 40
0.0
 40
0.0
 40
0.0
 40
0.0
 40
0.4067430187024405
 40
0.6788431679166578
 40
0.9112953912868322
 40
1.254054072765633
 40
1.254054072765633
 40
1.254054072765633
 40
1.254054072765633
 10
67.48212423031904
 20
75.64429471691403
 30
0.0
 10
67.37652908075896
 20
75.64429471914423
 30
0.0
 10
67.18389544215192
 20
75.6309921990628
 30
0.0
 10
66.8904873237798
 20
75.60414661700335
 30
0.0
 10
66.5981320229038
 20
75.58322901561866
 30
0.0
 10
66.390295132739
 20
75.57730742973408
 30
0.0
 10
66.26655186238528
 20
75.57730742973408
 30
0.0
  0
SPLINE
  5
F6
330
C7
100
AcDbEntity
  8
0
  6
Continuous
 62
     0
370
     0
100
AcDbSpline
210
0.0
220
0.0
230
1.0
 70
     8
 71
     3
 72
    11
 73
     7
 74
     0
 42
0.0
 43
0.0
 40
0.0
 40
0.0
 40
0.0
 40
0.0
 40
0.2651073411125844
 40
0.5302146822251688
 40
0.7580294481445119
 40
0.9794867402513825
 40
0.9794867402513825
 40
0.9794867402513825
 40
0.9794867402513825
 10
67.1600077840599
 20
75.95686502502892
 30
0.0
 10
67.09383327059697
 20
75.96963311401188
 30
0.0
 10
66.9545449248538
 20
75.97696793861934
 30
0.0
 10
66.73066152598498
 20
75.96812941095453
 30
0.0
 10
66.49810323436998
 20
75.97410281110649
 30
0.0
 10
66.34342387507613
 20
75.99548799793365
 30
0.0
 10
66.26655186238528
 20
76.01032012069845
 30
0.0
  0
ELLIPSE
  5
F7
330
C7
100
AcDbEntity
  8
0
  6
Continuous
 62
     0
370
     0
100
AcDbEllipse
 10
67.482
 20
76.144
 30
0.0
 11
2.112023562256342E-8
 21
0.4999999999999999
 31
0.0
210
0.0
220
0.0
230
-0.9999999999999999
 40
0.695
 41
3.141592592803752
 42
4.328143857391575
  0
LINE
  5
F8
330
C7
100
AcDbEntity
  8
0
  6
Continuous
 62
     0
370
     0
100
AcDbLine
 10
66.267
 20
76.01
 30
0.0
 11
66.267
 21
75.577
 31
0.0
  0
SPLINE
  5
F9
330
C7
100
AcDbEntity
  8
0
  6
Continuous
 62
     0
370
     0
100
AcDbSpline
210
0.0
220
0.0
230
1.0
 70
     8
 71
     3
 72
    10
 73
     6
 74
     0
 42
0.0
 43
0.0
 40
0.0
 40
0.0
 40
0.0
 40
0.0
 40
0.294076914531363
 40
0.5074777470852594
 40
0.979480505365418
 40
0.979480505365418
 40
0.979480505365418
 40
0.979480505365418
 10
29.00644313273193
 20
76.01032012069851
 30
0.0
 10
28.90436151956538
 20
75.99062391442635
 30
0.0
 10
28.73020068414259
 20
75.97022215617199
 30
0.0
 10
28.41868603148494
 20
75.97007011780266
 30
0.0
 10
28.23080798304622
 20
75.97959803842144
 30
0.0
 10
28.11298721105732
 20
75.95686502502892
 30
0.0
  0
SPLINE
  5
FA
330
C7
100
AcDbEntity
  8
0
  6
Continuous
 62
     0
370
     0
100
AcDbSpline
210
0.0
220
0.0
230
1.0
 70
     8
 71
     3
 72
    10
 73
     6
 74
     0
 42
0.0
 43
0.0
 40
0.0
 40
0.0
 40
0.0
 40
0.0
 40
0.3765132492803122
 40
0.6497351068750618
 40
1.254050792356654
 40
1.254050792356654
 40
1.254050792356654
 40
1.254050792356654
 10
29.00644313273196
 20
75.57730742973413
 30
0.0
 10
28.8705116401862
 20
75.57730742973413
 30
0.0
 10
28.63573034871172
 20
75.5847431421798
 30
0.0
 10
28.20788791887043
 20
75.6185109042435
 30
0.0
 10
27.94776046209565
 20
75.64429472022763
 30
0.0
 10
27.79087076479812
 20
75.64429471691409
 30
0.0
  0
LINE
  5
FB
330
C7
100
AcDbEntity
  8
0
  6
Continuous
 62
     0
370
     0
100
AcDbLine
 10
29.006
 20
75.577
 30
0.0
 11
29.006
 21
76.01
 31
0.0
  0
ELLIPSE
  5
FC
330
C7
100
AcDbEntity
  8
0
  6
Continuous
 62
     0
370
     0
100
AcDbEllipse
 10
27.791
 20
76.144
 30
0.0
 11
-2.112023562256381E-8
 21
0.5000000000000063
 31
0.0
210
0.0
220
0.0
230
0.9999999999999999
 40
0.695
 41
3.141592592803752
 42
4.328143857391549
  0
LINE
  5
FD
330
C7
100
AcDbEntity
  8
0
  6
HIDDEN2
 62
     0
370
    30
100
AcDbLine
 10
72.386
 20
75.644
 30
0.0
 11
72.386
 21
74.144
 31
0.0
  0
LINE
  5
FE
330
C7
100
AcDbEntity
  8
0
  6
HIDDEN2
 62
     0
370
    30
100
AcDbLine
 10
32.386
 20
75.644
 30
0.0
 11
32.386
 21
74.144
 31
0.0
  0
LINE
  5
FF
330
C7
100
AcDbEntity
  8
0
  6
HIDDEN2
 62
     0
370
    30
100
AcDbLine
 10
65.136
 20
69.144
 30
0.0
 11
65.136
 21
74.144
 31
0.0
  0
LINE
  5
100
330
C7
100
AcDbEntity
  8
0
  6
HIDDEN2
 62
     0
370
    30
100
AcDbLine
 10
25.136
 20
69.144
 30
0.0
 11
25.136
 21
74.144
 31
0.0
  0
CIRCLE
  5
101
330
C7
100
AcDbEntity
  8
0
  6
Continuous
 62
     0
370
    30
100
AcDbCircle
 10
47.636
 20
88.144
 30
0.0
 40
4.999999999999998
  0
CIRCLE
  5
102
330
C7
100
AcDbEntity
  8
0
  6
HIDDEN2
 62
     0
370
    30
100
AcDbCircle
 10
47.636
 20
88.144
 30
0.0
 40
4.0
  0
CIRCLE
  5
103
330
C7
100
AcDbEntity
  8
0
  6
HIDDEN2
 62
     0
370
    30
100
AcDbCircle
 10
47.636
 20
88.144
 30
0.0
 40
3.5
  0
ENDBLK
  5
105
330
C7
100
AcDbEntity
  8
0
100
AcDbBlockEnd
  0
BLOCK
  5
159
330
107
100
AcDbEntity
  8
0
100
AcDbBlockBegin
  2
c
 70
     0
 10
51.312
 20
-36.057
 30
0.0
  3
c
  1

  0
LINE
  5
108
330
107
100
AcDbEntity
  8
0
  6
Continuous
 62
     0
370
    30
100
AcDbLine
 10
110.969
 20
93.676
 30
0.0
 11
110.969
 21
99.144
 31
0.0
  0
LINE
  5
109
330
107
100
AcDbEntity
  8
0
  6
Continuous
 62
     0
370
    30
100
AcDbLine
 10
105.969
 20
99.144
 30
0.0
 11
105.969
 21
93.676
 31
0.0
  0
LINE
  5
10A
330
107
100
AcDbEntity
  8
0
  6
Continuous
 62
     0
370
    30
100
AcDbLine
 10
97.969
 20
69.144
 30
0.0
 11
108.469
 21
69.144
 31
0.0
  0
LINE
  5
10B
330
107
100
AcDbEntity
  8
0
  6
Continuous
 62
     0
370
    30
100
AcDbLine
 10
118.969
 20
69.144
 30
0.0
 11
108.469
 21
69.144
 31
0.0
  0
LINE
  5
10C
330
107
100
AcDbEntity
  8
0
  6
HIDDEN2
 62
     0
370
    30
100
AcDbLine
 10
103.719
 20
74.144
 30
0.0
 11
108.469
 21
74.144
 31
0.0
  0
LINE
  5
10D
330
107
100
AcDbEntity
  8
0
  6
HIDDEN2
 62
     0
370
    30
100
AcDbLine
 10
108.469
 20
74.144
 30
0.0
 11
113.219
 21
74.144
 31
0.0
  0
LINE
  5
10E
330
107
100
AcDbEntity
  8
0
  6
Continuous
 62
     0
370
    30
100
AcDbLine
 10
110.969
 20
82.585
 30
0.0
 11
110.969
 21
93.676
 31
0.0
  0
LINE
  5
10F
330
107
100
AcDbEntity
  8
0
  6
Continuous
 62
     0
370
    30
100
AcDbLine
 10
105.969
 20
82.585
 30
0.0
 11
105.969
 21
93.676
 31
0.0
  0
LINE
  5
110
330
107
100
AcDbEntity
  8
0
  6
Continuous
 62
     0
370
    30
100
AcDbLine
 10
110.969
 20
75.644
 30
0.0
 11
110.969
 21
82.585
 31
0.0
  0
LINE
  5
111
330
107
100
AcDbEntity
  8
0
  6
Continuous
 62
     0
370
    30
100
AcDbLine
 10
105.969
 20
82.585
 30
0.0
 11
105.969
 21
75.644
 31
0.0
  0
LINE
  5
112
330
107
100
AcDbEntity
  8
0
  6
Continuous
 62
     0
370
    30
100
AcDbLine
 10
118.969
 20
95.144
 30
0.0
 11
118.969
 21
81.144
 31
0.0
  0
LINE
  5
113
330
107
100
AcDbEntity
  8
0
  6
Continuous
 62
     0
370
    30
100
AcDbLine
 10
118.469
 20
95.144
 30
0.0
 11
118.969
 21
95.144
 31
0.0
  0
LINE
  5
114
330
107
100
AcDbEntity
  8
0
  6
Continuous
 62
     0
370
    30
100
AcDbLine
 10
97.969
 20
81.144
 30
0.0
 11
97.969
 21
95.144
 31
0.0
  0
LINE
  5
115
330
107
100
AcDbEntity
  8
0
  6
Continuous
 62
     0
370
    30
100
AcDbLine
 10
98.469
 20
81.144
 30
0.0
 11
97.969
 21
81.144
 31
0.0
  0
LINE
  5
116
330
107
100
AcDbEntity
  8
0
  6
Continuous
 62
     0
370
     0
100
AcDbLine
 10
117.469
 20
93.676
 30
0.0
 11
117.469
 21
99.144
 31
0.0
  0
LINE
  5
117
330
107
100
AcDbEntity
  8
0
  6
Continuous
 62
     0
370
    30
100
AcDbLine
 10
118.469
 20
93.174
 30
0.0
 11
118.469
 21
98.144
 31
0.0
  0
LINE
  5
118
330
107
100
AcDbEntity
  8
0
  6
Continuous
 62
     0
370
     0
100
AcDbLine
 10
99.469
 20
99.144
 30
0.0
 11
99.469
 21
93.676
 31
0.0
  0
LINE
  5
119
330
107
100
AcDbEntity
  8
0
  6
Continuous
 62
     0
370
    30
100
AcDbLine
 10
98.469
 20
98.144
 30
0.0
 11
98.469
 21
93.174
 31
0.0
  0
LINE
  5
11A
330
107
100
AcDbEntity
  8
0
  6
Continuous
 62
     0
370
     0
100
AcDbLine
 10
110.969
 20
93.676
 30
0.0
 11
117.469
 21
93.676
 31
0.0
  0
ELLIPSE
  5
11B
330
107
100
AcDbEntity
  8
0
  6
Continuous
 62
     0
370
     0
100
AcDbEllipse
 10
117.469
 20
93.174
 30
0.0
 11
-0.9999999999999964
 21
-6.914570826988343E-8
 31
0.0
210
0.0
220
0.0
230
-0.9999999999999999
 40
0.503
 41
1.570796377367519
 42
3.141592704162421
  0
LINE
  5
11C
330
107
100
AcDbEntity
  8
0
  6
Continuous
 62
     0
370
     0
100
AcDbLine
 10
99.469
 20
93.676
 30
0.0
 11
105.969
 21
93.676
 31
0.0
  0
ELLIPSE
  5
11D
330
107
100
AcDbEntity
  8
0
  6
Continuous
 62
     0
370
     0
100
AcDbEllipse
 10
99.469
 20
93.174
 30
0.0
 11
-0.9999999999999964
 21
-6.914570409528751E-8
 31
0.0
210
0.0
220
0.0
230
-0.9999999999999999
 40
0.503
 41
0.00000005057262
 42
1.570796377367515
  0
LINE
  5
11E
330
107
100
AcDbEntity
  8
0
  6
Continuous
 62
     0
370
     0
100
AcDbLine
 10
97.969
 20
75.144
 30
0.0
 11
108.469
 21
75.144
 31
0.0
  0
LINE
  5
11F
330
107
100
AcDbEntity
  8
0
  6
Continuous
 62
     0
370
    30
100
AcDbLine
 10
98.469
 20
75.644
 30
0.0
 11
108.469
 21
75.644
 31
0.0
  0
LINE
  5
120
330
107
100
AcDbEntity
  8
0
  6
Continuous
 62
     0
370
     0
100
AcDbLine
 10
118.969
 20
75.144
 30
0.0
 11
108.469
 21
75.144
 31
0.0
  0
LINE
  5
121
330
107
100
AcDbEntity
  8
0
  6
Continuous
 62
     0
370
    30
100
AcDbLine
 10
118.469
 20
75.644
 30
0.0
 11
108.469
 21
75.644
 31
0.0
  0
LINE
  5
122
330
107
100
AcDbEntity
  8
0
  6
Continuous
 62
     0
370
    30
100
AcDbLine
 10
118.969
 20
75.144
 30
0.0
 11
118.969
 21
69.144
 31
0.0
  0
ARC
  5
123
330
107
100
AcDbEntity
  8
0
  6
Continuous
 62
     0
370
    30
100
AcDbCircle
 10
118.469
 20
75.144
 30
0.0
 40
0.5
100
AcDbArc
 50
0.0
 51
90.0
  0
LINE
  5
124
330
107
100
AcDbEntity
  8
0
  6
Continuous
 62
     0
370
    30
100
AcDbLine
 10
97.969
 20
75.144
 30
0.0
 11
97.969
 21
69.144
 31
0.0
  0
ARC
  5
125
330
107
100
AcDbEntity
  8
0
  6
Continuous
 62
     0
370
    30
100
AcDbCircle
 10
98.469
 20
75.144
 30
0.0
 40
0.5
100
AcDbArc
 50
90.0
 51
180.0
  0
LINE
  5
126
330
107
100
AcDbEntity
  8
0
  6
Continuous
 62
     0
370
     0
100
AcDbLine
 10
108.469
 20
75.144
 30
0.0
 11
108.469
 21
69.144
 31
0.0
  0
LINE
  5
127
330
107
100
AcDbEntity
  8
0
  6
Continuous
 62
     0
370
     0
100
AcDbLine
 10
108.469
 20
75.644
 30
0.0
 11
108.469
 21
75.144
 31
0.0
  0
SPLINE
  5
128
330
107
100
AcDbEntity
  8
0
  6
Continuous
 62
     0
370
     0
100
AcDbSpline
210
0.0
220
0.0
230
1.0
 70
     8
 71
     3
 72
    14
 73
    10
 74
     0
 42
0.0
 43
0.0
 40
-3.323261350731809
 40
-3.323261350731809
 40
-3.323261350731809
 40
-3.323261350731809
 40
-3.212986268545246
 40
-3.102711186358684
 40
-2.992436104172121
 40
-2.882161021985559
 40
-2.771885939798997
 40
-2.661610857612434
 40
-2.551335775425872
 40
-2.551335775425872
 40
-2.551335775425872
 40
-2.551335775425872
 10
117.4694946383043
 20
75.8928237441223
 30
0.0
 10
117.5042435743151
 20
75.89282374564124
 30
0.0
 10
117.5737413669975
 20
75.89373549108475
 30
0.0
 10
117.6768562538151
 20
75.89782348749605
 30
0.0
 10
117.7777196817022
 20
75.9045874764208
 30
0.0
 10
117.875236542768
 20
75.913954017711
 30
0.0
 10
117.9683480318707
 20
75.9258214126248
 30
0.0
 10
118.0560432031559
 20
75.94006081383765
 30
0.0
 10
118.110260961551
 20
75.95103200642905
 30
0.0
 10
118.1361612876653
 20
75.95685739563442
 30
0.0
  0
LINE
  5
129
330
107
100
AcDbEntity
  8
0
  6
Continuous
 62
     0
370
     0
100
AcDbLine
 10
113.217
 20
75.893
 30
0.0
 11
117.469
 21
75.893
 31
0.0
  0
SPLINE
  5
12A
330
107
100
AcDbEntity
  8
0
  6
Continuous
 62
     0
370
     0
100
AcDbSpline
210
0.0
220
0.0
230
1.0
 70
     8
 71
     3
 72
    14
 73
    10
 74
     0
 42
0.0
 43
0.0
 40
-3.323261350731885
 40
-3.323261350731885
 40
-3.323261350731885
 40
-3.323261350731885
 40
-3.21298626854532
 40
-3.102711186358755
 40
-2.99243610417219
 40
-2.882161021985625
 40
-2.77188593979906
 40
-2.661610857612495
 40
-2.55133577542593
 40
-2.55133577542593
 40
-2.55133577542593
 40
-2.55133577542593
 10
99.46949463830433
 20
75.89282295731732
 30
0.0
 10
99.4347457022935
 20
75.89282295579838
 30
0.0
 10
99.36524790911824
 20
75.89373469516624
 30
0.0
 10
99.26213302009108
 20
75.89782268256289
 30
0.0
 10
99.16126958854787
 20
75.90458666266994
 30
0.0
 10
99.06375272241934
 20
75.91395319543491
 30
0.0
 10
98.97064122690207
 20
75.92582058220864
 30
0.0
 10
98.8829460479202
 20
75.94005997575493
 30
0.0
 10
98.82872828359501
 20
75.95103116360647
 30
0.0
 10
98.80282795433197
 20
75.95685655054757
 30
0.0
  0
LINE
  5
12B
330
107
100
AcDbEntity
  8
0
  6
Continuous
 62
     0
370
     0
100
AcDbLine
 10
99.469
 20
75.893
 30
0.0
 11
103.722
 21
75.893
 31
0.0
  0
LINE
  5
12C
330
107
100
AcDbEntity
  8
0
  6
Continuous
 62
     0
370
    30
100
AcDbLine
 10
118.469
 20
76.01
 30
0.0
 11
118.469
 21
93.174
 31
0.0
  0
LINE
  5
12D
330
107
100
AcDbEntity
  8
0
  6
Continuous
 62
     0
370
     0
100
AcDbLine
 10
117.469
 20
75.893
 30
0.0
 11
117.469
 21
93.676
 31
0.0
  0
LINE
  5
12E
330
107
100
AcDbEntity
  8
0
  6
Continuous
 62
     0
370
     0
100
AcDbLine
 10
117.469
 20
75.644
 30
0.0
 11
117.469
 21
75.893
 31
0.0
  0
LINE
  5
12F
330
107
100
AcDbEntity
  8
0
  6
Continuous
 62
     0
370
    30
100
AcDbLine
 10
98.469
 20
76.01
 30
0.0
 11
98.469
 21
93.174
 31
0.0
  0
LINE
  5
130
330
107
100
AcDbEntity
  8
0
  6
Continuous
 62
     0
370
     0
100
AcDbLine
 10
99.469
 20
75.893
 30
0.0
 11
99.469
 21
93.676
 31
0.0
  0
LINE
  5
131
330
107
100
AcDbEntity
  8
0
  6
Continuous
 62
     0
370
     0
100
AcDbLine
 10
99.469
 20
75.893
 30
0.0
 11
99.469
 21
75.644
 31
0.0
  0
SPLINE
  5
132
330
107
100
AcDbEntity
  8
0
  6
Continuous
 62
     0
370
    30
100
AcDbSpline
210
0.0
220
0.0
230
1.0
 70
     8
 71
     3
 72
    16
 73
    12
 74
     0
 42
0.0
 43
0.0
 40
0.0
 40
0.0
 40
0.0
 40
0.0
 40
0.3817174472609284
 40
1.145152341782785
 40
2.272175654839454
 40
3.366939155878118
 40
4.416702149951471
 40
5.410823312942215
 40
6.341574798913552
 40
6.917261838335813
 40
7.205105358046944
 40
7.205105358046944
 40
7.205105358046944
 40
7.205105358046944
 10
113.2172926802465
 20
75.89282355825264
 30
0.0
 10
113.2150379039629
 20
76.02004272757979
 30
0.0
 10
113.2030766955787
 20
76.40160812836714
 30
0.0
 10
113.1482661955697
 20
77.15773215012801
 30
0.0
 10
113.007711241675
 20
78.14393300382221
 30
0.0
 10
112.7604231370058
 20
79.2075781851118
 30
0.0
 10
112.4291617703726
 20
80.20168329003289
 30
0.0
 10
112.0201255744912
 20
81.1071482640811
 30
0.0
 10
111.5906967142196
 20
81.8237361166849
 30
0.0
 10
111.2266543926617
 20
82.30048927737577
 30
0.0
 10
111.0352112500214
 20
82.51558179039476
 30
0.0
 10
110.9694941755351
 20
82.58549068899251
 30
0.0
  0
SPLINE
  5
133
330
107
100
AcDbEntity
  8
0
  6
Continuous
 62
     0
370
    30
100
AcDbSpline
210
0.0
220
0.0
230
1.0
 70
     8
 71
     3
 72
    10
 73
     6
 74
     0
 42
0.0
 43
0.0
 40
0.0
 40
0.0
 40
0.0
 40
0.0
 40
0.2409564747102612
 40
0.4135672617190161
 40
0.52199259418062
 40
0.52199259418062
 40
0.52199259418062
 40
0.52199259418062
 10
113.2172926802465
 20
75.89282355825267
 30
0.0
 10
113.2185112635438
 20
75.82406855316881
 30
0.0
 10
113.2206472997995
 20
75.72115774721942
 30
0.0
 10
113.2175695486019
 20
75.6544716958646
 30
0.0
 10
113.2129671362722
 20
75.64428685774945
 30
0.0
 10
113.2107830747755
 20
75.64428685765398
 30
0.0
  0
SPLINE
  5
134
330
107
100
AcDbEntity
  8
0
  6
Continuous
 62
     0
370
    30
100
AcDbSpline
210
0.0
220
0.0
230
1.0
 70
     8
 71
     3
 72
    16
 73
    12
 74
     0
 42
0.0
 43
0.0
 40
0.0
 40
0.0
 40
0.0
 40
0.0
 40
0.2878435125551652
 40
0.8635305376654957
 40
1.794282002660957
 40
2.788403146570519
 40
3.838166124526962
 40
4.932929613202456
 40
6.059952918199576
 40
6.823387810441893
 40
7.20510525656305
 40
7.20510525656305
 40
7.20510525656305
 40
7.20510525656305
 10
105.9694941755351
 20
82.58549047043554
 30
0.0
 10
105.9037771106821
 20
82.51558156605591
 30
0.0
 10
105.7123339977065
 20
82.30048903620259
 30
0.0
 10
105.3482917416827
 20
81.82373584310346
 30
0.0
 10
104.9188629802659
 20
81.107147952239
 30
0.0
 10
104.5098269096368
 20
80.20168294202749
 30
0.0
 10
104.1785656806093
 20
79.20757780788585
 30
0.0
 10
103.931277723202
 20
78.14393260481347
 30
0.0
 10
103.7907229059296
 20
77.15773173926752
 30
0.0
 10
103.7359125106336
 20
76.40160771374804
 30
0.0
 10
103.7239513550477
 20
76.02004231244602
 30
0.0
 10
103.7216965963621
 20
75.89282314318696
 30
0.0
  0
SPLINE
  5
135
330
107
100
AcDbEntity
  8
0
  6
Continuous
 62
     0
370
    30
100
AcDbSpline
210
0.0
220
0.0
230
1.0
 70
     8
 71
     3
 72
    10
 73
     6
 74
     0
 42
0.0
 43
0.0
 40
0.0
 40
0.0
 40
0.0
 40
0.0
 40
0.2409564747102612
 40
0.4135672617190257
 40
0.52199259418062
 40
0.52199259418062
 40
0.52199259418062
 40
0.52199259418062
 10
103.7216965963621
 20
75.892823143187
 30
0.0
 10
103.7204780225731
 20
75.82406813799659
 30
0.0
 10
103.7183420039818
 20
75.72115733186047
 30
0.0
 10
103.7214197752821
 20
75.65447128077471
 30
0.0
 10
103.7260221966969
 20
75.6442864430619
 30
0.0
 10
103.7282062613419
 20
75.64428644315737
 30
0.0
  0
SPLINE
  5
136
330
107
100
AcDbEntity
  8
0
  6
Continuous
 62
     0
370
     0
100
AcDbSpline
210
0.0
220
0.0
230
1.0
 70
     8
 71
     3
 72
    10
 73
     6
 74
     0
 42
0.0
 43
0.0
 40
0.0
 40
0.0
 40
0.0
 40
0.0
 40
0.294076914531363
 40
0.5074777470852594
 40
0.979480505365418
 40
0.979480505365418
 40
0.979480505365418
 40
0.979480505365418
 10
118.4694945796078
 20
76.01031249130398
 30
0.0
 10
118.4694945849309
 20
75.99061628503182
 30
0.0
 10
118.4534015922631
 20
75.97021452677745
 30
0.0
 10
118.3606644726298
 20
75.97006248840813
 30
0.0
 10
118.2372347850178
 20
75.97959040902691
 30
0.0
 10
118.1361612876653
 20
75.95685739563439
 30
0.0
  0
ARC
  5
137
330
107
100
AcDbEntity
  8
0
  6
Continuous
 62
     0
370
    30
100
AcDbCircle
 10
118.969
 20
76.01
 30
0.0
 40
0.5
100
AcDbArc
 50
180.0
 51
240.0
  0
ELLIPSE
  5
138
330
107
100
AcDbEntity
  8
0
  6
Continuous
 62
     0
370
     0
100
AcDbEllipse
 10
118.469
 20
76.144
 30
0.0
 11
-2.185569517192102E-8
 21
0.5000000000000063
 31
0.0
210
0.0
220
0.0
230
-1.0
 40
0.719
 41
3.141592653589796
 42
4.328143918177593
  0
SPLINE
  5
139
330
107
100
AcDbEntity
  8
0
  6
Continuous
 62
     0
370
     0
100
AcDbSpline
210
0.0
220
0.0
230
1.0
 70
     8
 71
     3
 72
    10
 73
     6
 74
     0
 42
0.0
 43
0.0
 40
0.0
 40
0.0
 40
0.0
 40
0.0
 40
0.2940769145303212
 40
0.5074777470832239
 40
0.979480505365406
 40
0.979480505365406
 40
0.979480505365406
 40
0.979480505365406
 10
98.46949457960787
 20
76.01031161707621
 30
0.0
 10
98.46949458493094
 20
75.99061541080411
 30
0.0
 10
98.48558759460781
 20
75.97021365395662
 30
0.0
 10
98.57832474148745
 20
75.97006162369442
 30
0.0
 10
98.70175444469146
 20
75.97958955510407
 30
0.0
 10
98.80282795433197
 20
75.95685655054763
 30
0.0
  0
ARC
  5
13A
330
107
100
AcDbEntity
  8
0
  6
Continuous
 62
     0
370
    30
100
AcDbCircle
 10
97.969
 20
76.01
 30
0.0
 40
0.5
100
AcDbArc
 50
300.0
 51
0.0
  0
ELLIPSE
  5
13B
330
107
100
AcDbEntity
  8
0
  6
Continuous
 62
     0
370
     0
100
AcDbEllipse
 10
98.469
 20
76.144
 30
0.0
 11
-2.185569315475927E-8
 21
0.5000000000000081
 31
0.0
210
0.0
220
0.0
230
1.0
 40
0.719
 41
3.141592653589796
 42
4.328143918177622
  0
LINE
  5
13C
330
107
100
AcDbEntity
  8
0
  6
HIDDEN2
 62
     0
370
    30
100
AcDbLine
 10
98.469
 20
75.644
 30
0.0
 11
98.437
 21
75.643
 31
0.0
  0
LINE
  5
13D
330
107
100
AcDbEntity
  8
0
  6
HIDDEN2
 62
     0
370
    30
100
AcDbLine
 10
118.469
 20
75.644
 30
0.0
 11
118.502
 21
75.643
 31
0.0
  0
LINE
  5
13E
330
107
100
AcDbEntity
  8
0
  6
HIDDEN2
 62
     0
370
    30
100
AcDbLine
 10
113.219
 20
75.734
 30
0.0
 11
113.219
 21
74.144
 31
0.0
  0
LINE
  5
13F
330
107
100
AcDbEntity
  8
0
  6
Continuous
 62
     0
370
    30
100
AcDbLine
 10
113.219
 20
75.735
 30
0.0
 11
113.219
 21
75.734
 31
0.0
  0
LINE
  5
140
330
107
100
AcDbEntity
  8
0
  6
HIDDEN2
 62
     0
370
    30
100
AcDbLine
 10
103.719
 20
75.734
 30
0.0
 11
103.719
 21
74.144
 31
0.0
  0
LINE
  5
141
330
107
100
AcDbEntity
  8
0
  6
Continuous
 62
     0
370
    30
100
AcDbLine
 10
103.719
 20
75.735
 30
0.0
 11
103.719
 21
75.734
 31
0.0
  0
ARC
  5
142
330
107
100
AcDbEntity
  8
0
  6
Continuous
 62
     0
370
    30
100
AcDbCircle
 10
99.469
 20
98.144
 30
0.0
 40
1.0
100
AcDbArc
 50
90.0
 51
180.0
  0
ARC
  5
143
330
107
100
AcDbEntity
  8
0
  6
Continuous
 62
     0
370
    30
100
AcDbCircle
 10
117.469
 20
98.144
 30
0.0
 40
1.0
100
AcDbArc
 50
0.0
 51
90.0
  0
LINE
  5
144
330
107
100
AcDbEntity
  8
0
  6
Continuous
 62
     0
370
    30
100
AcDbLine
 10
110.969
 20
99.144
 30
0.0
 11
117.469
 21
99.144
 31
0.0
  0
LINE
  5
145
330
107
100
AcDbEntity
  8
0
  6
Continuous
 62
     0
370
    30
100
AcDbLine
 10
99.469
 20
99.144
 30
0.0
 11
105.969
 21
99.144
 31
0.0
  0
LINE
  5
146
330
107
100
AcDbEntity
  8
0
  6
Continuous
 62
     0
370
    30
100
AcDbLine
 10
98.469
 20
95.144
 30
0.0
 11
97.969
 21
95.144
 31
0.0
  0
LINE
  5
147
330
107
100
AcDbEntity
  8
0
  6
Continuous
 62
     0
370
    30
100
AcDbLine
 10
118.469
 20
81.144
 30
0.0
 11
118.969
 21
81.144
 31
0.0
  0
LINE
  5
148
330
107
100
AcDbEntity
  8
0
  6
HIDDEN2
 62
     0
370
    30
100
AcDbLine
 10
110.969
 20
69.144
 30
0.0
 11
110.969
 21
74.144
 31
0.0
  0
LINE
  5
149
330
107
100
AcDbEntity
  8
0
  6
HIDDEN2
 62
     0
370
    30
100
AcDbLine
 10
105.969
 20
69.144
 30
0.0
 11
105.969
 21
74.144
 31
0.0
  0
LINE
  5
14A
330
107
100
AcDbEntity
  8
0
  6
Continuous
 62
     0
370
    30
100
AcDbLine
 10
119.969
 20
93.144
 30
0.0
 11
119.969
 21
83.144
 31
0.0
  0
LINE
  5
14B
330
107
100
AcDbEntity
  8
0
  6
Continuous
 62
     0
370
    30
100
AcDbLine
 10
118.969
 20
93.144
 30
0.0
 11
119.969
 21
93.144
 31
0.0
  0
LINE
  5
14C
330
107
100
AcDbEntity
  8
0
  6
Continuous
 62
     0
370
    30
100
AcDbLine
 10
95.469
 20
84.644
 30
0.0
 11
95.469
 21
91.644
 31
0.0
  0
LINE
  5
14D
330
107
100
AcDbEntity
  8
0
  6
Continuous
 62
     0
370
    30
100
AcDbLine
 10
95.969
 20
84.144
 30
0.0
 11
95.969
 21
92.144
 31
0.0
  0
LINE
  5
14E
330
107
100
AcDbEntity
  8
0
  6
Continuous
 62
     0
370
    30
100
AcDbLine
 10
97.969
 20
92.144
 30
0.0
 11
95.969
 21
92.144
 31
0.0
  0
LINE
  5
14F
330
107
100
AcDbEntity
  8
0
  6
HIDDEN2
 62
     0
370
    30
100
AcDbLine
 10
105.969
 20
92.144
 30
0.0
 11
97.969
 21
92.144
 31
0.0
  0
LINE
  5
150
330
107
100
AcDbEntity
  8
0
  6
Continuous
 62
     0
370
    30
100
AcDbLine
 10
110.969
 20
92.144
 30
0.0
 11
105.969
 21
92.144
 31
0.0
  0
LINE
  5
151
330
107
100
AcDbEntity
  8
0
  6
HIDDEN2
 62
     0
370
    30
100
AcDbLine
 10
118.969
 20
92.144
 30
0.0
 11
110.969
 21
92.144
 31
0.0
  0
LINE
  5
152
330
107
100
AcDbEntity
  8
0
  6
Continuous
 62
     0
370
    30
100
AcDbLine
 10
95.469
 20
91.644
 30
0.0
 11
95.969
 21
92.144
 31
0.0
  0
LINE
  5
153
330
107
100
AcDbEntity
  8
0
  6
Continuous
 62
     0
370
    30
100
AcDbLine
 10
95.469
 20
84.644
 30
0.0
 11
95.969
 21
84.144
 31
0.0
  0
LINE
  5
154
330
107
100
AcDbEntity
  8
0
  6
Continuous
 62
     0
370
    30
100
AcDbLine
 10
97.969
 20
84.144
 30
0.0
 11
95.969
 21
84.144
 31
0.0
  0
LINE
  5
155
330
107
100
AcDbEntity
  8
0
  6
HIDDEN2
 62
     0
370
    30
100
AcDbLine
 10
105.969
 20
84.144
 30
0.0
 11
97.969
 21
84.144
 31
0.0
  0
LINE
  5
156
330
107
100
AcDbEntity
  8
0
  6
Continuous
 62
     0
370
    30
100
AcDbLine
 10
110.969
 20
84.144
 30
0.0
 11
105.969
 21
84.144
 31
0.0
  0
LINE
  5
157
330
107
100
AcDbEntity
  8
0
  6
HIDDEN2
 62
     0
370
    30
100
AcDbLine
 10
118.969
 20
84.144
 30
0.0
 11
110.969
 21
84.144
 31
0.0
  0
LINE
  5
158
330
107
100
AcDbEntity
  8
0
  6
Continuous
 62
     0
370
    30
100
AcDbLine
 10
118.969
 20
83.144
 30
0.0
 11
119.969
 21
83.144
 31
0.0
  0
ENDBLK
  5
15A
330
107
100
AcDbEntity
  8
0
100
AcDbBlockEnd
  0
BLOCK
  5
1CC
330
15C
100
AcDbEntity
  8
0
100
AcDbBlockBegin
  2
d
 70
     0
 10
82.086
 20
5.261
 30
0.0
  3
d
  1

  0
ELLIPSE
  5
15D
330
15C
100
AcDbEntity
  8
0
  6
Continuous
 62
     0
370
    30
100
AcDbEllipse
 10
110.837
 20
39.784
 30
0.0
 11
5.500000000000003
 21
9.526279441628828
 31
0.0
210
0.0
220
0.0
230
0.9999999999999998
 40
0.577
 41
6.024768574822511
 42
8.112398366331561
  0
ELLIPSE
  5
15E
330
15C
100
AcDbEntity
  8
0
  6
Continuous
 62
     0
370
    30
100
AcDbEllipse
 10
114.373
 20
37.743
 30
0.0
 11
-5.500000000000003
 21
-9.526279441628828
 31
0.0
210
0.0
220
0.0
230
-0.9999999999999998
 40
0.577
 41
1.312379594437818
 42
3.14159267643995
  0
LINE
  5
15F
330
15C
100
AcDbEntity
  8
0
  6
Continuous
 62
     0
370
    30
100
AcDbLine
 10
134.525
 20
27.332
 30
0.0
 11
105.534
 21
10.594
 31
0.0
  0
ELLIPSE
  5
160
330
15C
100
AcDbEntity
  8
0
  6
Continuous
 62
     0
370
    30
100
AcDbEllipse
 10
98.109
 20
14.881
 30
0.0
 11
10.5
 21
1.865174681370263E-14
 31
0.0
210
0.0
220
0.0
230
-1.0
 40
0.577
 41
0.7853981633974494
 42
2.356194490192345
  0
ELLIPSE
  5
161
330
15C
100
AcDbEntity
  8
0
  6
Continuous
 62
     0
370
    30
100
AcDbEllipse
 10
98.109
 20
14.881
 30
0.0
 11
-10.5
 21
-1.865174681370263E-14
 31
0.0
210
0.0
220
0.0
230
1.0
 40
0.577
 41
6.283185298539899
 42
7.068583470577035
  0
ELLIPSE
  5
162
330
15C
100
AcDbEntity
  8
0
  6
Continuous
 62
     0
370
    30
100
AcDbEllipse
 10
127.101
 20
31.619
 30
0.0
 11
-10.5
 21
5.828670879282072E-16
 31
0.0
210
0.0
220
0.0
230
1.0
 40
0.577
 41
2.356194490192345
 42
3.141592644950106
  0
ELLIPSE
  5
163
330
15C
100
AcDbEntity
  8
0
  6
Continuous
 62
     0
370
    30
100
AcDbEllipse
 10
98.463
 20
19.167
 30
0.0
 11
-4.75
 21
-5.537237335317968E-15
 31
0.0
210
0.0
220
0.0
230
1.0
 40
0.577
 41
3.683749835789885
 42
3.926990816987242
  0
ELLIPSE
  5
164
330
15C
100
AcDbEntity
  8
0
  6
Continuous
 62
     0
370
    30
100
AcDbEllipse
 10
98.463
 20
19.167
 30
0.0
 11
-4.75
 21
-5.537237335317968E-15
 31
0.0
210
0.0
220
0.0
230
1.0
 40
0.577
 41
3.926990816987242
 42
6.05798986417658
  0
ELLIPSE
  5
165
330
15C
100
AcDbEntity
  8
0
  6
Continuous
 62
     0
370
    30
100
AcDbEllipse
 10
98.463
 20
20.392
 30
0.0
 11
-4.75
 21
-5.537237335317968E-15
 31
0.0
210
0.0
220
0.0
230
1.0
 40
0.577
 41
3.926990816987245
 42
4.481252651439569
  0
ELLIPSE
  5
166
330
15C
100
AcDbEntity
  8
0
  6
Continuous
 62
     0
370
    30
100
AcDbEllipse
 10
98.463
 20
20.392
 30
0.0
 11
-4.75
 21
-5.537237335317968E-15
 31
0.0
210
0.0
220
0.0
230
1.0
 40
0.577
 41
3.574515168322627
 42
3.926990816987239
  0
ELLIPSE
  5
167
330
15C
100
AcDbEntity
  8
0
  6
Continuous
 62
     0
370
    30
100
AcDbEllipse
 10
98.463
 20
19.167
 30
0.0
 11
-2.5
 21
1.387778780781446E-16
 31
0.0
210
0.0
220
0.0
230
1.0
 40
0.577
 41
0.0
 42
6.283185307179586
  0
ELLIPSE
  5
168
330
15C
100
AcDbEntity
  8
0
  6
Continuous
 62
     0
370
    30
100
AcDbEllipse
 10
126.747
 20
35.497
 30
0.0
 11
-4.75
 21
-5.537237335317968E-15
 31
0.0
210
0.0
220
0.0
230
1.0
 40
0.577
 41
3.366788079313419
 42
3.926990816987239
  0
ELLIPSE
  5
169
330
15C
100
AcDbEntity
  8
0
  6
Continuous
 62
     0
370
    30
100
AcDbEllipse
 10
126.747
 20
35.497
 30
0.0
 11
-4.75
 21
-5.537237335317968E-15
 31
0.0
210
0.0
220
0.0
230
1.0
 40
0.577
 41
3.926990816987239
 42
3.947044491474036
  0
LINE
  5
16A
330
15C
100
AcDbEntity
  8
0
  6
Continuous
 62
     0
370
    30
100
AcDbLine
 10
103.087
 20
25.103
 30
0.0
 11
99.551
 21
23.062
 31
0.0
  0
LINE
  5
16B
330
15C
100
AcDbEntity
  8
0
  6
Continuous
 62
     0
370
    30
100
AcDbLine
 10
117.843
 20
47.784
 30
0.0
 11
117.56
 21
48.182
 31
0.0
  0
LINE
  5
16C
330
15C
100
AcDbEntity
  8
0
  6
Continuous
 62
     0
370
    30
100
AcDbLine
 10
103.087
 20
26.688
 30
0.0
 11
107.65
 21
38.378
 31
0.0
  0
LINE
  5
16D
330
15C
100
AcDbEntity
  8
0
  6
Continuous
 62
     0
370
    30
100
AcDbLine
 10
99.551
 20
28.729
 30
0.0
 11
104.114
 21
40.419
 31
0.0
  0
LINE
  5
16E
330
15C
100
AcDbEntity
  8
0
  6
Continuous
 62
     0
370
    30
100
AcDbLine
 10
99.551
 20
28.729
 30
0.0
 11
99.551
 21
23.062
 31
0.0
  0
LINE
  5
16F
330
15C
100
AcDbEntity
  8
0
  6
Continuous
 62
     0
370
    30
100
AcDbLine
 10
103.087
 20
23.272
 30
0.0
 11
103.087
 21
26.688
 31
0.0
  0
ELLIPSE
  5
170
330
15C
100
AcDbEntity
  8
0
  6
Continuous
 62
     0
370
    30
100
AcDbEllipse
 10
110.837
 20
39.784
 30
0.0
 11
2.0
 21
3.464101615137755
 31
0.0
210
0.0
220
0.0
230
0.9999999999999997
 40
0.577
 41
1.334756541012931
 42
1.806836066876549
  0
ELLIPSE
  5
171
330
15C
100
AcDbEntity
  8
0
  6
Continuous
 62
     0
370
    30
100
AcDbEllipse
 10
119.676
 20
34.681
 30
0.0
 11
3.500000000000001
 21
6.062177826491071
 31
0.0
210
0.0
220
0.0
230
0.9999999999999997
 40
0.577
 41
6.283185284329431
 42
9.424777937919222
  0
ELLIPSE
  5
172
330
15C
100
AcDbEntity
  8
0
  6
Continuous
 62
     0
370
    30
100
AcDbEllipse
 10
120.03
 20
34.477
 30
0.0
 11
3.500000000000001
 21
6.062177826491071
 31
0.0
210
0.0
220
0.0
230
0.9999999999999997
 40
0.577
 41
4.812428300918395
 42
10.21017612416683
  0
ELLIPSE
  5
173
330
15C
100
AcDbEntity
  8
0
  6
Continuous
 62
     0
370
    30
100
AcDbEllipse
 10
120.03
 20
34.477
 30
0.0
 11
3.500000000000001
 21
6.062177826491071
 31
0.0
210
0.0
220
0.0
230
0.9999999999999997
 40
0.577
 41
3.926990816987244
 42
4.612349614150678
  0
ELLIPSE
  5
174
330
15C
100
AcDbEntity
  8
0
  6
Continuous
 62
     0
370
    30
100
AcDbEllipse
 10
120.03
 20
34.477
 30
0.0
 11
-2.0
 21
-3.464101615137755
 31
0.0
210
0.0
220
0.0
230
-0.9999999999999997
 40
0.577
 41
0.0000000228501585
 42
3.141592676439946
  0
ELLIPSE
  5
175
330
15C
100
AcDbEntity
  8
0
  6
Continuous
 62
     0
370
     0
100
AcDbEllipse
 10
106.241
 20
42.437
 30
0.0
 11
5.500000000000003
 21
9.526279441628828
 31
0.0
210
0.0
220
0.0
230
0.9999999999999998
 40
0.577
 41
6.283185284329432
 42
8.112398366331561
  0
ELLIPSE
  5
176
330
15C
100
AcDbEntity
  8
0
  6
Continuous
 62
     0
370
     0
100
AcDbEllipse
 10
118.969
 20
35.089
 30
0.0
 11
-5.500000000000003
 21
-9.526279441628828
 31
0.0
210
0.0
220
0.0
230
-0.9999999999999998
 40
0.577
 41
1.312379594437817
 42
3.141594935902165
  0
ELLIPSE
  5
177
330
15C
100
AcDbEntity
  8
0
  6
Continuous
 62
     0
370
     0
100
AcDbEllipse
 10
119.676
 20
34.681
 30
0.0
 11
-5.000000000000006
 21
-8.660254037844391
 31
0.0
210
0.0
220
0.0
230
-0.9999999999999999
 40
0.577
 41
1.312379594437817
 42
3.400009385946872
  0
LINE
  5
178
330
15C
100
AcDbEntity
  8
0
  6
Continuous
 62
     0
370
     0
100
AcDbLine
 10
104.114
 20
40.419
 30
0.0
 11
99.518
 21
43.073
 31
0.0
  0
ELLIPSE
  5
179
330
15C
100
AcDbEntity
  8
0
  6
Continuous
 62
     0
370
     0
100
AcDbEllipse
 10
100.129
 20
43.015
 30
0.0
 11
-0.931544811270498
 21
0.3636265455037826
 31
0.0
210
0.0
220
0.0
230
1.0
 40
0.209
 41
6.283185290935863
 42
7.222496347481597
  0
LINE
  5
17A
330
15C
100
AcDbEntity
  8
0
  6
Continuous
 62
     0
370
     0
100
AcDbLine
 10
112.246
 20
35.725
 30
0.0
 11
107.65
 21
38.378
 31
0.0
  0
ELLIPSE
  5
17B
330
15C
100
AcDbEntity
  8
0
  6
Continuous
 62
     0
370
     0
100
AcDbEllipse
 10
112.857
 20
35.667
 30
0.0
 11
0.931544811270498
 21
-0.3636265455037826
 31
0.0
210
0.0
220
0.0
230
-1.0
 40
0.209
 41
0.6314852864928191
 42
2.202281613287734
  0
ELLIPSE
  5
17C
330
15C
100
AcDbEntity
  8
0
  6
Continuous
 62
     0
370
     0
100
AcDbEllipse
 10
125.081
 20
42.724
 30
0.0
 11
-0.8151239397885023
 21
-0.5792865981391834
 31
0.0
210
0.0
220
0.0
230
0.9999999999999998
 40
0.789
 41
1.917592964294672
 42
3.141592668395146
  0
ELLIPSE
  5
17D
330
15C
100
AcDbEntity
  8
0
  6
Continuous
 62
     0
370
     0
100
AcDbEllipse
 10
98.109
 20
19.78
 30
0.0
 11
-10.5
 21
-1.865174681370263E-14
 31
0.0
210
0.0
220
0.0
230
1.0
 40
0.577
 41
6.283185210097781
 42
7.068583470577033
  0
ELLIPSE
  5
17E
330
15C
100
AcDbEntity
  8
0
  6
Continuous
 62
     0
370
     0
100
AcDbEllipse
 10
98.109
 20
20.188
 30
0.0
 11
-10.0
 21
-1.165734175856414E-14
 31
0.0
210
0.0
220
0.0
230
1.0
 40
0.577
 41
5.497787143782136
 42
7.068583470577034
  0
ELLIPSE
  5
17F
330
15C
100
AcDbEntity
  8
0
  6
Continuous
 62
     0
370
     0
100
AcDbEllipse
 10
98.109
 20
19.78
 30
0.0
 11
10.5
 21
1.865174681370263E-14
 31
0.0
210
0.0
220
0.0
230
-1.0
 40
0.577
 41
0.7853981633974494
 42
2.356194490192347
  0
ELLIPSE
  5
180
330
15C
100
AcDbEntity
  8
0
  6
Continuous
 62
     0
370
     0
100
AcDbEllipse
 10
98.109
 20
20.188
 30
0.0
 11
10.0
 21
1.165734175856414E-14
 31
0.0
210
0.0
220
0.0
230
-1.0
 40
0.577
 41
0.7853981633974504
 42
2.356194490192346
  0
LINE
  5
181
330
15C
100
AcDbEntity
  8
0
  6
Continuous
 62
     0
370
     0
100
AcDbLine
 10
134.525
 20
32.231
 30
0.0
 11
105.534
 21
15.493
 31
0.0
  0
ELLIPSE
  5
182
330
15C
100
AcDbEntity
  8
0
  6
Continuous
 62
     0
370
     0
100
AcDbEllipse
 10
127.101
 20
36.518
 30
0.0
 11
-10.5
 21
5.828670879282072E-16
 31
0.0
210
0.0
220
0.0
230
1.0
 40
0.577
 41
2.356194490192345
 42
3.141592711072892
  0
ELLIPSE
  5
183
330
15C
100
AcDbEntity
  8
0
  6
Continuous
 62
     0
370
     0
100
AcDbEllipse
 10
127.101
 20
36.926
 30
0.0
 11
-10.0
 21
-1.165734175856414E-14
 31
0.0
210
0.0
220
0.0
230
1.0
 40
0.577
 41
2.356194490192344
 42
3.926990816987237
  0
ELLIPSE
  5
184
330
15C
100
AcDbEntity
  8
0
  6
Continuous
 62
     0
370
     0
100
AcDbEllipse
 10
127.101
 20
36.926
 30
0.0
 11
10.0
 21
1.165734175856414E-14
 31
0.0
210
0.0
220
0.0
230
-1.0
 40
0.577
 41
4.635925966590747
 42
5.497787143782142
  0
ELLIPSE
  5
185
330
15C
100
AcDbEntity
  8
0
  6
Continuous
 62
     0
370
     0
100
AcDbEllipse
 10
91.038
 20
23.862
 30
0.0
 11
-0.2500000000000012
 21
0.4330127018922187
 31
0.0
210
0.0
220
0.0
230
-1.0
 40
0.577
 41
6.283170213698282
 42
7.068583470577037
  0
LINE
  5
186
330
15C
100
AcDbEntity
  8
0
  6
Continuous
 62
     0
370
     0
100
AcDbLine
 10
90.685
 20
10.594
 30
0.0
 11
90.685
 21
15.493
 31
0.0
  0
LINE
  5
187
330
15C
100
AcDbEntity
  8
0
  6
Continuous
 62
     0
370
     0
100
AcDbLine
 10
105.534
 20
10.594
 30
0.0
 11
105.534
 21
15.493
 31
0.0
  0
ELLIPSE
  5
188
330
15C
100
AcDbEntity
  8
0
  6
Continuous
 62
     0
370
     0
100
AcDbEllipse
 10
91.038
 20
15.697
 30
0.0
 11
0.2500000000000001
 21
0.4330127018922194
 31
0.0
210
0.0
220
0.0
230
0.9999999999999997
 40
0.577
 41
0.7853981633974483
 42
2.356194490192345
  0
LINE
  5
189
330
15C
100
AcDbEntity
  8
0
  6
Continuous
 62
     0
370
     0
100
AcDbLine
 10
134.525
 20
32.231
 30
0.0
 11
134.525
 21
27.332
 31
0.0
  0
ELLIPSE
  5
18A
330
15C
100
AcDbEntity
  8
0
  6
Continuous
 62
     0
370
     0
100
AcDbEllipse
 10
134.172
 20
32.435
 30
0.0
 11
0.2500000000000006
 21
-0.433012701892219
 31
0.0
210
0.0
220
0.0
230
1.0
 40
0.577
 41
0.7853981633974474
 42
2.356194490192343
  0
ELLIPSE
  5
18B
330
15C
100
AcDbEntity
  8
0
  6
Continuous
 62
     0
370
     0
100
AcDbEllipse
 10
105.18
 20
15.697
 30
0.0
 11
-0.2500000000000006
 21
0.433012701892219
 31
0.0
210
0.0
220
0.0
230
-1.0
 40
0.577
 41
0.7853981633974504
 42
2.356194490192346
  0
ELLIPSE
  5
18C
330
15C
100
AcDbEntity
  8
0
  6
Continuous
 62
     0
370
     0
100
AcDbEllipse
 10
134.172
 20
40.6
 30
0.0
 11
-0.2500000000000001
 21
-0.4330127018922194
 31
0.0
210
0.0
220
0.0
230
-0.9999999999999997
 40
0.577
 41
2.356194490192288
 42
3.141607737340005
  0
LINE
  5
18D
330
15C
100
AcDbEntity
  8
0
  6
Continuous
 62
     0
370
     0
100
AcDbLine
 10
95.208
 20
22.592
 30
0.0
 11
92.201
 21
24.328
 31
0.0
  0
LINE
  5
18E
330
15C
100
AcDbEntity
  8
0
  6
Continuous
 62
     0
370
     0
100
AcDbLine
 10
94.907
 20
22.21
 30
0.0
 11
91.896
 21
23.949
 31
0.0
  0
SPLINE
  5
18F
330
15C
100
AcDbEntity
  8
0
  6
Continuous
 62
     0
370
     0
100
AcDbSpline
210
0.0
220
0.0
230
1.0
 70
     8
 71
     3
 72
    14
 73
    10
 74
     0
 42
0.0
 43
0.0
 40
-3.323261350731898
 40
-3.323261350731898
 40
-3.323261350731898
 40
-3.323261350731898
 40
-3.212986268545334
 40
-3.10271118635877
 40
-2.992436104172205
 40
-2.882161021985641
 40
-2.771885939799076
 40
-2.661610857612512
 40
-2.551335775425948
 40
-2.551335775425948
 40
-2.551335775425948
 40
-2.551335775425948
 10
92.2012662822885
 20
24.32825383918092
 30
0.0
 10
92.17669507399624
 20
24.3424400329028
 30
0.0
 10
92.1308940643222
 20
24.37348595250369
 30
0.0
 10
92.07296248897066
 20
24.42756992672369
 30
0.0
 10
92.02642990512213
 20
24.48858174264643
 30
0.0
 10
91.99180152793576
 20
24.55585897092428
 30
0.0
 10
91.96945334063543
 20
24.62867113813522
 30
0.0
 10
91.9596279907668
 20
24.706227699679
 30
0.0
 10
91.96149743086698
 20
24.7605335775047
 30
0.0
 10
91.9645319992183
 20
24.78818952480626
 30
0.0
  0
SPLINE
  5
190
330
15C
100
AcDbEntity
  8
0
  6
Continuous
 62
     0
370
     0
100
AcDbSpline
210
0.0
220
0.0
230
1.0
 70
     8
 71
     3
 72
    14
 73
    10
 74
     0
 42
0.0
 43
0.0
 40
-4.836507031854486
 40
-4.836507031854486
 40
-4.836507031854486
 40
-4.836507031854486
 40
-4.676018236618389
 40
-4.51552944138229
 40
-4.355040646146192
 40
-4.194551850910094
 40
-4.034063055673997
 40
-3.873574260437898
 40
-3.7130854652018
 40
-3.7130854652018
 40
-3.7130854652018
 40
-3.7130854652018
 10
91.89567978969508
 20
23.94889402937984
 30
0.0
 10
91.85882297725668
 20
23.97017331996263
 30
0.0
 10
91.78955876668569
 20
24.01530067480689
 30
0.0
 10
91.7001384356325
 20
24.08996325274934
 30
0.0
 10
91.62616506121547
 20
24.17078667337144
 30
0.0
 10
91.56844179087756
 20
24.25689340626814
 30
0.0
 10
91.52759536439244
 20
24.34734853361577
 30
0.0
 10
91.50406927318916
 20
24.44116995451721
 30
0.0
 10
91.50010239201045
 20
24.50528259976497
 30
0.0
 10
91.50105901534124
 20
24.53755620000658
 30
0.0
  0
LINE
  5
191
330
15C
100
AcDbEntity
  8
0
  6
Continuous
 62
     0
370
     0
100
AcDbLine
 10
104.929
 20
16.98
 30
0.0
 11
101.922
 21
18.716
 31
0.0
  0
LINE
  5
192
330
15C
100
AcDbEntity
  8
0
  6
Continuous
 62
     0
370
     0
100
AcDbLine
 10
104.624
 20
16.6
 30
0.0
 11
101.612
 21
18.339
 31
0.0
  0
SPLINE
  5
193
330
15C
100
AcDbEntity
  8
0
  6
Continuous
 62
     0
370
     0
100
AcDbSpline
210
0.0
220
0.0
230
1.0
 70
     8
 71
     3
 72
    14
 73
    10
 74
     0
 42
0.0
 43
0.0
 40
-3.32326135073187
 40
-3.32326135073187
 40
-3.32326135073187
 40
-3.32326135073187
 40
-3.212986268545306
 40
-3.102711186358743
 40
-2.992436104172179
 40
-2.882161021985616
 40
-2.771885939799052
 40
-2.661610857612488
 40
-2.551335775425925
 40
-2.551335775425925
 40
-2.551335775425925
 40
-2.551335775425925
 10
104.9291883436464
 20
16.97978461083139
 30
0.0
 10
104.9537595519386
 20
16.96559841710957
 30
0.0
 10
105.0062432635796
 20
16.93989962640204
 30
0.0
 10
105.0941381612104
 20
16.90979064719065
 30
0.0
 10
105.1902480076126
 20
16.88844781761031
 30
0.0
 10
105.2935293014853
 20
16.87610286017833
 30
0.0
 10
105.4028606494226
 20
16.87288981227305
 30
0.0
 10
105.5170550055825
 20
16.87884356315638
 30
0.0
 10
105.5955999391197
 20
16.88888082420602
 30
0.0
 10
105.6352631021582
 20
16.89538924250488
 30
0.0
  0
SPLINE
  5
194
330
15C
100
AcDbEntity
  8
0
  6
Continuous
 62
     0
370
     0
100
AcDbSpline
210
0.0
220
0.0
230
1.0
 70
     8
 71
     3
 72
    14
 73
    10
 74
     0
 42
0.0
 43
0.0
 40
-4.836507031854457
 40
-4.836507031854457
 40
-4.836507031854457
 40
-4.836507031854457
 40
-4.67601823661836
 40
-4.515529441382262
 40
-4.355040646146165
 40
-4.194551850910067
 40
-4.03406305567397
 40
-3.873574260437873
 40
-3.713085465201775
 40
-3.713085465201775
 40
-3.713085465201775
 40
-3.713085465201775
 10
104.6236018510529
 20
16.60042480103031
 30
0.0
 10
104.6604586634913
 20
16.57914551044754
 30
0.0
 10
104.7386215348928
 20
16.53915579982917
 30
0.0
 10
104.8679409133132
 20
16.48752894762456
 30
0.0
 10
105.0079311842722
 20
16.44482039999204
 30
0.0
 10
105.157072420523
 20
16.41149385432394
 30
0.0
 10
105.3137452968942
 20
16.38791115899731
 30
0.0
 10
105.4762487647338
 20
16.37432836390813
 30
0.0
 10
105.5872951237106
 20
16.37203808399175
 30
0.0
 10
105.6431946390722
 20
16.37259039072931
 30
0.0
  0
LINE
  5
195
330
15C
100
AcDbEntity
  8
0
  6
Continuous
 62
     0
370
     0
100
AcDbLine
 10
106.503
 20
17.168
 30
0.0
 11
132.85
 21
32.379
 31
0.0
  0
LINE
  5
196
330
15C
100
AcDbEntity
  8
0
  6
Continuous
 62
     0
370
     0
100
AcDbLine
 10
106.68
 20
16.712
 30
0.0
 11
133.026
 21
31.923
 31
0.0
  0
SPLINE
  5
197
330
15C
100
AcDbEntity
  8
0
  6
Continuous
 62
     0
370
     0
100
AcDbSpline
210
0.0
220
0.0
230
1.0
 70
     8
 71
     3
 72
    11
 73
     7
 74
     0
 42
0.0
 43
0.0
 40
-2.956419333254944
 40
-2.956419333254944
 40
-2.956419333254944
 40
-2.956419333254944
 40
-2.882161021985625
 40
-2.77188593979906
 40
-2.661610857612495
 40
-2.55133577542593
 40
-2.55133577542593
 40
-2.55133577542593
 40
-2.55133577542593
 10
133.1944110086168
 20
33.03343135553559
 30
0.0
 10
133.202642639862
 20
33.02184853333728
 30
0.0
 10
133.2208396411606
 20
32.9927210880894
 30
0.0
 10
133.2407547930418
 20
32.94510548976396
 30
0.0
 10
133.2505801429105
 20
32.89080176676998
 30
0.0
 10
133.2487107028103
 20
32.85441176755336
 30
0.0
 10
133.245676134459
 20
32.83626863914054
 30
0.0
  0
SPLINE
  5
198
330
15C
100
AcDbEntity
  8
0
  6
Continuous
 62
     0
370
     0
100
AcDbSpline
210
0.0
220
0.0
230
1.0
 70
     8
 71
     3
 72
    14
 73
    10
 74
     0
 42
0.0
 43
0.0
 40
-4.836507031854445
 40
-4.836507031854445
 40
-4.836507031854445
 40
-4.836507031854445
 40
-4.676018236618347
 40
-4.515529441382249
 40
-4.355040646146151
 40
-4.194551850910053
 40
-4.034063055673955
 40
-3.873574260437856
 40
-3.713085465201758
 40
-3.713085465201758
 40
-3.713085465201758
 40
-3.713085465201758
 10
133.3145283439821
 20
33.16513893502284
 30
0.0
 10
133.3513851564206
 20
33.14385964444007
 30
0.0
 10
133.4206493669915
 20
33.09873228959574
 30
0.0
 10
133.5100696980448
 20
33.02406971165331
 30
0.0
 10
133.5840430724618
 20
32.94324629103122
 30
0.0
 10
133.6417663427997
 20
32.85713955813455
 30
0.0
 10
133.6826127692848
 20
32.7666844307869
 30
0.0
 10
133.7061388604881
 20
32.67286300988545
 30
0.0
 10
133.7101057416668
 20
32.6087503646377
 30
0.0
 10
133.709149118336
 20
32.57647676439609
 30
0.0
  0
LINE
  5
199
330
15C
100
AcDbEntity
  8
0
  6
Continuous
 62
     0
370
     0
100
AcDbLine
 10
133.315
 20
33.165
 30
0.0
 11
132.952
 21
33.374
 31
0.0
  0
LINE
  5
19A
330
15C
100
AcDbEntity
  8
0
  6
Continuous
 62
     0
370
     0
100
AcDbLine
 10
92.201
 20
24.328
 30
0.0
 11
99.518
 21
43.073
 31
0.0
  0
ELLIPSE
  5
19B
330
15C
100
AcDbEntity
  8
0
  6
Continuous
 62
     0
370
     0
100
AcDbEllipse
 10
91.896
 20
24.357
 30
0.0
 11
0.2499999999999989
 21
0.4330127018922169
 31
0.0
210
0.0
220
0.0
230
1.0
 40
0.577
 41
3.92699081698724
 42
4.970805712741782
  0
LINE
  5
19C
330
15C
100
AcDbEntity
  8
0
  6
Continuous
 62
     0
370
     0
100
AcDbLine
 10
91.038
 20
24.27
 30
0.0
 11
91.501
 21
24.538
 31
0.0
  0
ELLIPSE
  5
19D
330
15C
100
AcDbEntity
  8
0
  6
Continuous
 62
     0
370
    30
100
AcDbEllipse
 10
126.747
 20
36.722
 30
0.0
 11
-4.75
 21
-5.537237335317968E-15
 31
0.0
210
0.0
220
0.0
230
1.0
 40
0.577
 41
3.926990816987239
 42
4.260989240096213
  0
LINE
  5
19E
330
15C
100
AcDbEntity
  8
0
  6
Continuous
 62
     0
370
     0
100
AcDbLine
 10
104.929
 20
16.98
 30
0.0
 11
112.246
 21
35.725
 31
0.0
  0
ELLIPSE
  5
19F
330
15C
100
AcDbEntity
  8
0
  6
Continuous
 62
     0
370
    30
100
AcDbEllipse
 10
98.463
 20
20.392
 30
0.0
 11
-4.75
 21
-5.537237335317968E-15
 31
0.0
210
0.0
220
0.0
230
1.0
 40
0.577
 41
5.558360743932408
 42
8.57880619722166
  0
ELLIPSE
  5
1A0
330
15C
100
AcDbEntity
  8
0
  6
Continuous
 62
     0
370
     0
100
AcDbEllipse
 10
104.624
 20
17.009
 30
0.0
 11
-0.2500000000000027
 21
-0.4330127018922231
 31
0.0
210
0.0
220
0.0
230
-1.0
 40
0.577
 41
4.453972248027647
 42
5.497787143782137
  0
LINE
  5
1A1
330
15C
100
AcDbEntity
  8
0
  6
Continuous
 62
     0
370
     0
100
AcDbLine
 10
105.643
 20
16.373
 30
0.0
 11
105.18
 21
16.105
 31
0.0
  0
LINE
  5
1A2
330
15C
100
AcDbEntity
  8
0
  6
Continuous
 62
     0
370
     0
100
AcDbLine
 10
106.503
 20
17.168
 30
0.0
 11
113.564
 21
35.259
 31
0.0
  0
LINE
  5
1A3
330
15C
100
AcDbEntity
  8
0
  6
Continuous
 62
     0
370
     0
100
AcDbLine
 10
132.85
 20
32.379
 30
0.0
 11
125.788
 21
42.316
 31
0.0
  0
LINE
  5
1A4
330
15C
100
AcDbEntity
  8
0
  6
Continuous
 62
     0
370
     0
100
AcDbLine
 10
134.172
 20
32.844
 30
0.0
 11
133.709
 21
32.576
 31
0.0
  0
ELLIPSE
  5
1A5
330
15C
100
AcDbEntity
  8
0
  6
Continuous
 62
     0
370
    30
100
AcDbEllipse
 10
126.747
 20
36.722
 30
0.0
 11
-4.75
 21
-5.537237335317968E-15
 31
0.0
210
0.0
220
0.0
230
1.0
 40
0.577
 41
2.800916596980677
 42
3.926990816987239
  0
ELLIPSE
  5
1A6
330
15C
100
AcDbEntity
  8
0
  6
Continuous
 62
     0
370
     0
100
AcDbEllipse
 10
133.315
 20
33.573
 30
0.0
 11
0.2499999999999995
 21
0.4330127018922185
 31
0.0
210
0.0
220
0.0
230
0.9999999999999999
 40
0.577
 41
3.391841000910658
 42
3.926990816987241
  0
SPLINE
  5
1A7
330
15C
100
AcDbEntity
  8
0
  6
Continuous
 62
     0
370
    30
100
AcDbSpline
210
0.0
220
0.0
230
1.0
 70
     8
 71
     3
 72
    16
 73
    12
 74
     0
 42
0.0
 43
0.0
 40
0.0
 40
0.0
 40
0.0
 40
0.0
 40
0.2733825356103635
 40
0.8201476068310904
 40
1.747266363679128
 40
2.775405045850265
 40
3.89327219647925
 40
5.085764924571693
 40
6.335048638180266
 40
7.192617564602514
 40
7.621402027813637
 40
7.621402027813637
 40
7.621402027813637
 40
7.621402027813637
 10
99.55111640484027
 20
28.72900391967025
 30
0.0
 10
99.47376557317897
 20
28.68082641183782
 30
0.0
 10
99.24604181004774
 20
28.52934394377283
 30
0.0
 10
98.78619684490242
 20
28.16909971386093
 30
0.0
 10
98.18762973410672
 20
27.58616331450507
 30
0.0
 10
97.52873251857861
 20
26.79984238579308
 30
0.0
 10
96.88787208987152
 20
25.88871708722168
 30
0.0
 10
96.27730788251407
 20
24.87019969805964
 30
0.0
 10
95.7744354663532
 20
23.89137237443273
 30
0.0
 10
95.42650166809577
 20
23.1206380858949
 30
0.0
 10
95.2616818789457
 20
22.72477465431292
 30
0.0
 10
95.20802712180591
 20
22.59229965909676
 30
0.0
  0
SPLINE
  5
1A8
330
15C
100
AcDbEntity
  8
0
  6
Continuous
 62
     0
370
    30
100
AcDbSpline
210
0.0
220
0.0
230
1.0
 70
     8
 71
     3
 72
    10
 73
     6
 74
     0
 42
0.0
 43
0.0
 40
0.0
 40
0.0
 40
0.0
 40
0.0
 40
0.240956474710262
 40
0.4135672617190153
 40
0.5219925941806175
 40
0.5219925941806175
 40
0.5219925941806175
 40
0.5219925941806175
 10
95.20802712180591
 20
22.59229965909675
 30
0.0
 10
95.17887664009902
 20
22.52032635923427
 30
0.0
 10
95.10725856257267
 20
22.39669538070925
 30
0.0
 10
94.99399173296531
 20
22.27433883179149
 30
0.0
 10
94.9309637716468
 20
22.22587587838354
 30
0.0
 10
94.9070436364234
 20
22.21028230184334
 30
0.0
  0
SPLINE
  5
1A9
330
15C
100
AcDbEntity
  8
0
  6
Continuous
 62
     0
370
    30
100
AcDbSpline
210
0.0
220
0.0
230
1.0
 70
     8
 71
     3
 72
    16
 73
    12
 74
     0
 42
0.0
 43
0.0
 40
0.0
 40
0.0
 40
0.0
 40
0.0
 40
0.4343090609510946
 40
1.302927182853284
 40
2.591438153799638
 40
3.844584712508864
 40
5.042522188856066
 40
6.16722870814533
 40
7.203336813958298
 40
7.827237061878444
 40
8.139187185838516
 40
8.139187185838516
 40
8.139187185838516
 40
8.139187185838516
 10
101.922427504129
 20
18.71573879091562
 30
0.0
 10
101.9733638083447
 20
18.85125172455002
 30
0.0
 10
102.1222239447278
 20
19.25927478281281
 30
0.0
 10
102.3947280309667
 20
20.07940661637744
 30
0.0
 10
102.7006016789934
 20
21.1748702827792
 30
0.0
 10
102.9628364790248
 20
22.39435463915354
 30
0.0
 10
103.1373842326644
 20
23.57434969421399
 30
0.0
 10
103.2209083180621
 20
24.69197579000745
 30
0.0
 10
103.2129862971075
 20
25.62128565712423
 30
0.0
 10
103.151928455042
 20
26.27692407802035
 30
0.0
 10
103.1046887882528
 20
26.58535565344427
 30
0.0
 10
103.086650310773
 20
26.68776246735092
 30
0.0
  0
SPLINE
  5
1AA
330
15C
100
AcDbEntity
  8
0
  6
Continuous
 62
     0
370
    30
100
AcDbSpline
210
0.0
220
0.0
230
1.0
 70
     8
 71
     3
 72
    10
 73
     6
 74
     0
 42
0.0
 43
0.0
 40
0.0
 40
0.0
 40
0.0
 40
0.0
 40
0.2409564747102601
 40
0.4135672617190079
 40
0.5219925941806105
 40
0.5219925941806105
 40
0.5219925941806105
 40
0.5219925941806105
 10
101.922427504129
 20
18.71573879091561
 30
0.0
 10
101.8950003527247
 20
18.64277052583899
 30
0.0
 10
101.8264030741502
 20
18.51739548822587
 30
0.0
 10
101.7087836328428
 20
18.39755192084492
 30
0.0
 10
101.639246871164
 20
18.35284682507711
 30
0.0
 10
101.6122380043246
 20
18.33903652856682
 30
0.0
  0
SPLINE
  5
1AB
330
15C
100
AcDbEntity
  8
0
  6
Continuous
 62
     0
370
     0
100
AcDbSpline
210
0.0
220
0.0
230
1.0
 70
     8
 71
     3
 72
    11
 73
     7
 74
     0
 42
0.0
 43
0.0
 40
0.0
 40
0.0
 40
0.0
 40
0.0
 40
0.4067430187024405
 40
0.6788431679166578
 40
0.9112953912868322
 40
1.027824753625439
 40
1.027824753625439
 40
1.027824753625439
 40
1.027824753625439
 10
91.50105901534124
 20
24.53755620000658
 30
0.0
 10
91.53964883623841
 20
24.60149443510193
 30
0.0
 10
91.62178963881847
 20
24.70049366302183
 30
0.0
 10
91.77904909601938
 20
24.82734727004265
 30
0.0
 10
91.90890021663263
 20
24.91483169415022
 30
0.0
 10
91.98917389588911
 20
24.96507064387196
 30
0.0
 10
92.01667360971734
 20
24.98194478842534
 30
0.0
  0
ARC
  5
1AC
330
15C
100
AcDbEntity
  8
0
  6
Continuous
 62
     0
370
     0
100
AcDbCircle
 10
92.537
 20
24.734
 30
0.0
 40
0.5748210979869026
100
AcDbArc
 50
159.348
 51
174.551
  0
ELLIPSE
  5
1AD
330
15C
100
AcDbEntity
  8
0
  6
Continuous
 62
     0
370
     0
100
AcDbEllipse
 10
91.501
 20
24.946
 30
0.0
 11
0.4997804966995468
 21
-0.01481401764393071
 31
0.0
210
0.0
220
0.0
230
1.0
 40
0.816
 41
4.736582530020822
 42
5.923133794608613
  0
SPLINE
  5
1AE
330
15C
100
AcDbEntity
  8
0
  6
Continuous
 62
     0
370
     0
100
AcDbSpline
210
0.0
220
0.0
230
1.0
 70
     8
 71
     3
 72
    11
 73
     7
 74
     0
 42
0.0
 43
0.0
 40
0.0
 40
0.0
 40
0.0
 40
0.0
 40
0.4067430187026377
 40
0.6788431679170711
 40
0.9112953912872531
 40
1.254054072765606
 40
1.254054072765606
 40
1.254054072765606
 40
1.254054072765606
 10
105.6431946390722
 20
16.37259039072931
 30
0.0
 10
105.7539389108038
 20
16.39487023421229
 30
0.0
 10
105.9442232125111
 20
16.43143278379998
 30
0.0
 10
106.2019054956226
 20
16.50030724524866
 30
0.0
 10
106.4382088737212
 20
16.58550537836971
 30
0.0
 10
106.5920110931646
 20
16.6615707808086
 30
0.0
 10
106.6795107987577
 20
16.71208875938682
 30
0.0
  0
SPLINE
  5
1AF
330
15C
100
AcDbEntity
  8
0
  6
Continuous
 62
     0
370
     0
100
AcDbSpline
210
0.0
220
0.0
230
1.0
 70
     8
 71
     3
 72
    11
 73
     7
 74
     0
 42
0.0
 43
0.0
 40
0.0
 40
0.0
 40
0.0
 40
0.0
 40
0.2651073411127506
 40
0.5302146822255012
 40
0.7580294481448557
 40
0.9794867402513793
 40
0.9794867402513793
 40
0.9794867402513793
 40
0.9794867402513793
 10
105.6352631021582
 20
16.89538924250488
 30
0.0
 10
105.722196829188
 20
16.90965439476321
 30
0.0
 10
105.8942017324444
 20
16.93006463113182
 30
0.0
 10
106.1274812406313
 20
16.97096404258391
 30
0.0
 10
106.3314963097139
 20
17.04793619630361
 30
0.0
 10
106.4483773820041
 20
17.12421097730519
 30
0.0
 10
106.5027341034611
 20
17.16770422259604
 30
0.0
  0
ELLIPSE
  5
1B0
330
15C
100
AcDbEntity
  8
0
  6
Continuous
 62
     0
370
     0
100
AcDbEllipse
 10
105.643
 20
16.781
 30
0.0
 11
-0.004939933535103523
 21
0.4999755964611443
 31
0.0
210
0.0
220
0.0
230
-0.9999999999999999
 40
0.014
 41
3.757141382522982
 42
4.943692647110765
  0
ELLIPSE
  5
1B1
330
15C
100
AcDbEntity
  8
0
  6
Continuous
 62
     0
370
     0
100
AcDbEllipse
 10
106.856
 20
16.964
 30
0.0
 11
0.2500000000000061
 21
-0.433012701892216
 31
0.0
210
0.0
220
0.0
230
0.9999999999999998
 40
0.577
 41
3.926990816987219
 42
4.974188368183838
  0
ARC
  5
1B2
330
15C
100
AcDbEntity
  8
0
  6
Continuous
 62
     0
370
     0
100
AcDbCircle
 10
132.673
 20
32.932
 30
0.0
 40
0.5804752349103186
100
AcDbArc
 50
287.696
 51
350.499
  0
SPLINE
  5
1B3
330
15C
100
AcDbEntity
  8
0
  6
Continuous
 62
     0
370
     0
100
AcDbSpline
210
0.0
220
0.0
230
1.0
 70
     8
 71
     3
 72
    10
 73
     6
 74
     0
 42
0.0
 43
0.0
 40
0.0
 40
0.0
 40
0.0
 40
0.0
 40
0.3765132492789578
 40
0.64973510687242
 40
1.25405079235657
 40
1.25405079235657
 40
1.25405079235657
 40
1.25405079235657
 10
133.0263863492437
 20
31.92346445076547
 30
0.0
 10
133.1225044293993
 20
31.97895825021732
 30
0.0
 10
133.279985270002
 20
32.08580600047635
 30
0.0
 10
133.5333342615774
 20
32.31643803788572
 30
0.0
 10
133.6518136692688
 20
32.48147949992243
 30
0.0
 10
133.709149118336
 20
32.57647676439609
 30
0.0
  0
ELLIPSE
  5
1B4
330
15C
100
AcDbEntity
  8
0
  6
Continuous
 62
     0
370
     0
100
AcDbEllipse
 10
133.203
 20
32.175
 30
0.0
 11
-0.2500000000000061
 21
0.433012701892216
 31
0.0
210
0.0
220
0.0
230
-0.9999999999999998
 40
0.577
 41
4.450589592585594
 42
5.497787143782189
  0
ELLIPSE
  5
1B5
330
15C
100
AcDbEntity
  8
0
  6
Continuous
 62
     0
370
     0
100
AcDbEllipse
 10
133.709
 20
32.985
 30
0.0
 11
-0.4997804966995552
 21
0.01481401764392393
 31
0.0
210
0.0
220
0.0
230
-1.0
 40
0.816
 41
4.688195430748609
 42
5.874746695336406
  0
LINE
  5
1B6
330
15C
100
AcDbEntity
  8
0
  6
Continuous
 62
     0
370
    30
100
AcDbLine
 10
91.999
 20
24.936
 30
0.0
 11
91.99
 21
24.92
 31
0.0
  0
LINE
  5
1B7
330
15C
100
AcDbEntity
  8
0
  6
Continuous
 62
     0
370
    30
100
AcDbLine
 10
91.999
 20
24.936
 30
0.0
 11
99.198
 21
43.379
 31
0.0
  0
LINE
  5
1B8
330
15C
100
AcDbEntity
  8
0
  6
Continuous
 62
     0
370
    30
100
AcDbLine
 10
90.788
 20
24.295
 30
0.0
 11
92.028
 21
25.011
 31
0.0
  0
LINE
  5
1B9
330
15C
100
AcDbEntity
  8
0
  6
Continuous
 62
     0
370
    30
100
AcDbLine
 10
133.194
 20
33.033
 30
0.0
 11
125.896
 21
43.303
 31
0.0
  0
SPLINE
  5
1BA
330
15C
100
AcDbEntity
  8
0
  6
Continuous
 62
     0
370
    30
100
AcDbSpline
210
0.0
220
0.0
230
1.0
 70
     8
 71
     3
 72
    12
 73
     8
 74
     0
 42
0.0
 43
0.0
 40
7.269370065297333
 40
7.269370065297333
 40
7.269370065297333
 40
7.269370065297333
 40
8.048654758136191
 40
10.52059586917775
 40
12.97591373559836
 40
14.89954173627275
 40
16.19521615634319
 40
16.19521615634319
 40
16.19521615634319
 40
16.19521615634319
 10
126.2734103591362
 20
42.77208801220807
 30
0.0
 10
126.5323651129418
 20
42.78416186324014
 30
0.0
 10
127.615904160335
 20
42.81093794241895
 30
0.0
 10
129.5191169751398
 20
42.68366634948657
 30
0.0
 10
131.6806392346661
 20
42.22164705502919
 30
0.0
 10
133.2941310850874
 20
41.62868931189919
 30
0.0
 10
134.1115313506174
 20
41.21252260141563
 30
0.0
 10
134.4218609717759
 20
41.03335370731259
 30
0.0
  0
SPLINE
  5
1BB
330
15C
100
AcDbEntity
  8
0
  6
Continuous
 62
     0
370
    30
100
AcDbSpline
210
0.0
220
0.0
230
1.0
 70
     8
 71
     3
 72
    11
 73
     7
 74
     0
 42
0.0
 43
0.0
 40
0.0
 40
0.0
 40
0.0
 40
0.0
 40
1.785100272660598
 40
4.017268078036128
 40
6.463732010064506
 40
8.20655541751598
 40
8.20655541751598
 40
8.20655541751598
 40
8.20655541751598
 10
134.4218608987409
 20
41.0333537494794
 30
0.0
 10
134.8491761423433
 20
40.78664317817818
 30
0.0
 10
135.7343736641258
 20
40.17962967298385
 30
0.0
 10
136.8278546812771
 20
39.04354752033319
 30
0.0
 10
137.4736351773464
 20
37.76570410593578
 30
0.0
 10
137.6007930860171
 20
36.88389482807443
 30
0.0
 10
137.6007930811629
 20
36.51785809540993
 30
0.0
  0
SPLINE
  5
1BC
330
15C
100
AcDbEntity
  8
0
  6
Continuous
 62
     0
370
    30
100
AcDbSpline
210
0.0
220
0.0
230
1.0
 70
     8
 71
     3
 72
    11
 73
     7
 74
     0
 42
0.0
 43
0.0
 40
0.0
 40
0.0
 40
0.0
 40
0.0
 40
1.785100260939626
 40
4.017268043947964
 40
6.463731957950813
 40
8.20655523857077
 40
8.20655523857077
 40
8.20655523857077
 40
8.20655523857077
 10
90.78834723277647
 20
24.29517383921396
 30
0.0
 10
90.3610319917982
 20
24.04846326928463
 30
0.0
 10
89.47583447657652
 20
23.4414497688678
 30
0.0
 10
88.38235346366434
 20
22.30536762507846
 30
0.0
 10
87.73657297663962
 20
21.02752424330264
 30
0.0
 10
87.60941505766253
 20
20.14571499723917
 30
0.0
 10
87.60941505251441
 20
19.77967829114233
 30
0.0
  0
LINE
  5
1BD
330
15C
100
AcDbEntity
  8
0
  6
Continuous
 62
     0
370
    30
100
AcDbLine
 10
87.609
 20
14.881
 30
0.0
 11
87.609
 21
19.78
 31
0.0
  0
LINE
  5
1BE
330
15C
100
AcDbEntity
  8
0
  6
Continuous
 62
     0
370
    30
100
AcDbLine
 10
137.601
 20
36.518
 30
0.0
 11
137.601
 21
31.619
 31
0.0
  0
ARC
  5
1BF
330
15C
100
AcDbEntity
  8
0
  6
Continuous
 62
     0
370
    30
100
AcDbCircle
 10
122.19
 20
40.705
 30
0.0
 40
4.525705334435968
100
AcDbArc
 50
35.035
 51
59.767
  0
SPLINE
  5
1C0
330
15C
100
AcDbEntity
  8
0
  6
Continuous
 62
     0
370
    30
100
AcDbSpline
210
0.0
220
0.0
230
1.0
 70
     8
 71
     3
 72
    18
 73
    14
 74
     0
 42
0.0
 43
0.0
 40
0.0
 40
0.0
 40
0.0
 40
0.0
 40
1.005385524818265
 40
2.592629648413736
 40
3.961680380951561
 40
5.529407352377979
 40
9.392209355122734
 40
11.74705465773678
 40
13.96880638958243
 40
15.77858078700073
 40
17.46378258065822
 40
18.81201483037721
 40
19.65496970536057
 40
19.65496970536057
 40
19.65496970536057
 40
19.65496970536057
 10
111.7411431618355
 20
51.96373772704251
 30
0.0
 10
111.5448185867319
 20
52.07708578209338
 30
0.0
 10
111.0151161325875
 20
52.32978275436311
 30
0.0
 10
110.1342015141954
 20
52.55086031491112
 30
0.0
 10
109.0714664721374
 20
52.58881523960142
 30
0.0
 10
107.4251858005144
 20
52.34036614258717
 30
0.0
 10
105.4962956204821
 20
51.45078867993037
 30
0.0
 10
103.5006998041268
 20
49.86265046650431
 30
0.0
 10
102.100622655019
 20
48.3670645156329
 30
0.0
 10
100.9771606677629
 20
46.84602577759769
 30
0.0
 10
100.1449782680907
 20
45.45749519062582
 30
0.0
 10
99.57605531266755
 20
44.30038236426242
 30
0.0
 10
99.29801587883598
 20
43.6354141509876
 30
0.0
 10
99.19786827951997
 20
43.378854277198
 30
0.0
  0
LINE
  5
1C1
330
15C
100
AcDbEntity
  8
0
  6
Continuous
 62
     0
370
    30
100
AcDbLine
 10
116.337
 20
49.31
 30
0.0
 11
111.741
 21
51.964
 31
0.0
  0
LINE
  5
1C2
330
15C
100
AcDbEntity
  8
0
  6
Continuous
 62
     0
370
    30
100
AcDbLine
 10
124.469
 20
44.615
 30
0.0
 11
119.873
 21
47.269
 31
0.0
  0
LINE
  5
1C3
330
15C
100
AcDbEntity
  8
0
  6
Continuous
 62
     0
370
    30
100
AcDbLine
 10
123.176
 20
40.743
 30
0.0
 11
123.53
 21
40.539
 31
0.0
  0
LINE
  5
1C4
330
15C
100
AcDbEntity
  8
0
  6
Continuous
 62
     0
370
    30
100
AcDbLine
 10
116.176
 20
28.619
 30
0.0
 11
116.53
 21
28.414
 31
0.0
  0
ELLIPSE
  5
1C5
330
15C
100
AcDbEntity
  8
0
  6
Continuous
 62
     0
370
    30
100
AcDbEllipse
 10
121.797
 20
33.456
 30
0.0
 11
1.75
 21
3.031088913245536
 31
0.0
210
0.0
220
0.0
230
0.9999999999999997
 40
0.577
 41
0.0
 42
6.283185307179586
  0
ELLIPSE
  5
1C6
330
15C
100
AcDbEntity
  8
0
  6
Continuous
 62
     0
370
    30
100
AcDbEllipse
 10
121.444
 20
33.66
 30
0.0
 11
2.0
 21
3.464101615137755
 31
0.0
210
0.0
220
0.0
230
0.9999999999999997
 40
0.577
 41
5.433154181749704
 42
7.068583470577038
  0
ELLIPSE
  5
1C7
330
15C
100
AcDbEntity
  8
0
  6
Continuous
 62
     0
370
    30
100
AcDbEllipse
 10
121.444
 20
33.66
 30
0.0
 11
2.0
 21
3.464101615137755
 31
0.0
210
0.0
220
0.0
230
0.9999999999999997
 40
0.577
 41
0.7853981633974518
 42
3.991623733319376
  0
LINE
  5
1C8
330
15C
100
AcDbEntity
  8
0
  6
Continuous
 62
     0
370
    30
100
AcDbLine
 10
124.272
 20
34.885
 30
0.0
 11
124.272
 21
35.293
 31
0.0
  0
LINE
  5
1C9
330
15C
100
AcDbEntity
  8
0
  6
Continuous
 62
     0
370
    30
100
AcDbLine
 10
121.797
 20
30.598
 30
0.0
 11
121.444
 21
30.394
 31
0.0
  0
LINE
  5
1CA
330
15C
100
AcDbEntity
  8
0
  6
Continuous
 62
     0
370
    30
100
AcDbLine
 10
118.03
 20
31.013
 30
0.0
 11
119.444
 21
30.196
 31
0.0
  0
LINE
  5
1CB
330
15C
100
AcDbEntity
  8
0
  6
Continuous
 62
     0
370
    30
100
AcDbLine
 10
122.03
 20
37.941
 30
0.0
 11
123.444
 21
37.124
 31
0.0
  0
ENDBLK
  5
1CD
330
15C
100
AcDbEntity
  8
0
100
AcDbBlockEnd
  0
BLOCK
  5
23C
330
1CF
100
AcDbEntity
  8
0
100
AcDbBlockBegin
  2
e
 70
     0
 10
127.765
 20
30.435
 30
0.0
  3
e
  1

  0
ELLIPSE
  5
1D0
330
1CF
100
AcDbEntity
  8
0
  6
Continuous
 62
     0
370
    30
100
AcDbEllipse
 10
156.516
 20
62.916
 30
0.0
 11
-5.500000000000003
 21
9.526279441628828
 31
0.0
210
0.0
220
0.0
230
-0.9999999999999998
 40
0.577
 41
6.283185284329431
 42
8.112398366331563
  0
ELLIPSE
  5
1D1
330
1CF
100
AcDbEntity
  8
0
  6
Continuous
 62
     0
370
    30
100
AcDbEllipse
 10
160.051
 20
64.958
 30
0.0
 11
5.500000000000003
 21
-9.526279441628828
 31
0.0
210
0.0
220
0.0
230
0.9999999999999998
 40
0.577
 41
1.312379594437817
 42
3.400009385946872
  0
LINE
  5
1D2
330
1CF
100
AcDbEntity
  8
0
  6
Continuous
 62
     0
370
    30
100
AcDbLine
 10
136.363
 20
52.506
 30
0.0
 11
165.355
 21
35.768
 31
0.0
  0
ELLIPSE
  5
1D3
330
1CF
100
AcDbEntity
  8
0
  6
Continuous
 62
     0
370
    30
100
AcDbEllipse
 10
172.779
 20
40.055
 30
0.0
 11
10.5
 21
-1.981748098955904E-14
 31
0.0
210
0.0
220
0.0
230
-1.0
 40
0.577
 41
6.283185298539901
 42
7.068583470577034
  0
ELLIPSE
  5
1D4
330
1CF
100
AcDbEntity
  8
0
  6
Continuous
 62
     0
370
    30
100
AcDbEllipse
 10
172.779
 20
40.055
 30
0.0
 11
-10.5
 21
1.981748098955904E-14
 31
0.0
210
0.0
220
0.0
230
1.0
 40
0.577
 41
0.7853981633974492
 42
2.356194490192346
  0
ELLIPSE
  5
1D5
330
1CF
100
AcDbEntity
  8
0
  6
Continuous
 62
     0
370
    30
100
AcDbEllipse
 10
143.788
 20
56.793
 30
0.0
 11
10.5
 21
-5.828670879282072E-16
 31
0.0
210
0.0
220
0.0
230
-1.0
 40
0.577
 41
2.356194490192345
 42
3.141592644950107
  0
ELLIPSE
  5
1D6
330
1CF
100
AcDbEntity
  8
0
  6
Continuous
 62
     0
370
    30
100
AcDbEllipse
 10
172.426
 20
44.341
 30
0.0
 11
-4.75
 21
5.800915303666443E-15
 31
0.0
210
0.0
220
0.0
230
1.0
 40
0.577
 41
3.366788096592791
 42
5.497787143782141
  0
ELLIPSE
  5
1D7
330
1CF
100
AcDbEntity
  8
0
  6
Continuous
 62
     0
370
    30
100
AcDbEllipse
 10
172.426
 20
44.341
 30
0.0
 11
-4.75
 21
5.800915303666443E-15
 31
0.0
210
0.0
220
0.0
230
1.0
 40
0.577
 41
5.497787143782141
 42
5.741028124979497
  0
ELLIPSE
  5
1D8
330
1CF
100
AcDbEntity
  8
0
  6
Continuous
 62
     0
370
    30
100
AcDbEllipse
 10
172.426
 20
45.566
 30
0.0
 11
-4.75
 21
5.800915303666443E-15
 31
0.0
210
0.0
220
0.0
230
1.0
 40
0.577
 41
5.497787143782141
 42
5.850262792446761
  0
ELLIPSE
  5
1D9
330
1CF
100
AcDbEntity
  8
0
  6
Continuous
 62
     0
370
    30
100
AcDbEllipse
 10
172.426
 20
45.566
 30
0.0
 11
-4.75
 21
5.800915303666443E-15
 31
0.0
210
0.0
220
0.0
230
1.0
 40
0.577
 41
4.943525309329809
 42
5.497787143782141
  0
ELLIPSE
  5
1DA
330
1CF
100
AcDbEntity
  8
0
  6
Continuous
 62
     0
370
    30
100
AcDbEllipse
 10
172.426
 20
44.341
 30
0.0
 11
-2.5
 21
1.387778780781446E-16
 31
0.0
210
0.0
220
0.0
230
1.0
 40
0.577
 41
0.0
 42
6.283185307179586
  0
ELLIPSE
  5
1DB
330
1CF
100
AcDbEntity
  8
0
  6
Continuous
 62
     0
370
    30
100
AcDbEllipse
 10
144.141
 20
60.671
 30
0.0
 11
-4.75
 21
5.800915303666443E-15
 31
0.0
210
0.0
220
0.0
230
1.0
 40
0.577
 41
5.477733469295344
 42
5.49778714378214
  0
ELLIPSE
  5
1DC
330
1CF
100
AcDbEntity
  8
0
  6
Continuous
 62
     0
370
    30
100
AcDbEllipse
 10
144.141
 20
60.671
 30
0.0
 11
-4.75
 21
5.800915303666443E-15
 31
0.0
210
0.0
220
0.0
230
1.0
 40
0.577
 41
5.49778714378214
 42
6.057989881455962
  0
LINE
  5
1DD
330
1CF
100
AcDbEntity
  8
0
  6
Continuous
 62
     0
370
    30
100
AcDbLine
 10
171.338
 20
48.235
 30
0.0
 11
167.802
 21
50.277
 31
0.0
  0
LINE
  5
1DE
330
1CF
100
AcDbEntity
  8
0
  6
Continuous
 62
     0
370
    30
100
AcDbLine
 10
153.045
 20
72.958
 30
0.0
 11
153.328
 21
73.356
 31
0.0
  0
LINE
  5
1DF
330
1CF
100
AcDbEntity
  8
0
  6
Continuous
 62
     0
370
    30
100
AcDbLine
 10
171.338
 20
53.903
 30
0.0
 11
166.774
 21
65.593
 31
0.0
  0
LINE
  5
1E0
330
1CF
100
AcDbEntity
  8
0
  6
Continuous
 62
     0
370
    30
100
AcDbLine
 10
167.802
 20
51.862
 30
0.0
 11
163.239
 21
63.552
 31
0.0
  0
LINE
  5
1E1
330
1CF
100
AcDbEntity
  8
0
  6
Continuous
 62
     0
370
    30
100
AcDbLine
 10
167.802
 20
51.862
 30
0.0
 11
167.802
 21
48.446
 31
0.0
  0
LINE
  5
1E2
330
1CF
100
AcDbEntity
  8
0
  6
Continuous
 62
     0
370
    30
100
AcDbLine
 10
171.338
 20
48.235
 30
0.0
 11
171.338
 21
53.903
 31
0.0
  0
ELLIPSE
  5
1E3
330
1CF
100
AcDbEntity
  8
0
  6
Continuous
 62
     0
370
    30
100
AcDbEllipse
 10
151.213
 20
59.855
 30
0.0
 11
3.500000000000001
 21
-6.062177826491071
 31
0.0
210
0.0
220
0.0
230
0.9999999999999997
 40
0.577
 41
0.0000000228501564
 42
2.356194490192343
  0
ELLIPSE
  5
1E4
330
1CF
100
AcDbEntity
  8
0
  6
Continuous
 62
     0
370
    30
100
AcDbEllipse
 10
151.213
 20
59.855
 30
0.0
 11
3.500000000000001
 21
-6.062177826491071
 31
0.0
210
0.0
220
0.0
230
0.9999999999999997
 40
0.577
 41
2.356194490192343
 42
3.141592676439948
  0
ELLIPSE
  5
1E5
330
1CF
100
AcDbEntity
  8
0
  6
Continuous
 62
     0
370
    30
100
AcDbEllipse
 10
150.859
 20
59.65
 30
0.0
 11
3.500000000000001
 21
-6.062177826491071
 31
0.0
210
0.0
220
0.0
230
0.9999999999999997
 40
0.577
 41
0.0
 42
6.283185307179586
  0
ELLIPSE
  5
1E6
330
1CF
100
AcDbEntity
  8
0
  6
Continuous
 62
     0
370
    30
100
AcDbEllipse
 10
160.051
 20
64.958
 30
0.0
 11
-2.0
 21
3.464101615137755
 31
0.0
210
0.0
220
0.0
230
-0.9999999999999997
 40
0.577
 41
1.334756541012929
 42
1.806836066876556
  0
ELLIPSE
  5
1E7
330
1CF
100
AcDbEntity
  8
0
  6
Continuous
 62
     0
370
     0
100
AcDbEllipse
 10
151.92
 20
60.263
 30
0.0
 11
-5.500000000000003
 21
9.526279441628828
 31
0.0
210
0.0
220
0.0
230
-0.9999999999999998
 40
0.577
 41
6.28318528432943
 42
8.112398366331563
  0
ELLIPSE
  5
1E8
330
1CF
100
AcDbEntity
  8
0
  6
Continuous
 62
     0
370
     0
100
AcDbEllipse
 10
151.213
 20
59.855
 30
0.0
 11
-5.000000000000004
 21
8.660254037844391
 31
0.0
210
0.0
220
0.0
230
-0.9999999999999997
 40
0.577
 41
6.024768574822506
 42
8.112398366331561
  0
ELLIPSE
  5
1E9
330
1CF
100
AcDbEntity
  8
0
  6
Continuous
 62
     0
370
     0
100
AcDbEllipse
 10
164.648
 20
67.611
 30
0.0
 11
5.500000000000003
 21
-9.526279441628828
 31
0.0
210
0.0
220
0.0
230
0.9999999999999998
 40
0.577
 41
1.312379594437818
 42
3.141592676439949
  0
LINE
  5
1EA
330
1CF
100
AcDbEntity
  8
0
  6
Continuous
 62
     0
370
     0
100
AcDbLine
 10
163.239
 20
63.552
 30
0.0
 11
158.643
 21
60.898
 31
0.0
  0
ELLIPSE
  5
1EB
330
1CF
100
AcDbEntity
  8
0
  6
Continuous
 62
     0
370
     0
100
AcDbEllipse
 10
158.031
 20
60.841
 30
0.0
 11
-0.931544811270498
 21
-0.3636265455037826
 31
0.0
210
0.0
220
0.0
230
1.0
 40
0.209
 41
0.6314852864928779
 42
2.202281613287741
  0
ELLIPSE
  5
1EC
330
1CF
100
AcDbEntity
  8
0
  6
Continuous
 62
     0
370
     0
100
AcDbEllipse
 10
145.808
 20
67.898
 30
0.0
 11
-0.8151239397885011
 21
0.5792865981391851
 31
0.0
210
0.0
220
0.0
230
1.0
 40
0.789
 41
6.283185292325188
 42
7.507184996474721
  0
LINE
  5
1ED
330
1CF
100
AcDbEntity
  8
0
  6
Continuous
 62
     0
370
     0
100
AcDbLine
 10
171.37
 20
68.247
 30
0.0
 11
166.774
 21
65.593
 31
0.0
  0
ELLIPSE
  5
1EE
330
1CF
100
AcDbEntity
  8
0
  6
Continuous
 62
     0
370
     0
100
AcDbEllipse
 10
170.759
 20
68.189
 30
0.0
 11
0.931544811270498
 21
0.3636265455037824
 31
0.0
210
0.0
220
0.0
230
-0.9999999999999999
 40
0.209
 41
6.283086330499031
 42
7.222496347481631
  0
LINE
  5
1EF
330
1CF
100
AcDbEntity
  8
0
  6
Continuous
 62
     0
370
     0
100
AcDbLine
 10
165.355
 20
40.667
 30
0.0
 11
136.363
 21
57.405
 31
0.0
  0
ELLIPSE
  5
1F0
330
1CF
100
AcDbEntity
  8
0
  6
Continuous
 62
     0
370
     0
100
AcDbEllipse
 10
172.779
 20
44.954
 30
0.0
 11
-10.5
 21
1.981748098955904E-14
 31
0.0
210
0.0
220
0.0
230
1.0
 40
0.577
 41
0.7853981633974509
 42
2.356194490192345
  0
ELLIPSE
  5
1F1
330
1CF
100
AcDbEntity
  8
0
  6
Continuous
 62
     0
370
     0
100
AcDbEllipse
 10
172.779
 20
45.362
 30
0.0
 11
-10.0
 21
1.221245327087672E-14
 31
0.0
210
0.0
220
0.0
230
1.0
 40
0.577
 41
0.7853981633974492
 42
2.356194490192346
  0
ELLIPSE
  5
1F2
330
1CF
100
AcDbEntity
  8
0
  6
Continuous
 62
     0
370
     0
100
AcDbEllipse
 10
172.779
 20
44.954
 30
0.0
 11
10.5
 21
-1.981748098955904E-14
 31
0.0
210
0.0
220
0.0
230
-1.0
 40
0.577
 41
6.283185298539902
 42
7.068583470577035
  0
ELLIPSE
  5
1F3
330
1CF
100
AcDbEntity
  8
0
  6
Continuous
 62
     0
370
     0
100
AcDbEllipse
 10
172.779
 20
45.362
 30
0.0
 11
10.0
 21
-1.221245327087672E-14
 31
0.0
210
0.0
220
0.0
230
-1.0
 40
0.577
 41
5.497787143782137
 42
7.068583470577034
  0
ELLIPSE
  5
1F4
330
1CF
100
AcDbEntity
  8
0
  6
Continuous
 62
     0
370
     0
100
AcDbEllipse
 10
143.788
 20
62.1
 30
0.0
 11
-10.0
 21
1.221245327087672E-14
 31
0.0
210
0.0
220
0.0
230
1.0
 40
0.577
 41
4.635925966590746
 42
5.497787143782139
  0
ELLIPSE
  5
1F5
330
1CF
100
AcDbEntity
  8
0
  6
Continuous
 62
     0
370
     0
100
AcDbEllipse
 10
143.788
 20
61.692
 30
0.0
 11
10.5
 21
-5.828670879282072E-16
 31
0.0
210
0.0
220
0.0
230
-1.0
 40
0.577
 41
2.356194490192345
 42
3.141592645203904
  0
ELLIPSE
  5
1F6
330
1CF
100
AcDbEntity
  8
0
  6
Continuous
 62
     0
370
     0
100
AcDbEllipse
 10
143.788
 20
62.1
 30
0.0
 11
10.0
 21
-1.221245327087672E-14
 31
0.0
210
0.0
220
0.0
230
-1.0
 40
0.577
 41
2.356194490192344
 42
3.926990816987241
  0
LINE
  5
1F7
330
1CF
100
AcDbEntity
  8
0
  6
Continuous
 62
     0
370
     0
100
AcDbLine
 10
165.355
 20
35.768
 30
0.0
 11
165.355
 21
40.667
 31
0.0
  0
LINE
  5
1F8
330
1CF
100
AcDbEntity
  8
0
  6
Continuous
 62
     0
370
     0
100
AcDbLine
 10
136.363
 20
57.405
 30
0.0
 11
136.363
 21
52.506
 31
0.0
  0
ELLIPSE
  5
1F9
330
1CF
100
AcDbEntity
  8
0
  6
Continuous
 62
     0
370
     0
100
AcDbEllipse
 10
165.708
 20
40.871
 30
0.0
 11
-0.2499999999999999
 21
-0.4330127018922195
 31
0.0
210
0.0
220
0.0
230
-0.9999999999999998
 40
0.577
 41
0.785398163397436
 42
2.356194490192358
  0
ELLIPSE
  5
1FA
330
1CF
100
AcDbEntity
  8
0
  6
Continuous
 62
     0
370
     0
100
AcDbEllipse
 10
136.717
 20
57.609
 30
0.0
 11
0.2499999999999999
 21
0.4330127018922195
 31
0.0
210
0.0
220
0.0
230
0.9999999999999998
 40
0.577
 41
0.7853981633974492
 42
2.356194490192343
  0
LINE
  5
1FB
330
1CF
100
AcDbEntity
  8
0
  6
Continuous
 62
     0
370
     0
100
AcDbLine
 10
180.204
 20
35.768
 30
0.0
 11
180.204
 21
40.667
 31
0.0
  0
ELLIPSE
  5
1FC
330
1CF
100
AcDbEntity
  8
0
  6
Continuous
 62
     0
370
     0
100
AcDbEllipse
 10
179.85
 20
40.871
 30
0.0
 11
-0.2500000000000001
 21
0.4330127018922194
 31
0.0
210
0.0
220
0.0
230
-0.9999999999999997
 40
0.577
 41
0.7853981633974342
 42
2.356194490192345
  0
ELLIPSE
  5
1FD
330
1CF
100
AcDbEntity
  8
0
  6
Continuous
 62
     0
370
     0
100
AcDbEllipse
 10
179.85
 20
49.036
 30
0.0
 11
-0.2500000000000006
 21
-0.433012701892219
 31
0.0
210
0.0
220
0.0
230
-1.0
 40
0.577
 41
2.356194490192343
 42
3.141607955763146
  0
ELLIPSE
  5
1FE
330
1CF
100
AcDbEntity
  8
0
  6
Continuous
 62
     0
370
     0
100
AcDbEllipse
 10
136.717
 20
65.774
 30
0.0
 11
0.2500000000000001
 21
-0.4330127018922194
 31
0.0
210
0.0
220
0.0
230
0.9999999999999997
 40
0.577
 41
2.356194490192345
 42
3.141607736910719
  0
LINE
  5
1FF
330
1CF
100
AcDbEntity
  8
0
  6
Continuous
 62
     0
370
     0
100
AcDbLine
 10
168.966
 20
43.89
 30
0.0
 11
165.959
 21
42.154
 31
0.0
  0
LINE
  5
200
330
1CF
100
AcDbEntity
  8
0
  6
Continuous
 62
     0
370
     0
100
AcDbLine
 10
169.276
 20
43.513
 30
0.0
 11
166.265
 21
41.774
 31
0.0
  0
SPLINE
  5
201
330
1CF
100
AcDbEntity
  8
0
  6
Continuous
 62
     0
370
     0
100
AcDbSpline
210
0.0
220
0.0
230
1.0
 70
     8
 71
     3
 72
    14
 73
    10
 74
     0
 42
0.0
 43
0.0
 40
-3.323261350731898
 40
-3.323261350731898
 40
-3.323261350731898
 40
-3.323261350731898
 40
-3.212986268545334
 40
-3.10271118635877
 40
-2.992436104172205
 40
-2.882161021985641
 40
-2.771885939799076
 40
-2.661610857612512
 40
-2.551335775425948
 40
-2.551335775425948
 40
-2.551335775425948
 40
-2.551335775425948
 10
165.9594985487228
 20
42.15364991254654
 30
0.0
 10
165.9349273404305
 20
42.13946371882469
 30
0.0
 10
165.8824436287896
 20
42.11376492811718
 30
0.0
 10
165.7945487311587
 20
42.0836559489058
 30
0.0
 10
165.6984388847566
 20
42.06231311932544
 30
0.0
 10
165.5951575908838
 20
42.04996816189347
 30
0.0
 10
165.4858262429465
 20
42.04675511398818
 30
0.0
 10
165.3716318867866
 20
42.05270886487153
 30
0.0
 10
165.2930869532494
 20
42.06274612592115
 30
0.0
 10
165.2534237902109
 20
42.06925454422003
 30
0.0
  0
SPLINE
  5
202
330
1CF
100
AcDbEntity
  8
0
  6
Continuous
 62
     0
370
     0
100
AcDbSpline
210
0.0
220
0.0
230
1.0
 70
     8
 71
     3
 72
    14
 73
    10
 74
     0
 42
0.0
 43
0.0
 40
-4.836507031854486
 40
-4.836507031854486
 40
-4.836507031854486
 40
-4.836507031854486
 40
-4.676018236618389
 40
-4.51552944138229
 40
-4.355040646146192
 40
-4.194551850910094
 40
-4.034063055673997
 40
-3.873574260437898
 40
-3.7130854652018
 40
-3.7130854652018
 40
-3.7130854652018
 40
-3.7130854652018
 10
166.2650850413162
 20
41.77429010274545
 30
0.0
 10
166.2282282288778
 20
41.75301081216267
 30
0.0
 10
166.1500653574763
 20
41.71302110154429
 30
0.0
 10
166.0207459790559
 20
41.66139424933974
 30
0.0
 10
165.880755708097
 20
41.61868570170715
 30
0.0
 10
165.7316144718461
 20
41.5853591560391
 30
0.0
 10
165.5749415954749
 20
41.56177646071245
 30
0.0
 10
165.4124381276353
 20
41.54819366562327
 30
0.0
 10
165.3013917686585
 20
41.54590338570689
 30
0.0
 10
165.245492253297
 20
41.54645569244443
 30
0.0
  0
LINE
  5
203
330
1CF
100
AcDbEntity
  8
0
  6
Continuous
 62
     0
370
     0
100
AcDbLine
 10
164.386
 20
42.342
 30
0.0
 11
138.039
 21
57.553
 31
0.0
  0
LINE
  5
204
330
1CF
100
AcDbEntity
  8
0
  6
Continuous
 62
     0
370
     0
100
AcDbLine
 10
164.209
 20
41.886
 30
0.0
 11
137.862
 21
57.097
 31
0.0
  0
SPLINE
  5
205
330
1CF
100
AcDbEntity
  8
0
  6
Continuous
 62
     0
370
     0
100
AcDbSpline
210
0.0
220
0.0
230
1.0
 70
     8
 71
     3
 72
    11
 73
     7
 74
     0
 42
0.0
 43
0.0
 40
-2.956419333254807
 40
-2.956419333254807
 40
-2.956419333254807
 40
-2.956419333254807
 40
-2.882161021985559
 40
-2.771885939798997
 40
-2.661610857612434
 40
-2.551335775425872
 40
-2.551335775425872
 40
-2.551335775425872
 40
-2.551335775425872
 10
137.6942758837523
 20
58.20729665725068
 30
0.0
 10
137.6860442525071
 20
58.19571383505239
 30
0.0
 10
137.6678472512085
 20
58.16658638980454
 30
0.0
 10
137.6479320993273
 20
58.11897079147909
 30
0.0
 10
137.6381067494587
 20
58.06466706848514
 30
0.0
 10
137.6399761895588
 20
58.0282770692685
 30
0.0
 10
137.6430107579102
 20
58.01013394085567
 30
0.0
  0
SPLINE
  5
206
330
1CF
100
AcDbEntity
  8
0
  6
Continuous
 62
     0
370
     0
100
AcDbSpline
210
0.0
220
0.0
230
1.0
 70
     8
 71
     3
 72
    14
 73
    10
 74
     0
 42
0.0
 43
0.0
 40
-4.836507031854392
 40
-4.836507031854392
 40
-4.836507031854392
 40
-4.836507031854392
 40
-4.676018236618296
 40
-4.5155294413822
 40
-4.355040646146104
 40
-4.194551850910007
 40
-4.034063055673911
 40
-3.873574260437814
 40
-3.713085465201718
 40
-3.713085465201718
 40
-3.713085465201718
 40
-3.713085465201718
 10
137.5741585483869
 20
58.33900423673794
 30
0.0
 10
137.5373017359486
 20
58.31772494615515
 30
0.0
 10
137.4680375253776
 20
58.2725975913109
 30
0.0
 10
137.3786171943244
 20
58.19793501336844
 30
0.0
 10
137.3046438199073
 20
58.11711159274634
 30
0.0
 10
137.2469205495694
 20
58.03100485984967
 30
0.0
 10
137.2060741230843
 20
57.94054973250201
 30
0.0
 10
137.182548031881
 20
57.8467283116006
 30
0.0
 10
137.1785811507023
 20
57.78261566635283
 30
0.0
 10
137.1795377740331
 20
57.75034206611123
 30
0.0
  0
LINE
  5
207
330
1CF
100
AcDbEntity
  8
0
  6
Continuous
 62
     0
370
     0
100
AcDbLine
 10
137.937
 20
58.548
 30
0.0
 11
137.574
 21
58.339
 31
0.0
  0
LINE
  5
208
330
1CF
100
AcDbEntity
  8
0
  6
Continuous
 62
     0
370
     0
100
AcDbLine
 10
178.687
 20
49.502
 30
0.0
 11
175.681
 21
47.766
 31
0.0
  0
LINE
  5
209
330
1CF
100
AcDbEntity
  8
0
  6
Continuous
 62
     0
370
     0
100
AcDbLine
 10
178.993
 20
49.123
 30
0.0
 11
175.982
 21
47.384
 31
0.0
  0
SPLINE
  5
20A
330
1CF
100
AcDbEntity
  8
0
  6
Continuous
 62
     0
370
     0
100
AcDbSpline
210
0.0
220
0.0
230
1.0
 70
     8
 71
     3
 72
    14
 73
    10
 74
     0
 42
0.0
 43
0.0
 40
-3.32326135073187
 40
-3.32326135073187
 40
-3.32326135073187
 40
-3.32326135073187
 40
-3.212986268545306
 40
-3.102711186358743
 40
-2.992436104172179
 40
-2.882161021985616
 40
-2.771885939799052
 40
-2.661610857612488
 40
-2.551335775425925
 40
-2.551335775425925
 40
-2.551335775425925
 40
-2.551335775425925
 10
178.6874206100806
 20
49.50211914089607
 30
0.0
 10
178.7119918183729
 20
49.51630533461791
 30
0.0
 10
178.7577928280469
 20
49.54735125421882
 30
0.0
 10
178.8157244033985
 20
49.60143522843882
 30
0.0
 10
178.862256987247
 20
49.66244704436156
 30
0.0
 10
178.8968853644334
 20
49.72972427263942
 30
0.0
 10
178.9192335517337
 20
49.80253643985033
 30
0.0
 10
178.9290589016023
 20
49.8800930013941
 30
0.0
 10
178.9271894615021
 20
49.93439887921981
 30
0.0
 10
178.9241548931508
 20
49.96205482652138
 30
0.0
  0
SPLINE
  5
20B
330
1CF
100
AcDbEntity
  8
0
  6
Continuous
 62
     0
370
     0
100
AcDbSpline
210
0.0
220
0.0
230
1.0
 70
     8
 71
     3
 72
    14
 73
    10
 74
     0
 42
0.0
 43
0.0
 40
-4.836507031854457
 40
-4.836507031854457
 40
-4.836507031854457
 40
-4.836507031854457
 40
-4.67601823661836
 40
-4.515529441382262
 40
-4.355040646146165
 40
-4.194551850910067
 40
-4.03406305567397
 40
-3.873574260437873
 40
-3.713085465201775
 40
-3.713085465201775
 40
-3.713085465201775
 40
-3.713085465201775
 10
178.993007102674
 20
49.12275933109497
 30
0.0
 10
179.0298639151124
 20
49.14403862167775
 30
0.0
 10
179.0991281256834
 20
49.18916597652203
 30
0.0
 10
179.1885484567366
 20
49.26382855446448
 30
0.0
 10
179.2625218311537
 20
49.34465197508658
 30
0.0
 10
179.3202451014916
 20
49.43075870798327
 30
0.0
 10
179.3610915279767
 20
49.5212138353309
 30
0.0
 10
179.38461761918
 20
49.61503525623232
 30
0.0
 10
179.3885845003587
 20
49.67914790148012
 30
0.0
 10
179.3876278770279
 20
49.71142150172167
 30
0.0
  0
LINE
  5
20C
330
1CF
100
AcDbEntity
  8
0
  6
Continuous
 62
     0
370
     0
100
AcDbLine
 10
165.959
 20
42.154
 30
0.0
 11
158.643
 21
60.898
 31
0.0
  0
ELLIPSE
  5
20D
330
1CF
100
AcDbEntity
  8
0
  6
Continuous
 62
     0
370
     0
100
AcDbEllipse
 10
166.265
 20
42.183
 30
0.0
 11
-0.2499999999999986
 21
0.4330127018922171
 31
0.0
210
0.0
220
0.0
230
-0.9999999999999998
 40
0.577
 41
3.926990816987258
 42
4.970805712741794
  0
LINE
  5
20E
330
1CF
100
AcDbEntity
  8
0
  6
Continuous
 62
     0
370
     0
100
AcDbLine
 10
165.708
 20
41.279
 30
0.0
 11
165.245
 21
41.546
 31
0.0
  0
LINE
  5
20F
330
1CF
100
AcDbEntity
  8
0
  6
Continuous
 62
     0
370
     0
100
AcDbLine
 10
164.386
 20
42.342
 30
0.0
 11
157.324
 21
60.432
 31
0.0
  0
LINE
  5
210
330
1CF
100
AcDbEntity
  8
0
  6
Continuous
 62
     0
370
     0
100
AcDbLine
 10
138.039
 20
57.553
 30
0.0
 11
145.101
 21
67.49
 31
0.0
  0
LINE
  5
211
330
1CF
100
AcDbEntity
  8
0
  6
Continuous
 62
     0
370
     0
100
AcDbLine
 10
137.18
 20
57.75
 30
0.0
 11
136.717
 21
58.017
 31
0.0
  0
ELLIPSE
  5
212
330
1CF
100
AcDbEntity
  8
0
  6
Continuous
 62
     0
370
    30
100
AcDbEllipse
 10
144.141
 20
61.896
 30
0.0
 11
-4.75
 21
5.800915303666443E-15
 31
0.0
210
0.0
220
0.0
230
1.0
 40
0.577
 41
5.497787143782141
 42
6.623861363788705
  0
ELLIPSE
  5
213
330
1CF
100
AcDbEntity
  8
0
  6
Continuous
 62
     0
370
     0
100
AcDbEllipse
 10
137.574
 20
58.747
 30
0.0
 11
0.2499999999999996
 21
-0.4330127018922184
 31
0.0
210
0.0
220
0.0
230
1.0
 40
0.577
 41
5.49778714378211
 42
6.032936959858604
  0
LINE
  5
214
330
1CF
100
AcDbEntity
  8
0
  6
Continuous
 62
     0
370
     0
100
AcDbLine
 10
178.687
 20
49.502
 30
0.0
 11
171.37
 21
68.247
 31
0.0
  0
ELLIPSE
  5
215
330
1CF
100
AcDbEntity
  8
0
  6
Continuous
 62
     0
370
    30
100
AcDbEllipse
 10
172.426
 20
45.566
 30
0.0
 11
-4.75
 21
5.800915303666443E-15
 31
0.0
210
0.0
220
0.0
230
1.0
 40
0.577
 41
0.8459717635477242
 42
3.866417216836965
  0
ELLIPSE
  5
216
330
1CF
100
AcDbEntity
  8
0
  6
Continuous
 62
     0
370
     0
100
AcDbEllipse
 10
178.993
 20
49.531
 30
0.0
 11
0.250000000000002
 21
-0.4330127018922235
 31
0.0
210
0.0
220
0.0
230
1.0
 40
0.577
 41
4.453972248027638
 42
5.497787143782153
  0
LINE
  5
217
330
1CF
100
AcDbEntity
  8
0
  6
Continuous
 62
     0
370
     0
100
AcDbLine
 10
179.388
 20
49.711
 30
0.0
 11
179.85
 21
49.444
 31
0.0
  0
ELLIPSE
  5
218
330
1CF
100
AcDbEntity
  8
0
  6
Continuous
 62
     0
370
    30
100
AcDbEllipse
 10
144.141
 20
61.896
 30
0.0
 11
-4.75
 21
5.800915303666443E-15
 31
0.0
210
0.0
220
0.0
230
1.0
 40
0.577
 41
5.163788720673166
 42
5.497787143782141
  0
SPLINE
  5
219
330
1CF
100
AcDbEntity
  8
0
  6
Continuous
 62
     0
370
    30
100
AcDbSpline
210
0.0
220
0.0
230
1.0
 70
     8
 71
     3
 72
    16
 73
    12
 74
     0
 42
0.0
 43
0.0
 40
0.0
 40
0.0
 40
0.0
 40
0.0
 40
0.3119501239600705
 40
0.9358503718802116
 40
1.971958477693184
 40
3.096664996982449
 40
4.294602473329651
 40
5.547749032038883
 40
6.836260002985241
 40
7.704878124887436
 40
8.139187185838534
 40
8.139187185838534
 40
8.139187185838534
 40
8.139187185838534
 10
167.8020365815961
 20
51.86162776906607
 30
0.0
 10
167.7839981041163
 20
51.75922095515942
 30
0.0
 10
167.7367584373271
 20
51.45078937973552
 30
0.0
 10
167.6757005952617
 20
50.79515095883936
 30
0.0
 10
167.667778574307
 20
49.86584109172261
 30
0.0
 10
167.7513026597047
 20
48.74821499592911
 30
0.0
 10
167.9258504133443
 20
47.56821994086869
 30
0.0
 10
168.1880852133757
 20
46.34873558449436
 30
0.0
 10
168.4939588614025
 20
45.25327191809258
 30
0.0
 10
168.7664629476413
 20
44.43314008452793
 30
0.0
 10
168.9153230840244
 20
44.02511702626516
 30
0.0
 10
168.9662593882401
 20
43.88960409263075
 30
0.0
  0
SPLINE
  5
21A
330
1CF
100
AcDbEntity
  8
0
  6
Continuous
 62
     0
370
    30
100
AcDbSpline
210
0.0
220
0.0
230
1.0
 70
     8
 71
     3
 72
    10
 73
     6
 74
     0
 42
0.0
 43
0.0
 40
0.0
 40
0.0
 40
0.0
 40
0.0
 40
0.240956474710262
 40
0.4135672617190153
 40
0.5219925941806175
 40
0.5219925941806175
 40
0.5219925941806175
 40
0.5219925941806175
 10
168.9662593882401
 20
43.88960409263073
 30
0.0
 10
168.9936865396444
 20
43.81663582755415
 30
0.0
 10
169.0622838182188
 20
43.69126078994104
 30
0.0
 10
169.1799032595263
 20
43.57141722256003
 30
0.0
 10
169.2494400212051
 20
43.52671212679223
 30
0.0
 10
169.2764488880445
 20
43.51290183028196
 30
0.0
  0
SPLINE
  5
21B
330
1CF
100
AcDbEntity
  8
0
  6
Continuous
 62
     0
370
    30
100
AcDbSpline
210
0.0
220
0.0
230
1.0
 70
     8
 71
     3
 72
    16
 73
    12
 74
     0
 42
0.0
 43
0.0
 40
0.0
 40
0.0
 40
0.0
 40
0.0
 40
0.4287844632111225
 40
1.286353389633367
 40
2.535637103241934
 40
3.728129831334372
 40
4.845996981963355
 40
5.874135664134501
 40
6.80125442098252
 40
7.348019492203256
 40
7.621402027813622
 40
7.621402027813622
 40
7.621402027813622
 40
7.621402027813622
 10
175.6806597705632
 20
47.76616496081189
 30
0.0
 10
175.6270050134234
 20
47.89863995602805
 30
0.0
 10
175.4621852242733
 20
48.29450338761001
 30
0.0
 10
175.1142514260158
 20
49.06523767614785
 30
0.0
 10
174.6113790098551
 20
50.04406499977476
 30
0.0
 10
174.0008148024975
 20
51.06258238893679
 30
0.0
 10
173.3599543737906
 20
51.97370768750822
 30
0.0
 10
172.7010571582623
 20
52.76002861622016
 30
0.0
 10
172.1024900474667
 20
53.3429650155761
 30
0.0
 10
171.6426450823214
 20
53.70320924548795
 30
0.0
 10
171.4149213191901
 20
53.85469171355294
 30
0.0
 10
171.3375704875288
 20
53.90286922138537
 30
0.0
  0
SPLINE
  5
21C
330
1CF
100
AcDbEntity
  8
0
  6
Continuous
 62
     0
370
    30
100
AcDbSpline
210
0.0
220
0.0
230
1.0
 70
     8
 71
     3
 72
    10
 73
     6
 74
     0
 42
0.0
 43
0.0
 40
0.0
 40
0.0
 40
0.0
 40
0.0
 40
0.2409564747102601
 40
0.4135672617190079
 40
0.5219925941806105
 40
0.5219925941806105
 40
0.5219925941806105
 40
0.5219925941806105
 10
175.6806597705632
 20
47.76616496081188
 30
0.0
 10
175.7098102522701
 20
47.69419166094937
 30
0.0
 10
175.7814283297964
 20
47.57056068242431
 30
0.0
 10
175.8946951594038
 20
47.44820413350664
 30
0.0
 10
175.9577231207223
 20
47.39974118009867
 30
0.0
 10
175.9816432559457
 20
47.38414760355846
 30
0.0
  0
SPLINE
  5
21D
330
1CF
100
AcDbEntity
  8
0
  6
Continuous
 62
     0
370
     0
100
AcDbSpline
210
0.0
220
0.0
230
1.0
 70
     8
 71
     3
 72
    11
 73
     7
 74
     0
 42
0.0
 43
0.0
 40
0.0
 40
0.0
 40
0.0
 40
0.0
 40
0.4067430187024405
 40
0.6788431679166578
 40
0.9112953912868322
 40
1.254054072765633
 40
1.254054072765633
 40
1.254054072765633
 40
1.254054072765633
 10
165.245492253297
 20
41.54645569244443
 30
0.0
 10
165.1347479815655
 20
41.5687355359274
 30
0.0
 10
164.9444636798582
 20
41.60529808551505
 30
0.0
 10
164.6867813967468
 20
41.6741725469637
 30
0.0
 10
164.4504780186481
 20
41.75937068008469
 30
0.0
 10
164.2966757992047
 20
41.83543608252363
 30
0.0
 10
164.2091760936113
 20
41.88595406110196
 30
0.0
  0
SPLINE
  5
21E
330
1CF
100
AcDbEntity
  8
0
  6
Continuous
 62
     0
370
     0
100
AcDbSpline
210
0.0
220
0.0
230
1.0
 70
     8
 71
     3
 72
    11
 73
     7
 74
     0
 42
0.0
 43
0.0
 40
0.0
 40
0.0
 40
0.0
 40
0.0
 40
0.2651073411125844
 40
0.5302146822251688
 40
0.7580294481445119
 40
0.9794867402513825
 40
0.9794867402513825
 40
0.9794867402513825
 40
0.9794867402513825
 10
165.2534237902109
 20
42.06925454422004
 30
0.0
 10
165.1664900631812
 20
42.08351969647833
 30
0.0
 10
164.9944851599249
 20
42.10392993284694
 30
0.0
 10
164.761205651738
 20
42.14482934429894
 30
0.0
 10
164.5571905826554
 20
42.22180149801868
 30
0.0
 10
164.4403095103652
 20
42.29807627902025
 30
0.0
 10
164.385952788908
 20
42.34156952431118
 30
0.0
  0
ELLIPSE
  5
21F
330
1CF
100
AcDbEntity
  8
0
  6
Continuous
 62
     0
370
     0
100
AcDbEllipse
 10
165.245
 20
41.955
 30
0.0
 11
0.004939933535103361
 21
0.4999755964611364
 31
0.0
210
0.0
220
0.0
230
0.9999999999999997
 40
0.014
 41
3.757141382522994
 42
4.943692647110929
  0
ELLIPSE
  5
220
330
1CF
100
AcDbEntity
  8
0
  6
Continuous
 62
     0
370
     0
100
AcDbEllipse
 10
164.032
 20
42.137
 30
0.0
 11
-0.2500000000000006
 21
-0.433012701892219
 31
0.0
210
0.0
220
0.0
230
-1.0
 40
0.577
 41
3.926990816987226
 42
4.974188368183828
  0
ARC
  5
221
330
1CF
100
AcDbEntity
  8
0
  6
Continuous
 62
     0
370
     0
100
AcDbCircle
 10
138.216
 20
58.106
 30
0.0
 40
0.5804752349097364
100
AcDbArc
 50
189.501
 51
252.304
  0
SPLINE
  5
222
330
1CF
100
AcDbEntity
  8
0
  6
Continuous
 62
     0
370
     0
100
AcDbSpline
210
0.0
220
0.0
230
1.0
 70
     8
 71
     3
 72
    10
 73
     6
 74
     0
 42
0.0
 43
0.0
 40
0.0
 40
0.0
 40
0.0
 40
0.0
 40
0.3765132492803122
 40
0.6497351068750618
 40
1.254050792356654
 40
1.254050792356654
 40
1.254050792356654
 40
1.254050792356654
 10
137.8623005431254
 20
57.09732975248059
 30
0.0
 10
137.7661824629695
 20
57.1528235519326
 30
0.0
 10
137.6087016223661
 20
57.25967130219217
 30
0.0
 10
137.3553526307912
 20
57.49030333960164
 30
0.0
 10
137.2368732231
 20
57.65534480163797
 30
0.0
 10
137.179537774033
 20
57.75034206611123
 30
0.0
  0
ELLIPSE
  5
223
330
1CF
100
AcDbEntity
  8
0
  6
Continuous
 62
     0
370
     0
100
AcDbEllipse
 10
137.686
 20
57.349
 30
0.0
 11
0.2500000000000006
 21
0.433012701892219
 31
0.0
210
0.0
220
0.0
230
1.0
 40
0.577
 41
4.450589592585537
 42
5.497787143782139
  0
ELLIPSE
  5
224
330
1CF
100
AcDbEntity
  8
0
  6
Continuous
 62
     0
370
     0
100
AcDbEllipse
 10
137.18
 20
58.159
 30
0.0
 11
0.4997804966995533
 21
0.0148140176439286
 31
0.0
210
0.0
220
0.0
230
0.9999999999999999
 40
0.816
 41
4.68819543074858
 42
5.874746695336373
  0
SPLINE
  5
225
330
1CF
100
AcDbEntity
  8
0
  6
Continuous
 62
     0
370
     0
100
AcDbSpline
210
0.0
220
0.0
230
1.0
 70
     8
 71
     3
 72
    11
 73
     7
 74
     0
 42
0.0
 43
0.0
 40
0.0
 40
0.0
 40
0.0
 40
0.0
 40
0.4067430187026377
 40
0.6788431679170711
 40
0.9112953912872531
 40
1.027824753625421
 40
1.027824753625421
 40
1.027824753625421
 40
1.027824753625421
 10
179.3876278770279
 20
49.71142150172169
 30
0.0
 10
179.3490380561307
 20
49.77535973681712
 30
0.0
 10
179.2668972535506
 20
49.87435896473704
 30
0.0
 10
179.1096377963495
 20
50.00121257175792
 30
0.0
 10
178.9797866757363
 20
50.08869699586547
 30
0.0
 10
178.8995129964799
 20
50.13893594558715
 30
0.0
 10
178.8720132826517
 20
50.15581009014047
 30
0.0
  0
ARC
  5
226
330
1CF
100
AcDbEntity
  8
0
  6
Continuous
 62
     0
370
     0
100
AcDbCircle
 10
178.352
 20
49.907
 30
0.0
 40
0.5749043398741047
100
AcDbArc
 50
5.45
 51
20.643
  0
ELLIPSE
  5
227
330
1CF
100
AcDbEntity
  8
0
  6
Continuous
 62
     0
370
     0
100
AcDbEllipse
 10
179.388
 20
50.12
 30
0.0
 11
-0.4997804966995547
 21
-0.0148140176439313
 31
0.0
210
0.0
220
0.0
230
-1.0
 40
0.816
 41
4.736582530020813
 42
5.923133794608614
  0
LINE
  5
228
330
1CF
100
AcDbEntity
  8
0
  6
Continuous
 62
     0
370
    30
100
AcDbLine
 10
178.89
 20
50.11
 30
0.0
 11
178.899
 21
50.094
 31
0.0
  0
LINE
  5
229
330
1CF
100
AcDbEntity
  8
0
  6
Continuous
 62
     0
370
    30
100
AcDbLine
 10
137.694
 20
58.207
 30
0.0
 11
144.993
 21
68.477
 31
0.0
  0
LINE
  5
22A
330
1CF
100
AcDbEntity
  8
0
  6
Continuous
 62
     0
370
    30
100
AcDbLine
 10
178.89
 20
50.11
 30
0.0
 11
171.691
 21
68.553
 31
0.0
  0
LINE
  5
22B
330
1CF
100
AcDbEntity
  8
0
  6
Continuous
 62
     0
370
    30
100
AcDbLine
 10
178.861
 20
50.185
 30
0.0
 11
180.1
 21
49.469
 31
0.0
  0
SPLINE
  5
22C
330
1CF
100
AcDbEntity
  8
0
  6
Continuous
 62
     0
370
    30
100
AcDbSpline
210
0.0
220
0.0
230
1.0
 70
     8
 71
     3
 72
    11
 73
     7
 74
     0
 42
0.0
 43
0.0
 40
0.0
 40
0.0
 40
0.0
 40
0.0
 40
1.785100272660622
 40
4.017268078036086
 40
6.463732010064303
 40
8.206555417516041
 40
8.206555417516041
 40
8.206555417516041
 40
8.206555417516041
 10
136.4668259936282
 20
66.20721905119454
 30
0.0
 10
136.0395107500258
 20
65.96050847989329
 30
0.0
 10
135.1543132282434
 20
65.35349497469899
 30
0.0
 10
134.0608322110921
 20
64.21741282204835
 30
0.0
 10
133.4150517150228
 20
62.93956940765096
 30
0.0
 10
133.2878938063519
 20
62.05776012978959
 30
0.0
 10
133.2878938112063
 20
61.69172339712506
 30
0.0
  0
SPLINE
  5
22D
330
1CF
100
AcDbEntity
  8
0
  6
Continuous
 62
     0
370
    30
100
AcDbSpline
210
0.0
220
0.0
230
1.0
 70
     8
 71
     3
 72
    12
 73
     8
 74
     0
 42
0.0
 43
0.0
 40
7.269370065297332
 40
7.269370065297332
 40
7.269370065297332
 40
7.269370065297332
 40
8.048654758136179
 40
10.52059586917774
 40
12.97591373559835
 40
14.89954173627272
 40
16.19521615634317
 40
16.19521615634317
 40
16.19521615634317
 40
16.19521615634317
 10
144.6152765332329
 20
67.9459533139232
 30
0.0
 10
144.3563217794273
 20
67.95802716495525
 30
0.0
 10
143.2727827320342
 20
67.98480324413406
 30
0.0
 10
141.3695699172293
 20
67.85753165120171
 30
0.0
 10
139.208047657703
 20
67.3955123567443
 30
0.0
 10
137.5945558072817
 20
66.80255461361432
 30
0.0
 10
136.7771555417517
 20
66.38638790313075
 30
0.0
 10
136.4668259205932
 20
66.20721900902774
 30
0.0
  0
SPLINE
  5
22E
330
1CF
100
AcDbEntity
  8
0
  6
Continuous
 62
     0
370
    30
100
AcDbSpline
210
0.0
220
0.0
230
1.0
 70
     8
 71
     3
 72
    12
 73
     8
 74
     0
 42
0.0
 43
0.0
 40
0.0
 40
0.0
 40
0.0
 40
0.0
 40
0.8816295600747706
 40
1.943339671740937
 40
4.356960759520639
 40
6.474867727125469
 40
8.206577245939425
 40
8.206577245939425
 40
8.206577245939425
 40
8.206577245939425
 10
183.2792718398547
 20
44.95354359131868
 30
0.0
 10
183.2792718373222
 20
45.13889497986932
 30
0.0
 10
183.2495666617157
 20
45.54767750006478
 30
0.0
 10
183.0376705494616
 20
46.45236353416031
 30
0.0
 10
182.4431440740323
 20
47.55694347678326
 30
0.0
 10
181.3653595049476
 20
48.64947339061189
 30
0.0
 10
180.5149010302663
 20
49.22969196537422
 30
0.0
 10
180.100340532085
 20
49.46903863719179
 30
0.0
  0
LINE
  5
22F
330
1CF
100
AcDbEntity
  8
0
  6
Continuous
 62
     0
370
    30
100
AcDbLine
 10
183.279
 20
40.055
 30
0.0
 11
183.279
 21
44.954
 31
0.0
  0
LINE
  5
230
330
1CF
100
AcDbEntity
  8
0
  6
Continuous
 62
     0
370
    30
100
AcDbLine
 10
133.288
 20
61.692
 30
0.0
 11
133.288
 21
56.793
 31
0.0
  0
SPLINE
  5
231
330
1CF
100
AcDbEntity
  8
0
  6
Continuous
 62
     0
370
    30
100
AcDbSpline
210
0.0
220
0.0
230
1.0
 70
     8
 71
     3
 72
    17
 73
    13
 74
     0
 42
0.0
 43
0.0
 40
0.0
 40
0.0
 40
0.0
 40
0.0
 40
0.8343132764770138
 40
2.168343863729108
 40
5.541000311029414
 40
7.716283834789352
 40
9.976131169246884
 40
13.25163011217832
 40
15.20893833943946
 40
16.7345990622882
 40
18.47706456726038
 40
19.65504362228863
 40
19.65504362228863
 40
19.65504362228863
 40
19.65504362228863
 10
171.6908185181161
 20
68.5527198216042
 30
0.0
 10
171.5916971121683
 20
68.80665076389793
 30
0.0
 10
171.3167267300176
 20
69.46469707027612
 30
0.0
 10
170.5051434382837
 20
71.11927132435252
 30
0.0
 10
169.2281154510607
 20
73.04812491662662
 30
0.0
 10
167.5292466969261
 20
74.89954036228345
 30
0.0
 10
165.7172493712015
 20
76.3903386779377
 30
0.0
 10
163.8718260996288
 20
77.35412062129686
 30
0.0
 10
162.2210319914817
 20
77.73640240961063
 30
0.0
 10
160.9801222463624
 20
77.75916756780953
 30
0.0
 10
159.9787663876228
 20
77.54730636626127
 30
0.0
 10
159.3775313767902
 20
77.27038646850355
 30
0.0
 10
159.1475437305338
 20
77.13760302875778
 30
0.0
  0
ARC
  5
232
330
1CF
100
AcDbEntity
  8
0
  6
Continuous
 62
     0
370
    30
100
AcDbCircle
 10
148.698
 20
65.879
 30
0.0
 40
4.525804775812259
100
AcDbArc
 50
120.233
 51
144.964
  0
LINE
  5
233
330
1CF
100
AcDbEntity
  8
0
  6
Continuous
 62
     0
370
    30
100
AcDbLine
 10
151.016
 20
72.443
 30
0.0
 11
146.42
 21
69.789
 31
0.0
  0
LINE
  5
234
330
1CF
100
AcDbEntity
  8
0
  6
Continuous
 62
     0
370
    30
100
AcDbLine
 10
159.148
 20
77.138
 30
0.0
 11
154.551
 21
74.484
 31
0.0
  0
LINE
  5
235
330
1CF
100
AcDbEntity
  8
0
  6
Continuous
 62
     0
370
    30
100
AcDbLine
 10
147.713
 20
65.917
 30
0.0
 11
147.359
 21
65.713
 31
0.0
  0
LINE
  5
236
330
1CF
100
AcDbEntity
  8
0
  6
Continuous
 62
     0
370
    30
100
AcDbLine
 10
154.713
 20
53.792
 30
0.0
 11
154.359
 21
53.588
 31
0.0
  0
ELLIPSE
  5
237
330
1CF
100
AcDbEntity
  8
0
  6
Continuous
 62
     0
370
    30
100
AcDbEllipse
 10
150.859
 20
59.65
 30
0.0
 11
2.5
 21
-4.330127018922192
 31
0.0
210
0.0
220
0.0
230
0.9999999999999997
 40
0.577
 41
0.0000000228501555
 42
2.356194490192342
  0
ELLIPSE
  5
238
330
1CF
100
AcDbEntity
  8
0
  6
Continuous
 62
     0
370
    30
100
AcDbEllipse
 10
150.859
 20
59.65
 30
0.0
 11
2.5
 21
-4.330127018922192
 31
0.0
210
0.0
220
0.0
230
0.9999999999999997
 40
0.577
 41
2.356194490192342
 42
3.141592676439949
  0
ELLIPSE
  5
239
330
1CF
100
AcDbEntity
  8
0
  6
Continuous
 62
     0
370
    30
100
AcDbEllipse
 10
150.152
 20
59.242
 30
0.0
 11
2.5
 21
-4.330127018922192
 31
0.0
210
0.0
220
0.0
230
0.9999999999999997
 40
0.577
 41
0.0
 42
6.283185307179586
  0
LINE
  5
23A
330
1CF
100
AcDbEntity
  8
0
  6
Continuous
 62
     0
370
    30
100
AcDbLine
 10
148.359
 20
63.981
 30
0.0
 11
147.652
 21
63.572
 31
0.0
  0
LINE
  5
23B
330
1CF
100
AcDbEntity
  8
0
  6
Continuous
 62
     0
370
    30
100
AcDbLine
 10
153.359
 20
55.32
 30
0.0
 11
152.652
 21
54.912
 31
0.0
  0
ENDBLK
  5
23D
330
1CF
100
AcDbEntity
  8
0
100
AcDbBlockEnd
  0
ENDSEC
  0
SECTION
  2
ENTITIES
  0
INSERT
  5
C6
330
1F
100
AcDbEntity
  8
0
  6
Continuous
 62
    72
370
     0
100
AcDbBlockReference
  2
a
 10
15.396
 20
20.616
 30
0.0
  0
INSERT
  5
106
330
1F
100
AcDbEntity
  8
0
  6
Continuous
 62
    72
370
     0
100
AcDbBlockReference
  2
b
 10
-30.272
 20
19.157
 30
0.0
  0
INSERT
  5
15B
330
1F
100
AcDbEntity
  8
0
  6
Continuous
 62
    72
370
     0
100
AcDbBlockReference
  2
c
 10
51.312
 20
-36.057
 30
0.0
  0
INSERT
  5
1CE
330
1F
100
AcDbEntity
  8
0
  6
Continuous
 62
    72
370
     0
100
AcDbBlockReference
  2
d
 10
82.086
 20
5.261
 30
0.0
  0
INSERT
  5
23E
330
1F
100
AcDbEntity
  8
0
  6
Continuous
 62
    72
370
     0
100
AcDbBlockReference
  2
e
 10
127.765
 20
30.435
 30
0.0
  0
ENDSEC
  0
SECTION
  2
OBJECTS
  0
DICTIONARY
  5
C
330
0
100
AcDbDictionary
281
     1
  3
ACAD_GROUP
350
D
  3
ACAD_LAYOUT
350
1A
  3
ACAD_MLEADERSTYLE
350
240
  3
ACAD_MLINESTYLE
350
17
  3
ACAD_PLOTSETTINGS
350
19
  3
ACAD_PLOTSTYLENAME
350
E
  3
ACAD_TABLESTYLE
350
23F
  3
ACAD_VISUALSTYLE
350
2A
  0
DICTIONARY
  5
D
102
{ACAD_REACTORS
330
C
102
}
330
C
100
AcDbDictionary
281
     1
  0
DICTIONARY
  5
1A
102
{ACAD_REACTORS
330
C
102
}
330
C
100
AcDbDictionary
281
     1
  3
Layout1
350
1E
  3
Layout2
350
26
  3
Model
350
22
  0
DICTIONARY
  5
240
102
{ACAD_REACTORS
330
C
102
}
330
C
100
AcDbDictionary
281
     1
  0
DICTIONARY
  5
17
102
{ACAD_REACTORS
330
C
102
}
330
C
100
AcDbDictionary
281
     1
  3
Standard
350
18
  0
DICTIONARY
  5
19
102
{ACAD_REACTORS
330
C
102
}
330
C
100
AcDbDictionary
281
     1
  0
ACDBDICTIONARYWDFLT
  5
E
102
{ACAD_REACTORS
330
C
102
}
330
C
100
AcDbDictionary
281
     1
  3
Normal
350
F
100
AcDbDictionaryWithDefault
340
F
  0
DICTIONARY
  5
23F
102
{ACAD_REACTORS
330
C
102
}
330
C
100
AcDbDictionary
281
     1
  0
DICTIONARY
  5
2A
102
{ACAD_REACTORS
330
C
102
}
330
C
100
AcDbDictionary
281
     1
  3
2dWireframe
350
2F
  3
3D Hidden
350
31
  3
3dWireframe
350
30
  3
Basic
350
32
  3
Brighten
350
36
  3
ColorChange
350
3A
  3
Conceptual
350
34
  3
Dim
350
35
  3
Facepattern
350
39
  3
Flat
350
2B
  3
FlatWithEdges
350
2C
  3
Gouraud
350
2D
  3
GouraudWithEdges
350
2E
  3
Linepattern
350
38
  3
Realistic
350
33
  3
Thicken
350
37
  0
LAYOUT
  5
1E
102
{ACAD_REACTORS
330
1A
102
}
330
1A
100
AcDbPlotSettings
  1

  2
none_device
  4

  6

 40
0.0
 41
0.0
 42
0.0
 43
0.0
 44
0.0
 45
0.0
 46
0.0
 47
0.0
 48
0.0
 49
0.0
140
0.0
141
0.0
142
1.0
143
1.0
 70
   688
 72
     0
 73
     0
 74
     5
  7

 75
    16
 76
     0
 77
     2
 78
   300
147
1.0
148
0.0
149
0.0
100
AcDbLayout
  1
Layout1
 70
     1
 71
     1
 10
0.0
 20
0.0
 11
420.0
 21
297.0
 12
0.0
 22
0.0
 32
0.0
 14
1.000E+20
 24
1.000E+20
 34
1.000E+20
 15
-1.000E+20
 25
-1.000E+20
 35
-1.000E+20
146
0.0
 13
0.0
 23
0.0
 33
0.0
 16
1.0
 26
0.0
 36
0.0
 17
0.0
 27
1.0
 37
0.0
 76
     0
330
1B
  0
LAYOUT
  5
26
102
{ACAD_REACTORS
330
1A
102
}
330
1A
100
AcDbPlotSettings
  1

  2
none_device
  4

  6

 40
0.0
 41
0.0
 42
0.0
 43
0.0
 44
0.0
 45
0.0
 46
0.0
 47
0.0
 48
0.0
 49
0.0
140
0.0
141
0.0
142
1.0
143
1.0
 70
   688
 72
     0
 73
     0
 74
     5
  7

 75
    16
 76
     0
 77
     2
 78
   300
147
1.0
148
0.0
149
0.0
100
AcDbLayout
  1
Layout2
 70
     1
 71
     2
 10
0.0
 20
0.0
 11
0.0
 21
0.0
 12
0.0
 22
0.0
 32
0.0
 14
0.0
 24
0.0
 34
0.0
 15
0.0
 25
0.0
 35
0.0
146
0.0
 13
0.0
 23
0.0
 33
0.0
 16
1.0
 26
0.0
 36
0.0
 17
0.0
 27
1.0
 37
0.0
 76
     0
330
23
  0
LAYOUT
  5
22
102
{ACAD_REACTORS
330
1A
102
}
330
1A
100
AcDbPlotSettings
  1

  2
none_device
  4

  6

 40
0.0
 41
0.0
 42
0.0
 43
0.0
 44
0.0
 45
0.0
 46
0.0
 47
0.0
 48
0.0
 49
0.0
140
0.0
141
0.0
142
1.0
143
1.0
 70
  1712
 72
     0
 73
     0
 74
     0
  7

 75
     0
 76
     0
 77
     2
 78
   300
147
1.0
148
0.0
149
0.0
100
AcDbLayout
  1
Model
 70
     1
 71
     0
 10
0.0
 20
0.0
 11
420.0
 21
297.0
 12
0.0
 22
0.0
 32
0.0
 14
1.000E+20
 24
1.000E+20
 34
1.000E+20
 15
-1.000E+20
 25
-1.000E+20
 35
-1.000E+20
146
0.0
 13
0.0
 23
0.0
 33
0.0
 16
1.0
 26
0.0
 36
0.0
 17
0.0
 27
1.0
 37
0.0
 76
     0
330
1F
331
29
  0
MLINESTYLE
  5
18
102
{ACAD_REACTORS
330
17
102
}
330
17
100
AcDbMlineStyle
  2
Standard
 70
     0
  3

 62
   256
 51
90.0
 52
90.0
 71
     2
 49
0.5
 62
   256
  6
BYLAYER
 49
-0.5
 62
   256
  6
BYLAYER
  0
ACDBPLACEHOLDER
  5
F
102
{ACAD_REACTORS
330
E
102
}
330
E
  0
VISUALSTYLE
  5
2F
102
{ACAD_REACTORS
330
2A
102
}
330
2A
100
AcDbVisualStyle
  2
2dWireframe
 70
     4
 71
     0
 72
     2
 73
     0
 90
        0
 40
-0.6
 41
-30.0
 62
     5
 63
     7
421
 16777215
 74
     1
 91
        4
 64
     7
 65
   257
 75
     1
175
     1
 42
1.0
 92
        0
 66
   257
 43
1.0
 76
     1
 77
     6
 78
     2
 67
     7
 79
     5
170
     0
171
     0
290
     0
174
     0
 93
        1
 44
0.0
173
     0
291
     0
 45
0.0
1001
ACAD
1000
AcDbSavedByObjectVersion
1070
     0
  0
VISUALSTYLE
  5
31
102
{ACAD_REACTORS
330
2A
102
}
330
2A
100
AcDbVisualStyle
  2
3D Hidden
 70
     6
 71
     1
 72
     2
 73
     2
 90
        0
 40
-0.6
 41
-30.0
 62
     5
 63
     7
421
 16777215
 74
     2
 91
        2
 64
     7
 65
   257
 75
     2
175
     1
 42
40.0
 92
        0
 66
   257
 43
1.0
 76
     1
 77
     6
 78
     2
 67
     7
 79
     3
170
     0
171
     0
290
     0
174
     0
 93
        1
 44
0.0
173
     0
291
     0
 45
0.0
1001
ACAD
1000
AcDbSavedByObjectVersion
1070
     0
  0
VISUALSTYLE
  5
30
102
{ACAD_REACTORS
330
2A
102
}
330
2A
100
AcDbVisualStyle
  2
3dWireframe
 70
     5
 71
     0
 72
     2
 73
     0
 90
        0
 40
-0.6
 41
-30.0
 62
     5
 63
     7
421
 16777215
 74
     1
 91
        4
 64
     7
 65
   257
 75
     1
175
     1
 42
1.0
 92
        0
 66
   257
 43
1.0
 76
     1
 77
     6
 78
     2
 67
     7
 79
     5
170
     0
171
     0
290
     0
174
     0
 93
        1
 44
0.0
173
     0
291
     0
 45
0.0
1001
ACAD
1000
AcDbSavedByObjectVersion
1070
     0
  0
VISUALSTYLE
  5
32
102
{ACAD_REACTORS
330
2A
102
}
330
2A
100
AcDbVisualStyle
  2
Basic
 70
     7
 71
     1
 72
     0
 73
     1
 90
        0
 40
-0.6
 41
-30.0
 62
     5
 63
     7
421
 16777215
 74
     0
 91
        4
 64
     7
 65
   257
 75
     1
175
     1
 42
1.0
 92
        8
 66
     7
 43
1.0
 76
     1
 77
     6
 78
     2
 67
     7
 79
     5
170
     0
171
     0
290
     0
174
     0
 93
        1
 44
0.0
173
     0
291
     1
 45
0.0
1001
ACAD
1000
AcDbSavedByObjectVersion
1070
     0
  0
VISUALSTYLE
  5
36
102
{ACAD_REACTORS
330
2A
102
}
330
2A
100
AcDbVisualStyle
  2
Brighten
 70
    12
 71
     2
 72
     2
 73
     0
 90
        0
 40
-0.6
 41
-30.0
 62
     5
 63
     7
421
 16777215
 74
     1
 91
        4
 64
     7
 65
   257
 75
     1
175
     1
 42
1.0
 92
        8
 66
     7
 43
1.0
 76
     1
 77
     6
 78
     2
 67
     7
 79
     5
170
     0
171
     0
290
     0
174
     0
 93
        1
 44
50.0
173
     0
291
     1
 45
0.0
1001
ACAD
1000
AcDbSavedByObjectVersion
1070
     0
  0
VISUALSTYLE
  5
3A
102
{ACAD_REACTORS
330
2A
102
}
330
2A
100
AcDbVisualStyle
  2
ColorChange
 70
    16
 71
     2
 72
     2
 73
     3
 90
        0
 40
-0.6
 41
-30.0
 62
     5
 63
     8
421
  8421504
 74
     1
 91
        4
 64
     7
 65
   257
 75
     1
175
     1
 42
1.0
 92
        8
 66
     8
424
  8421504
 43
1.0
 76
     1
 77
     6
 78
     2
 67
     7
 79
     5
170
     0
171
     0
290
     0
174
     0
 93
        1
 44
0.0
173
     0
291
     1
 45
0.0
1001
ACAD
1000
AcDbSavedByObjectVersion
1070
     0
  0
VISUALSTYLE
  5
34
102
{ACAD_REACTORS
330
2A
102
}
330
2A
100
AcDbVisualStyle
  2
Conceptual
 70
     9
 71
     3
 72
     2
 73
     0
 90
        0
 40
-0.6
 41
-30.0
 62
     5
 63
     7
421
 16777215
 74
     2
 91
        2
 64
     7
 65
   257
 75
     1
175
     1
 42
40.0
 92
        8
 66
     7
 43
1.0
 76
     1
 77
     6
 78
     2
 67
     7
 79
     3
170
     0
171
     0
290
     0
174
     0
 93
        1
 44
0.0
173
     0
291
     0
 45
0.0
1001
ACAD
1000
AcDbSavedByObjectVersion
1070
     0
  0
VISUALSTYLE
  5
35
102
{ACAD_REACTORS
330
2A
102
}
330
2A
100
AcDbVisualStyle
  2
Dim
 70
    11
 71
     2
 72
     2
 73
     0
 90
        0
 40
-0.6
 41
-30.0
 62
     5
 63
     7
421
 16777215
 74
     1
 91
        4
 64
     7
 65
   257
 75
     1
175
     1
 42
1.0
 92
        8
 66
     7
 43
1.0
 76
     1
 77
     6
 78
     2
 67
     7
 79
     5
170
     0
171
     0
290
     0
174
     0
 93
        1
 44
-50.0
173
     0
291
     1
 45
0.0
1001
ACAD
1000
AcDbSavedByObjectVersion
1070
     0
  0
VISUALSTYLE
  5
39
102
{ACAD_REACTORS
330
2A
102
}
330
2A
100
AcDbVisualStyle
  2
Facepattern
 70
    15
 71
     2
 72
     2
 73
     0
 90
        0
 40
-0.6
 41
-30.0
 62
     5
 63
     7
421
 16777215
 74
     1
 91
        4
 64
     7
 65
   257
 75
     1
175
     1
 42
1.0
 92
        8
 66
     7
 43
1.0
 76
     1
 77
     6
 78
     2
 67
     7
 79
     5
170
     0
171
     0
290
     0
174
     0
 93
        1
 44
0.0
173
     0
291
     1
 45
0.0
1001
ACAD
1000
AcDbSavedByObjectVersion
1070
     0
  0
VISUALSTYLE
  5
2B
102
{ACAD_REACTORS
330
2A
102
}
330
2A
100
AcDbVisualStyle
  2
Flat
 70
     0
 71
     2
 72
     1
 73
     1
 90
        2
 40
-0.6
 41
30.0
 62
     5
 63
     7
421
 16777215
 74
     0
 91
        4
 64
     7
 65
   257
 75
     1
175
     1
 42
1.0
 92
        8
 66
     7
 43
1.0
 76
     1
 77
     6
 78
     2
 67
     7
 79
     5
170
     0
171
     0
290
     0
174
     0
 93
       13
 44
0.0
173
     0
291
     1
 45
0.0
1001
ACAD
1000
AcDbSavedByObjectVersion
1070
     0
  0
VISUALSTYLE
  5
2C
102
{ACAD_REACTORS
330
2A
102
}
330
2A
100
AcDbVisualStyle
  2
FlatWithEdges
 70
     1
 71
     2
 72
     1
 73
     1
 90
        2
 40
-0.6
 41
30.0
 62
     5
 63
     7
421
 16777215
 74
     1
 91
        4
 64
     7
 65
   257
 75
     1
175
     1
 42
1.0
 92
        0
 66
   257
 43
1.0
 76
     1
 77
     6
 78
     2
 67
     7
 79
     5
170
     0
171
     0
290
     0
174
     0
 93
       13
 44
0.0
173
     0
291
     1
 45
0.0
1001
ACAD
1000
AcDbSavedByObjectVersion
1070
     0
  0
VISUALSTYLE
  5
2D
102
{ACAD_REACTORS
330
2A
102
}
330
2A
100
AcDbVisualStyle
  2
Gouraud
 70
     2
 71
     2
 72
     2
 73
     1
 90
        2
 40
-0.6
 41
30.0
 62
     5
 63
     7
421
 16777215
 74
     0
 91
        4
 64
     7
 65
   257
 75
     1
175
     1
 42
1.0
 92
        0
 66
     7
 43
1.0
 76
     1
 77
     6
 78
     2
 67
     7
 79
     5
170
     0
171
     0
290
     0
174
     0
 93
       13
 44
0.0
173
     0
291
     1
 45
0.0
1001
ACAD
1000
AcDbSavedByObjectVersion
1070
     0
  0
VISUALSTYLE
  5
2E
102
{ACAD_REACTORS
330
2A
102
}
330
2A
100
AcDbVisualStyle
  2
GouraudWithEdges
 70
     3
 71
     2
 72
     2
 73
     1
 90
        2
 40
-0.6
 41
30.0
 62
     5
 63
     7
421
 16777215
 74
     1
 91
        4
 64
     7
 65
   257
 75
     1
175
     1
 42
1.0
 92
        0
 66
   257
 43
1.0
 76
     1
 77
     6
 78
     2
 67
     7
 79
     5
170
     0
171
     0
290
     0
174
     0
 93
       13
 44
0.0
173
     0
291
     1
 45
0.0
1001
ACAD
1000
AcDbSavedByObjectVersion
1070
     0
  0
VISUALSTYLE
  5
38
102
{ACAD_REACTORS
330
2A
102
}
330
2A
100
AcDbVisualStyle
  2
Linepattern
 70
    14
 71
     2
 72
     2
 73
     0
 90
        0
 40
-0.6
 41
-30.0
 62
     5
 63
     7
421
 16777215
 74
     1
 91
        4
 64
     7
 65
   257
 75
     7
175
     7
 42
1.0
 92
        8
 66
     7
 43
1.0
 76
     1
 77
     6
 78
     2
 67
     7
 79
     5
170
     0
171
     0
290
     0
174
     0
 93
        1
 44
0.0
173
     0
291
     1
 45
0.0
1001
ACAD
1000
AcDbSavedByObjectVersion
1070
     0
  0
VISUALSTYLE
  5
33
102
{ACAD_REACTORS
330
2A
102
}
330
2A
100
AcDbVisualStyle
  2
Realistic
 70
     8
 71
     2
 72
     2
 73
     0
 90
        0
 40
-0.6
 41
-30.0
 62
     5
 63
     7
421
 16777215
 74
     1
 91
        0
 64
     7
 65
   257
 75
     1
175
     1
 42
1.0
 92
        8
 66
     8
424
  7895160
 43
1.0
 76
     1
 77
     6
 78
     2
 67
     7
 79
     5
170
     0
171
     0
290
     0
174
     0
 93
       13
 44
0.0
173
     0
291
     0
 45
0.0
1001
ACAD
1000
AcDbSavedByObjectVersion
1070
     0
  0
VISUALSTYLE
  5
37
102
{ACAD_REACTORS
330
2A
102
}
330
2A
100
AcDbVisualStyle
  2
Thicken
 70
    13
 71
     2
 72
     2
 73
     0
 90
        0
 40
-0.6
 41
-30.0
 62
     5
 63
     7
421
 16777215
 74
     1
 91
        4
 64
     7
 65
   257
 75
     1
175
     1
 42
1.0
 92
       12
 66
     7
 43
1.0
 76
     1
 77
     6
 78
     2
 67
     7
 79
     5
170
     0
171
     0
290
     0
174
     0
 93
        1
 44
0.0
173
     0
291
     1
 45
0.0
1001
ACAD
1000
AcDbSavedByObjectVersion
1070
     0
  0
ENDSEC
  0
EOF
