  0
SECTION
  2
HEADER
  9
$ACADVER
  1
AC1015
  9
$ACADMAINTVER
 70
    20
  9
$DWGCODEPAGE
  3
ANSI_1252
  9
$INSBASE
 10
0.0
 20
0.0
 30
0.0
  9
$EXTMIN
 10
-281.8321059349255
 20
-54.3933497889393
 30
0.0
  9
$EXTMAX
 10
58.49329634937567
 20
53.52998500906142
 30
0.0000000000000157
  9
$LIMMIN
 10
0.0
 20
0.0
  9
$LIMMAX
 10
420.0
 20
300.0
  9
$ORTHOMODE
 70
     0
  9
$REGENMODE
 70
     1
  9
$FILLMODE
 70
     1
  9
$QTEXTMODE
 70
     0
  9
$MIRRTEXT
 70
     0
  9
$LTSCALE
 40
10.0
  9
$ATTMODE
 70
     1
  9
$TEXTSIZE
 40
3.0
  9
$TRACEWID
 40
0.05
  9
$TEXTSTYLE
  7
ROMANS
  9
$CLAYER
  8
P-0000
  9
$CELTYPE
  6
TRATTEGGIO
  9
$CECOLOR
 62
     3
  9
$CELTSCALE
 40
1.0
  9
$DISPSILH
 70
     0
  9
$DIMSCALE
 40
10.0
  9
$DIMASZ
 40
2.0
  9
$DIMEXO
 40
1.0
  9
$DIMDLI
 40
10.0
  9
$DIMRND
 40
0.0
  9
$DIMDLE
 40
0.0
  9
$DIMEXE
 40
1.5
  9
$DIMTP
 40
0.0
  9
$DIMTM
 40
0.0
  9
$DIMTXT
 40
2.0
  9
$DIMCEN
 40
2.0
  9
$DIMTSZ
 40
0.0
  9
$DIMTOL
 70
     0
  9
$DIMLIM
 70
     0
  9
$DIMTIH
 70
     0
  9
$DIMTOH
 70
     0
  9
$DIMSE1
 70
     0
  9
$DIMSE2
 70
     0
  9
$DIMTAD
 70
     1
  9
$DIMZIN
 70
     8
  9
$DIMBLK
  1

  9
$DIMASO
 70
     1
  9
$DIMSHO
 70
     1
  9
$DIMPOST
  1

  9
$DIMAPOST
  1

  9
$DIMALT
 70
     0
  9
$DIMALTD
 70
     2
  9
$DIMALTF
 40
25.4
  9
$DIMLFAC
 40
1.0
  9
$DIMTOFL
 70
     1
  9
$DIMTVP
 40
0.0
  9
$DIMTIX
 70
     0
  9
$DIMSOXD
 70
     0
  9
$DIMSAH
 70
     0
  9
$DIMBLK1
  1

  9
$DIMBLK2
  1

  9
$DIMSTYLE
  2
ACADTOP
  9
$DIMCLRD
 70
     2
  9
$DIMCLRE
 70
     2
  9
$DIMCLRT
 70
     1
  9
$DIMTFAC
 40
0.6
  9
$DIMGAP
 40
1.0
  9
$DIMJUST
 70
     0
  9
$DIMSD1
 70
     0
  9
$DIMSD2
 70
     0
  9
$DIMTOLJ
 70
     1
  9
$DIMTZIN
 70
     8
  9
$DIMALTZ
 70
     0
  9
$DIMALTTZ
 70
     0
  9
$DIMUPT
 70
     0
  9
$DIMDEC
 70
     2
  9
$DIMTDEC
 70
     2
  9
$DIMALTU
 70
     2
  9
$DIMALTTD
 70
     2
  9
$DIMTXSTY
  7
Stile_Quota
  9
$DIMAUNIT
 70
     0
  9
$DIMADEC
 70
     1
  9
$DIMALTRND
 40
0.0
  9
$DIMAZIN
 70
     2
  9
$DIMDSEP
 70
    46
  9
$DIMATFIT
 70
     0
  9
$DIMFRAC
 70
     0
  9
$DIMLDRBLK
  1

  9
$DIMLUNIT
 70
     2
  9
$DIMLWD
 70
    -2
  9
$DIMLWE
 70
    -2
  9
$DIMTMOVE
 70
     0
  9
$LUNITS
 70
     2
  9
$LUPREC
 70
     3
  9
$SKETCHINC
 40
0.1
  9
$FILLETRAD
 40
0.0
  9
$AUNITS
 70
     0
  9
$AUPREC
 70
     3
  9
$MENU
  1
.
  9
$ELEVATION
 40
0.0
  9
$PELEVATION
 40
0.0
  9
$THICKNESS
 40
0.0
  9
$LIMCHECK
 70
     0
  9
$CHAMFERA
 40
0.5
  9
$CHAMFERB
 40
0.5
  9
$CHAMFERC
 40
1.0
  9
$CHAMFERD
 40
0.0
  9
$SKPOLY
 70
     1
  9
$TDCREATE
 40
2455155.394611181
  9
$TDUCREATE
 40
2455155.311277847
  9
$TDUPDATE
 40
2455650.429483785
  9
$TDUUPDATE
 40
2455650.346150451
  9
$TDINDWG
 40
0.3047369097
  9
$TDUSRTIMER
 40
0.3047369097
  9
$USRTIMER
 70
     1
  9
$ANGBASE
 50
0.0
  9
$ANGDIR
 70
     0
  9
$PDMODE
 70
     0
  9
$PDSIZE
 40
0.0
  9
$PLINEWID
 40
0.0
  9
$SPLFRAME
 70
     0
  9
$SPLINETYPE
 70
     6
  9
$SPLINESEGS
 70
     8
  9
$HANDSEED
  5
1303
  9
$SURFTAB1
 70
     6
  9
$SURFTAB2
 70
     6
  9
$SURFTYPE
 70
     6
  9
$SURFU
 70
     6
  9
$SURFV
 70
     6
  9
$UCSBASE
  2

  9
$UCSNAME
  2

  9
$UCSORG
 10
0.0
 20
0.0
 30
0.0
  9
$UCSXDIR
 10
1.0
 20
0.0
 30
0.0
  9
$UCSYDIR
 10
0.0
 20
1.0
 30
0.0
  9
$UCSORTHOREF
  2

  9
$UCSORTHOVIEW
 70
     0
  9
$UCSORGTOP
 10
0.0
 20
0.0
 30
0.0
  9
$UCSORGBOTTOM
 10
0.0
 20
0.0
 30
0.0
  9
$UCSORGLEFT
 10
0.0
 20
0.0
 30
0.0
  9
$UCSORGRIGHT
 10
0.0
 20
0.0
 30
0.0
  9
$UCSORGFRONT
 10
0.0
 20
0.0
 30
0.0
  9
$UCSORGBACK
 10
0.0
 20
0.0
 30
0.0
  9
$PUCSBASE
  2

  9
$PUCSNAME
  2

  9
$PUCSORG
 10
0.0
 20
0.0
 30
0.0
  9
$PUCSXDIR
 10
1.0
 20
0.0
 30
0.0
  9
$PUCSYDIR
 10
0.0
 20
1.0
 30
0.0
  9
$PUCSORTHOREF
  2

  9
$PUCSORTHOVIEW
 70
     0
  9
$PUCSORGTOP
 10
0.0
 20
0.0
 30
0.0
  9
$PUCSORGBOTTOM
 10
0.0
 20
0.0
 30
0.0
  9
$PUCSORGLEFT
 10
0.0
 20
0.0
 30
0.0
  9
$PUCSORGRIGHT
 10
0.0
 20
0.0
 30
0.0
  9
$PUCSORGFRONT
 10
0.0
 20
0.0
 30
0.0
  9
$PUCSORGBACK
 10
0.0
 20
0.0
 30
0.0
  9
$USERI1
 70
     0
  9
$USERI2
 70
     0
  9
$USERI3
 70
     0
  9
$USERI4
 70
     0
  9
$USERI5
 70
     0
  9
$USERR1
 40
0.0
  9
$USERR2
 40
0.0
  9
$USERR3
 40
0.0
  9
$USERR4
 40
0.0
  9
$USERR5
 40
0.0
  9
$WORLDVIEW
 70
     1
  9
$SHADEDGE
 70
     3
  9
$SHADEDIF
 70
    70
  9
$TILEMODE
 70
     1
  9
$MAXACTVP
 70
    48
  9
$PINSBASE
 10
0.0
 20
0.0
 30
0.0
  9
$PLIMCHECK
 70
     0
  9
$PEXTMIN
 10
1.000000000000000E+20
 20
1.000000000000000E+20
 30
1.000000000000000E+20
  9
$PEXTMAX
 10
-1.000000000000000E+20
 20
-1.000000000000000E+20
 30
-1.000000000000000E+20
  9
$PLIMMIN
 10
0.0
 20
0.0
  9
$PLIMMAX
 10
12.0
 20
9.0
  9
$UNITMODE
 70
     0
  9
$VISRETAIN
 70
     1
  9
$PLINEGEN
 70
     0
  9
$PSLTSCALE
 70
     0
  9
$TREEDEPTH
 70
  3020
  9
$CMLSTYLE
  2
STANDARD
  9
$CMLJUST
 70
     0
  9
$CMLSCALE
 40
1.0
  9
$PROXYGRAPHICS
 70
     1
  9
$MEASUREMENT
 70
     1
  9
$CELWEIGHT
370
    -1
  9
$ENDCAPS
280
     0
  9
$JOINSTYLE
280
     0
  9
$LWDISPLAY
290
     0
  9
$INSUNITS
 70
     0
  9
$HYPERLINKBASE
  1

  9
$STYLESHEET
  1
monochrome.ctb
  9
$XEDIT
290
     1
  9
$CEPSNTYPE
380
     0
  9
$PSTYLEMODE
290
     1
  9
$FINGERPRINTGUID
  2
{90A48606-AF74-4C57-8EC9-757515F9AA15}
  9
$VERSIONGUID
  2
{415D1F99-9528-436F-B92E-2DAA9505E1E5}
  9
$EXTNAMES
290
     1
  9
$PSVPSCALE
 40
0.0
  9
$OLESTARTUP
290
     0
  0
ENDSEC
  0
SECTION
  2
CLASSES
  0
CLASS
  1
DICTIONARYVAR
  2
AcDbDictionaryVar
  3
ObjectDBX Classes
 90
        0
280
     0
281
     0
  0
CLASS
  1
ACDBDICTIONARYWDFLT
  2
AcDbDictionaryWithDefault
  3
ObjectDBX Classes
 90
        0
280
     0
281
     0
  0
CLASS
  1
ACDBPLACEHOLDER
  2
AcDbPlaceHolder
  3
ObjectDBX Classes
 90
        0
280
     0
281
     0
  0
CLASS
  1
LAYOUT
  2
AcDbLayout
  3
ObjectDBX Classes
 90
        0
280
     0
281
     0
  0
CLASS
  1
PLOTSETTINGS
  2
AcDbPlotSettings
  3
ObjectDBX Classes
 90
        0
280
     0
281
     0
  0
CLASS
  1
MATERIAL
  2
AcDbMaterial
  3
ObjectDBX Classes
 90
     1153
280
     0
281
     0
  0
CLASS
  1
VISUALSTYLE
  2
AcDbVisualStyle
  3
ObjectDBX Classes
 90
     4095
280
     0
281
     0
  0
CLASS
  1
TABLESTYLE
  2
AcDbTableStyle
  3
ObjectDBX Classes
 90
     4095
280
     0
281
     0
  0
CLASS
  1
SCALE
  2
AcDbScale
  3
ObjectDBX Classes
 90
     1153
280
     0
281
     0
  0
CLASS
  1
MLEADERSTYLE
  2
AcDbMLeaderStyle
  3
ACDB_MLEADERSTYLE_CLASS
 90
     4095
280
     0
281
     0
  0
CLASS
  1
CELLSTYLEMAP
  2
AcDbCellStyleMap
  3
ObjectDBX Classes
 90
     1152
280
     0
281
     0
  0
CLASS
  1
DIMASSOC
  2
AcDbDimAssoc
  3
"AcDbDimAssoc|Product Desc:     AcDim ARX App For Dimension|Company:          Autodesk, Inc.|WEB Address:      www.autodesk.com"
 90
        0
280
     0
281
     0
  0
CLASS
  1
ACDBQSCATEGORY
  2
AcQsCategory
  3
categories
 90
     1024
280
     0
281
     0
  0
CLASS
  1
AEC_REFEDIT_STATUS_TRACKER
  2
AecDbRefEditStatusTracker
  3
AecArchBase60|Product Desc: Autodesk Architectural Desktop 2007 |Company: Autodesk,Inc. |WEB Address: www.autodesk.com
 90
    32897
280
     0
281
     0
  0
CLASS
  1
NPOCOLLECTION
  2
AcDbImpNonPersistentObjectsCollection
  3
ObjectDBX Classes
 90
    33921
280
     0
281
     0
  0
CLASS
  1
ACDBQSPALLSTYLE
  2
AcQsPallStyle
  3
pallcart
 90
     1024
280
     0
281
     0
  0
CLASS
  1
SORTENTSTABLE
  2
AcDbSortentsTable
  3
ObjectDBX Classes
 90
    32768
280
     0
281
     0
  0
ENDSEC
  0
SECTION
  2
TABLES
  0
TABLE
  2
VPORT
  5
12
102
{ACAD_XDICTIONARY
360
300
102
}
330
0
100
AcDbSymbolTable
 70
     1
  0
VPORT
  5
2AE
330
12
100
AcDbSymbolTableRecord
100
AcDbViewportTableRecord
  2
*Active
 70
     0
 10
0.0
 20
0.0
 11
1.0
 21
1.0
 12
-111.6694047927749
 22
-0.431682389938942
 13
0.0
 23
0.0
 14
1.0
 24
1.0
 15
1.0
 25
1.0
 16
0.0
 26
0.0
 36
1.0
 17
0.0
 27
0.0
 37
0.0
 40
151.294820082435
 41
2.256756756756756
 42
50.0
 43
0.0
 44
0.0
 50
0.0
 51
0.0
 71
     0
 72
   100
 73
     1
 74
     0
 75
     0
 76
     0
 77
     0
 78
     0
281
     0
 65
     1
110
0.0
120
0.0
130
0.0
111
1.0
121
0.0
131
0.0
112
0.0
122
1.0
132
0.0
 79
     0
146
0.0
  0
ENDTAB
  0
TABLE
  2
LTYPE
  5
D
330
0
100
AcDbSymbolTable
 70
     6
  0
LTYPE
  5
E
330
D
100
AcDbSymbolTableRecord
100
AcDbLinetypeTableRecord
  2
BYBLOCK
 70
     0
  3

 72
    65
 73
     0
 40
0.0
  0
LTYPE
  5
F
330
D
100
AcDbSymbolTableRecord
100
AcDbLinetypeTableRecord
  2
BYLAYER
 70
     0
  3

 72
    65
 73
     0
 40
0.0
  0
LTYPE
  5
5
330
D
100
AcDbSymbolTableRecord
100
AcDbLinetypeTableRecord
  2
CONTINUOUS
 70
     0
  3
Solid line
 72
    65
 73
     0
 40
0.0
  0
LTYPE
  5
3E
330
D
100
AcDbSymbolTableRecord
100
AcDbLinetypeTableRecord
  2
ASSI
 70
     0
  3
-.-.-.-.-.-.-.-.-.-.-.-.-.-.-.-.-.-.-.-.-.-.-.-
 72
    65
 73
     4
 40
16.0
 49
10.0
 74
     0
 49
-2.0
 74
     0
 49
2.0
 74
     0
 49
-2.0
 74
     0
  0
LTYPE
  5
40
330
D
100
AcDbSymbolTableRecord
100
AcDbLinetypeTableRecord
  2
TRATTEGGIO
 70
     0
  3
- - - - - - - - - - - - - - - - - - - - - -
 72
    65
 73
     2
 40
5.5
 49
4.0
 74
     0
 49
-1.5
 74
     0
  0
LTYPE
  5
99A
330
D
100
AcDbSymbolTableRecord
100
AcDbLinetypeTableRecord
  2
DASHDOT2
 70
     0
  3
_._._._._._._._._._._._._._._._._._._._._._._._
 72
    65
 73
     4
 40
0.5
 49
0.25
 74
     0
 49
-0.125
 74
     0
 49
0.0
 74
     0
 49
-0.125
 74
     0
  0
LTYPE
  5
122D
330
D
100
AcDbSymbolTableRecord
100
AcDbLinetypeTableRecord
  2
INGOMBRI
 70
     0
  3
--..--..--..--..--..--..--..--..--..--..--..--
 72
    65
 73
     6
 40
20.0
 49
10.0
 74
     0
 49
-2.0
 74
     0
 49
2.0
 74
     0
 49
-2.0
 74
     0
 49
2.0
 74
     0
 49
-2.0
 74
     0
  0
LTYPE
  5
122E
330
D
100
AcDbSymbolTableRecord
100
AcDbLinetypeTableRecord
  2
PUNTO
 70
     0
  3
Punto . . . . . . . . . . . . . . . . . . . . .
 72
    65
 73
     2
 40
6.349999999999999
 49
0.0
 74
     0
 49
-6.349999999999999
 74
     0
  0
ENDTAB
  0
TABLE
  2
LAYER
  5
A
102
{ACAD_XDICTIONARY
360
9A1
102
}
330
0
100
AcDbSymbolTable
 70
     6
  0
LAYER
  5
4
102
{ACAD_XDICTIONARY
360
37B
102
}
330
A
100
AcDbSymbolTableRecord
100
AcDbLayerTableRecord
  2
0
 70
     0
 62
     7
  6
CONTINUOUS
370
    -3
390
44
  0
LAYER
  5
118
330
A
100
AcDbSymbolTableRecord
100
AcDbLayerTableRecord
  2
Defpoints
 70
     0
 62
     7
  6
CONTINUOUS
290
     0
370
    -3
390
44
  0
LAYER
  5
6DB
102
{ACAD_XDICTIONARY
360
76B
102
}
330
A
100
AcDbSymbolTableRecord
100
AcDbLayerTableRecord
  2
P-0000
 70
     0
 62
     7
  6
CONTINUOUS
370
    -3
390
44
1001
AcAecLayerStandard
1000

1000
PIEDE SNODATO M16 D.102x195/FE ZN
  0
LAYER
  5
BA3
330
A
100
AcDbSymbolTableRecord
100
AcDbLayerTableRecord
  2
P-73B7
 70
     0
 62
     7
  6
CONTINUOUS
370
    -3
390
44
1001
AcAecLayerStandard
1000

1000
.1
  0
LAYER
  5
C39
330
A
100
AcDbSymbolTableRecord
100
AcDbLayerTableRecord
  2
P-3A19
 70
     0
 62
     7
  6
CONTINUOUS
370
    -3
390
44
1001
AcAecLayerStandard
1000

1000
PIEDE SNODATO P. 38 PA D102 M16x195 ZN
  0
LAYER
  5
FA2
330
A
100
AcDbSymbolTableRecord
100
AcDbLayerTableRecord
  2
P-6448
 70
     0
 62
     7
  6
CONTINUOUS
370
    -3
390
44
1001
AcAecLayerStandard
1000

1000
.cart
  0
ENDTAB
  0
TABLE
  2
STYLE
  5
B
330
0
100
AcDbSymbolTable
 70
     8
  0
STYLE
  5
C
330
B
100
AcDbSymbolTableRecord
100
AcDbTextStyleTableRecord
  2
STANDARD
 70
     0
 40
0.0
 41
0.8
 50
0.0
 71
     0
 42
0.2
  3
romans.shx
  4

  0
STYLE
  5
1B
330
B
100
AcDbSymbolTableRecord
100
AcDbTextStyleTableRecord
  2
ROMANS
 70
     0
 40
0.0
 41
0.8
 50
0.0
 71
     0
 42
3.0
  3
ROMANS.shx
  4

  0
STYLE
  5
35C
330
B
100
AcDbSymbolTableRecord
100
AcDbTextStyleTableRecord
  2
Stile_Quota
 70
     0
 40
0.0
 41
1.0
 50
0.0
 71
     0
 42
3.0
  3
BOD_I.TTF
  4

1001
ACAD
1000
Bodoni MT
1071
 16777234
  0
STYLE
  5
99B
330
B
100
AcDbSymbolTableRecord
100
AcDbTextStyleTableRecord
  2
STYLE1
 70
     0
 40
0.0
 41
1.0
 50
0.0
 71
     0
 42
3.0
  3
eurr____.ttf
  4

1001
ACAD
1000
EuroRoman
1071
      514
  0
STYLE
  5
99D
330
B
100
AcDbSymbolTableRecord
100
AcDbTextStyleTableRecord
  2
seansi_ttf
 70
     0
 40
0.0
 41
1.0
 50
0.0
 71
     0
 42
0.2
  3
seansi.ttf
  4

  0
STYLE
  5
99E
330
B
100
AcDbSymbolTableRecord
100
AcDbTextStyleTableRecord
  2
Stile_Cart
 70
     0
 40
0.0
 41
1.0
 50
0.0
 71
     0
 42
1.5
  3
TIMES.TTF
  4

1001
ACAD
1000
Times New Roman
1071
       18
  0
STYLE
  5
122F
330
B
100
AcDbSymbolTableRecord
100
AcDbTextStyleTableRecord
  2

 70
     1
 40
0.0
 41
1.0
 50
0.0
 71
     0
 42
0.2
  3
ltypeshp.shx
  4

  0
STYLE
  5
1230
330
B
100
AcDbSymbolTableRecord
100
AcDbTextStyleTableRecord
  2
Stile_Quota_FISSO
 70
     0
 40
20.0
 41
1.0
 50
0.0
 71
     0
 42
3.0
  3
BOD_I.TTF
  4

1001
ACAD
1000
Bodoni MT
1071
 16777234
  0
ENDTAB
  0
TABLE
  2
VIEW
  5
10
330
0
100
AcDbSymbolTable
 70
     0
  0
ENDTAB
  0
TABLE
  2
UCS
  5
11
330
0
100
AcDbSymbolTable
 70
     0
  0
ENDTAB
  0
TABLE
  2
APPID
  5
14
330
0
100
AcDbSymbolTable
 70
    11
  0
APPID
  5
15
330
14
100
AcDbSymbolTableRecord
100
AcDbRegAppTableRecord
  2
ACAD
 70
     0
  0
APPID
  5
53
330
14
100
AcDbSymbolTableRecord
100
AcDbRegAppTableRecord
  2
TOP
 70
     0
  0
APPID
  5
356
330
14
100
AcDbSymbolTableRecord
100
AcDbRegAppTableRecord
  2
ACAD_MLEADERVER
 70
     0
  0
APPID
  5
35A
330
14
100
AcDbSymbolTableRecord
100
AcDbRegAppTableRecord
  2
ACAD_DSTYLE_DIMJAG
 70
     0
  0
APPID
  5
35B
330
14
100
AcDbSymbolTableRecord
100
AcDbRegAppTableRecord
  2
ACAD_DSTYLE_DIMTALN
 70
     0
  0
APPID
  5
35D
330
14
100
AcDbSymbolTableRecord
100
AcDbRegAppTableRecord
  2
AcadAnnoPO
 70
     0
  0
APPID
  5
374
330
14
100
AcDbSymbolTableRecord
100
AcDbRegAppTableRecord
  2
ACAD_EXEMPT_FROM_CAD_STANDARDS
 70
     0
  0
APPID
  5
38F
330
14
100
AcDbSymbolTableRecord
100
AcDbRegAppTableRecord
  2
ACAD_PSEXT
 70
     0
  0
APPID
  5
3BC
330
14
100
AcDbSymbolTableRecord
100
AcDbRegAppTableRecord
  2
ACAD_DSTYLE_DIMBREAK
 70
     0
  0
APPID
  5
6DC
330
14
100
AcDbSymbolTableRecord
100
AcDbRegAppTableRecord
  2
AcAecLayerStandard
 70
     0
  0
APPID
  5
F31
330
14
100
AcDbSymbolTableRecord
100
AcDbRegAppTableRecord
  2
ACAD_DSTYLE_DIMRADIAL_EXTENSION
 70
     0
  0
ENDTAB
  0
TABLE
  2
DIMSTYLE
  5
16
330
0
100
AcDbSymbolTable
 70
     4
100
AcDbDimStyleTable
 71
     1
340
1D
  0
DIMSTYLE
105
1D
330
16
100
AcDbSymbolTableRecord
100
AcDbDimStyleTableRecord
  2
ACADTOP
 70
     0
 40
10.0
 41
2.0
 42
1.0
 43
10.0
 44
1.5
 73
     0
 74
     0
 77
     1
 78
     8
 79
     2
140
2.0
141
2.0
146
0.6
147
1.0
172
     1
176
     2
177
     2
178
     1
179
     1
271
     2
272
     2
284
     8
289
     0
340
35C
1001
ACAD_DSTYLE_DIMJAG
1070
   388
1040
1.5
1001
ACAD_DSTYLE_DIMTALN
1070
   392
1070
     0
  0
DIMSTYLE
105
99F
330
16
100
AcDbSymbolTableRecord
100
AcDbDimStyleTableRecord
  2
STANDARD
 70
     0
340
C
  0
DIMSTYLE
105
1231
330
16
100
AcDbSymbolTableRecord
100
AcDbDimStyleTableRecord
  2
DIERRE_LUNG-ALT
 70
     0
 41
3.0
 42
1.0
 43
10.0
 44
1.5
 73
     0
 74
     0
 75
     1
 76
     1
 78
     8
 79
     2
140
20.0
141
2.0
146
0.6
147
1.0
172
     1
176
     3
177
     3
178
    30
179
     1
271
     1
272
     1
281
     1
282
     1
284
     8
340
1230
1001
ACAD_DSTYLE_DIMBREAK
1070
   391
1040
3.75
1001
ACAD_DSTYLE_DIMJAG
1070
   388
1040
1.5
1001
ACAD_DSTYLE_DIMTALN
1070
   392
1070
     0
  0
DIMSTYLE
105
1232
330
16
100
AcDbSymbolTableRecord
100
AcDbDimStyleTableRecord
  2
DIERRE_LARG
 70
     0
 41
3.0
 42
1.0
 43
10.0
 44
1.5
 73
     0
 74
     0
 75
     1
 76
     1
 78
     8
 79
     2
140
20.0
141
2.0
146
0.6
147
1.0
172
     1
176
     4
177
     4
178
     4
179
     1
271
     1
272
     1
281
     1
282
     1
284
     8
340
1230
1001
ACAD_DSTYLE_DIMBREAK
1070
   391
1040
3.75
1001
ACAD_DSTYLE_DIMJAG
1070
   388
1040
1.5
1001
ACAD_DSTYLE_DIMTALN
1070
   392
1070
     0
  0
ENDTAB
  0
TABLE
  2
BLOCK_RECORD
  5
1
330
0
100
AcDbSymbolTable
 70
     5
  0
BLOCK_RECORD
  5
2
330
1
100
AcDbSymbolTableRecord
100
AcDbBlockTableRecord
  2
*MODEL_SPACE
340
47
  0
BLOCK_RECORD
  5
7
330
1
100
AcDbSymbolTableRecord
100
AcDbBlockTableRecord
  2
*PAPER_SPACE
340
48
  0
BLOCK_RECORD
  5
FA6
330
1
100
AcDbSymbolTableRecord
100
AcDbBlockTableRecord
  2
TAB-A3
340
0
  0
BLOCK_RECORD
  5
113D
330
1
100
AcDbSymbolTableRecord
100
AcDbBlockTableRecord
  2
*D1
340
0
  0
BLOCK_RECORD
  5
1167
330
1
100
AcDbSymbolTableRecord
100
AcDbBlockTableRecord
  2
*D2
340
0
  0
BLOCK_RECORD
  5
11C9
330
1
100
AcDbSymbolTableRecord
100
AcDbBlockTableRecord
  2
*D3
340
0
  0
BLOCK_RECORD
  5
1299
330
1
100
AcDbSymbolTableRecord
100
AcDbBlockTableRecord
  2
*D4
340
0
  0
ENDTAB
  0
ENDSEC
  0
SECTION
  2
BLOCKS
  0
BLOCK
  5
3
330
2
100
AcDbEntity
  8
0
100
AcDbBlockBegin
  2
*MODEL_SPACE
 70
     0
 10
0.0
 20
0.0
 30
0.0
  3
*MODEL_SPACE
  1

  0
ENDBLK
  5
6
330
2
100
AcDbEntity
  8
0
100
AcDbBlockEnd
  0
BLOCK
  5
8
330
7
100
AcDbEntity
 67
     1
  8
0
100
AcDbBlockBegin
  2
*PAPER_SPACE
 70
     0
 10
0.0
 20
0.0
 30
0.0
  3
*PAPER_SPACE
  1

  0
ENDBLK
  5
9
330
7
100
AcDbEntity
 67
     1
  8
0
100
AcDbBlockEnd
  0
BLOCK
  5
10C2
330
FA6
100
AcDbEntity
  8
0
 62
     3
100
AcDbBlockBegin
  2
TAB-A3
 70
     2
 10
0.0
 20
0.0
 30
0.0
  3
TAB-A3
  1

  0
LINE
  5
FA7
330
FA6
100
AcDbEntity
  8
0
  6
Continuous
 62
     0
100
AcDbLine
 10
205.0
 20
143.5
 30
0.0
 11
-205.0
 21
143.5
 31
0.0
1001
TOP
1070
     7
  0
LINE
  5
FA8
330
FA6
100
AcDbEntity
  8
0
  6
Continuous
 62
     0
100
AcDbLine
 10
-205.0
 20
-143.5
 30
0.0
 11
205.0
 21
-143.5
 31
0.0
1001
TOP
1070
     7
  0
LINE
  5
FA9
330
FA6
100
AcDbEntity
  8
0
  6
Continuous
 62
     0
100
AcDbLine
 10
205.0
 20
-143.5
 30
0.0
 11
205.0
 21
143.5
 31
0.0
1001
TOP
1070
     7
  0
LINE
  5
FAA
330
FA6
100
AcDbEntity
  8
0
  6
Continuous
 62
     0
100
AcDbLine
 10
210.0
 20
148.5
 30
0.0
 11
-210.0
 21
148.5
 31
0.0
1001
TOP
1070
     3
  0
LINE
  5
FAB
330
FA6
100
AcDbEntity
  8
0
  6
Continuous
 62
     0
100
AcDbLine
 10
-210.0
 20
-148.5
 30
0.0
 11
210.0
 21
-148.5
 31
0.0
1001
TOP
1070
     3
  0
LINE
  5
FAC
330
FA6
100
AcDbEntity
  8
0
  6
Continuous
 62
     0
100
AcDbLine
 10
210.0
 20
-148.5
 30
0.0
 11
210.0
 21
148.5
 31
0.0
1001
TOP
1070
     3
  0
LINE
  5
FAD
330
FA6
100
AcDbEntity
  8
0
  6
Continuous
 62
     0
100
AcDbLine
 10
-210.0
 20
-148.5
 30
0.0
 11
-210.0
 21
148.5
 31
0.0
1001
TOP
1070
     3
  0
LINE
  5
FAE
330
FA6
100
AcDbEntity
  8
0
  6
Continuous
 62
     0
100
AcDbLine
 10
-205.0
 20
-143.5
 30
0.0
 11
-205.0
 21
143.5
 31
0.0
1001
TOP
1070
     7
  0
LINE
  5
FAF
330
FA6
100
AcDbEntity
  8
0
  6
Continuous
 62
     0
100
AcDbLine
 10
0.0
 20
-148.5
 30
0.0
 11
-0.0000000000000071
 21
-143.5
 31
0.0
1001
TOP
1070
     3
  0
LINE
  5
FB0
330
FA6
100
AcDbEntity
  8
0
  6
Continuous
 62
     0
100
AcDbLine
 10
-0.0000000000000071
 20
143.5
 30
0.0
 11
0.0
 21
148.5
 31
0.0
1001
TOP
1070
     3
  0
ATTDEF
  5
FB1
330
FA6
100
AcDbEntity
  8
0
 62
     0
 48
35.0
100
AcDbText
 10
28.74010102232296
 20
-84.74999999999999
 30
0.0
 40
2.5
  1

  7
Stile_Cart
 11
28.74010102232296
 21
-83.49999999999999
 31
0.0
100
AcDbAttributeDefinition
  3

  2
DESCRIZIONE
 70
     4
 74
     2
1001
TOP
1070
     7
  0
LINE
  5
FB2
330
FA6
100
AcDbEntity
  8
0
 62
     0
 48
35.0
100
AcDbLine
 10
205.0
 20
-138.5
 30
0.0
 11
5.0
 21
-138.5
 31
0.0
1001
TOP
1070
     3
  0
MTEXT
  5
FB3
330
FA6
100
AcDbEntity
  8
0
 62
     0
 48
35.0
100
AcDbMText
 10
105.0
 20
-141.0
 30
0.0
 40
1.499624999999999
 41
190.3973187722231
 71
     5
 72
     1
  1
{\C256;SI VIETA L'USO E LA RIPRODUZIONE O LA VISIONE A TERZI DEL PRESENTE DISEGNO SENZA ESPLICITA AUTORIZZAZIONE, \H1.333x;Dierre \H0.75x;TUTELERA' I PROPRI DIRITTI A NORMA DI LEGGE}
  7
Stile_Cart
 73
     1
 44
1.0
1001
TOP
1070
     3
1001
ACAD
1000
MTEXTBEGIN
1070
    73
1070
     1
1070
    44
1040
1.0
1070
    74
1070
     0
1000
MTEXTEND
  0
LINE
  5
FB4
330
FA6
100
AcDbEntity
  8
0
 62
     0
 48
35.0
100
AcDbLine
 10
5.0
 20
-78.5
 30
0.0
 11
205.0
 21
-78.49999999999988
 31
0.0
1001
TOP
1070
     3
  0
LINE
  5
FB5
330
FA6
100
AcDbEntity
  8
0
 62
     0
 48
35.0
100
AcDbLine
 10
140.0
 20
-78.5
 30
0.0
 11
140.0
 21
-138.5
 31
0.0
1001
TOP
1070
     3
  0
LINE
  5
FB6
330
FA6
100
AcDbEntity
  8
0
 62
     0
 48
35.0
100
AcDbLine
 10
5.0
 20
-130.5
 30
0.0
 11
140.0
 21
-130.5
 31
0.0
1001
TOP
1070
     1
  0
LINE
  5
FB7
330
FA6
100
AcDbEntity
  8
0
 62
     0
 48
35.0
100
AcDbLine
 10
5.0
 20
-108.5
 30
0.0
 11
140.0
 21
-108.5
 31
0.0
1001
TOP
1070
     1
  0
LINE
  5
FB8
330
FA6
100
AcDbEntity
  8
0
 62
     0
 48
35.0
100
AcDbLine
 10
38.75
 20
-130.5
 30
0.0
 11
38.75
 21
-138.5
 31
0.0
1001
TOP
1070
     7
  0
LINE
  5
FB9
330
FA6
100
AcDbEntity
  8
0
  6
Continuous
 62
     0
100
AcDbLine
 10
20.375
 20
-135.2853677388285
 30
0.0
 11
21.875
 21
-138.2853677388285
 31
0.0
1001
TOP
1070
     2
  0
LINE
  5
FBA
330
FA6
100
AcDbEntity
  8
0
  6
Continuous
 62
     0
100
AcDbLine
 10
62.81883755106941
 20
-138.3397943988076
 30
0.0
 11
65.8188375510694
 21
-132.3397943988076
 31
0.0
1001
TOP
1070
     2
  0
LINE
  5
FBB
330
FA6
100
AcDbEntity
  8
0
  6
Continuous
 62
     0
100
AcDbLine
 10
46.93116244893059
 20
-135.3397943988076
 30
0.0
 11
48.43116244893059
 21
-138.3397943988076
 31
0.0
1001
TOP
1070
     2
  0
LINE
  5
FBC
330
FA6
100
AcDbEntity
  8
0
  6
Continuous
 62
     0
100
AcDbLine
 10
21.875
 20
-138.2853677388285
 30
0.0
 11
24.875
 21
-132.2853677388285
 31
0.0
1001
TOP
1070
     2
  0
LINE
  5
FBD
330
FA6
100
AcDbEntity
  8
0
  6
Continuous
 62
     0
100
AcDbLine
 10
49.93116244893059
 20
-135.3397943988076
 30
0.0
 11
46.93116244893059
 21
-135.3397943988076
 31
0.0
1001
TOP
1070
     2
  0
LINE
  5
FBE
330
FA6
100
AcDbEntity
  8
0
  6
Continuous
 62
     0
100
AcDbLine
 10
48.43116244893059
 20
-138.3397943988076
 30
0.0
 11
49.93116244893059
 21
-135.3397943988076
 31
0.0
1001
TOP
1070
     2
  0
LINE
  5
FBF
330
FA6
100
AcDbEntity
  8
0
  6
Continuous
 62
     0
100
AcDbLine
 10
83.34407416882067
 20
-135.2999430320282
 30
0.0
 11
84.84407416882067
 21
-138.2999430320282
 31
0.0
1001
TOP
1070
     2
  0
CIRCLE
  5
FC0
330
FA6
100
AcDbEntity
  8
0
  6
Continuous
 62
     0
100
AcDbCircle
 10
21.875
 20
-136.1513931426129
 30
0.0
 40
0.8660254037843873
1001
TOP
1070
     2
  0
TEXT
  5
FC1
330
FA6
100
AcDbEntity
  8
0
 62
     0
 48
35.0
100
AcDbText
 10
78.25666370485942
 20
-102.25
 30
0.0
 40
1.6
  1
COD. CLIENTE:
  7
STYLE1
100
AcDbText
1001
TOP
1070
     1
  0
LINE
  5
FC2
330
FA6
100
AcDbEntity
  8
0
  6
Continuous
 62
     0
100
AcDbLine
 10
84.84407416882067
 20
-138.2999430320282
 30
0.0
 11
86.34407416882067
 21
-135.2999430320282
 31
0.0
1001
TOP
1070
     2
  0
LINE
  5
FC3
330
FA6
100
AcDbEntity
  8
0
  6
Continuous
 62
     0
100
AcDbLine
 10
86.34407416882067
 20
-135.2999430320282
 30
0.0
 11
83.34407416882067
 21
-135.2999430320282
 31
0.0
1001
TOP
1070
     2
  0
TEXT
  5
FC4
330
FA6
100
AcDbEntity
  8
0
 62
     0
 48
35.0
100
AcDbText
 10
78.25666370485942
 20
-107.25
 30
0.0
 40
1.6
  1
CC CLIENTE:
  7
STYLE1
100
AcDbText
1001
TOP
1070
     1
  0
LINE
  5
FC5
330
FA6
100
AcDbEntity
  8
0
  6
Continuous
 62
     0
100
AcDbLine
 10
83.34407416882067
 20
-135.2999430320282
 30
0.0
 11
81.84407416882066
 21
-138.2999430320282
 31
0.0
1001
TOP
1070
     2
  0
LINE
  5
FC6
330
FA6
100
AcDbEntity
  8
0
  6
Continuous
 62
     0
100
AcDbLine
 10
81.84407416882066
 20
-138.2999430320282
 30
0.0
 11
80.34407416882066
 21
-135.2999430320282
 31
0.0
1001
TOP
1070
     2
  0
LINE
  5
FC7
330
FA6
100
AcDbEntity
  8
0
  6
Continuous
 62
     0
100
AcDbLine
 10
80.34407416882066
 20
-135.2999430320282
 30
0.0
 11
83.34407416882067
 21
-135.2999430320282
 31
0.0
1001
TOP
1070
     2
  0
LINE
  5
FC8
330
FA6
100
AcDbEntity
  8
0
  6
Continuous
 62
     0
100
AcDbLine
 10
93.90592583117934
 20
-135.2999430320282
 30
0.0
 11
95.40592583117932
 21
-138.2999430320282
 31
0.0
1001
TOP
1070
     2
  0
LINE
  5
FC9
330
FA6
100
AcDbEntity
  8
0
  6
Continuous
 62
     0
100
AcDbLine
 10
95.40592583117932
 20
-138.2999430320282
 30
0.0
 11
98.40592583117933
 21
-132.2999430320282
 31
0.0
1001
TOP
1070
     2
  0
TEXT
  5
FCA
330
FA6
100
AcDbEntity
  8
0
  6
Continuous
 62
     0
100
AcDbText
 10
93.06706327193763
 20
-134.7999430320282
 30
0.0
 40
2.0
  1
1,6
  7
seansi_ttf
 11
93.06706327193763
 21
-132.7999430320282
 31
0.0
100
AcDbText
 73
     3
1001
TOP
1070
     2
  0
LINE
  5
FCB
330
FA6
100
AcDbEntity
  8
0
  6
Continuous
 62
     0
100
AcDbLine
 10
119.1863026710819
 20
-135.2559419652411
 30
0.0
 11
120.6863026710819
 21
-138.2559419652411
 31
0.0
1001
TOP
1070
     2
  0
LINE
  5
FCC
330
FA6
100
AcDbEntity
  8
0
  6
Continuous
 62
     0
100
AcDbLine
 10
120.6863026710819
 20
-138.2559419652411
 30
0.0
 11
122.1863026710819
 21
-135.2559419652411
 31
0.0
1001
TOP
1070
     2
  0
LINE
  5
FCD
330
FA6
100
AcDbEntity
  8
0
  6
Continuous
 62
     0
100
AcDbLine
 10
122.1863026710819
 20
-135.2559419652411
 30
0.0
 11
119.1863026710819
 21
-135.2559419652411
 31
0.0
1001
TOP
1070
     2
  0
LINE
  5
FCE
330
FA6
100
AcDbEntity
  8
0
  6
Continuous
 62
     0
100
AcDbLine
 10
119.1863026710819
 20
-135.2559419652411
 30
0.0
 11
117.6863026710819
 21
-138.2559419652411
 31
0.0
1001
TOP
1070
     2
  0
LINE
  5
FCF
330
FA6
100
AcDbEntity
  8
0
  6
Continuous
 62
     0
100
AcDbLine
 10
117.6863026710819
 20
-138.2559419652411
 30
0.0
 11
116.1863026710819
 21
-135.2559419652411
 31
0.0
1001
TOP
1070
     2
  0
LINE
  5
FD0
330
FA6
100
AcDbEntity
  8
0
  6
Continuous
 62
     0
100
AcDbLine
 10
116.1863026710819
 20
-135.2559419652411
 30
0.0
 11
119.1863026710819
 21
-135.2559419652411
 31
0.0
1001
TOP
1070
     2
  0
LINE
  5
FD1
330
FA6
100
AcDbEntity
  8
0
  6
Continuous
 62
     0
100
AcDbLine
 10
116.1863026710819
 20
-135.2559419652411
 30
0.0
 11
114.6863026710819
 21
-138.2559419652411
 31
0.0
1001
TOP
1070
     2
  0
LINE
  5
FD2
330
FA6
100
AcDbEntity
  8
0
  6
Continuous
 62
     0
100
AcDbLine
 10
114.6863026710819
 20
-138.2559419652411
 30
0.0
 11
113.1863026710819
 21
-135.2559419652411
 31
0.0
1001
TOP
1070
     2
  0
LINE
  5
FD3
330
FA6
100
AcDbEntity
  8
0
  6
Continuous
 62
     0
100
AcDbLine
 10
113.1863026710819
 20
-135.2559419652411
 30
0.0
 11
116.1863026710819
 21
-135.2559419652411
 31
0.0
1001
TOP
1070
     2
  0
LINE
  5
FD4
330
FA6
100
AcDbEntity
  8
0
  6
Continuous
 62
     0
100
AcDbLine
 10
127.0491049055133
 20
-135.2267571184318
 30
0.0
 11
128.5491049055133
 21
-138.2267571184318
 31
0.0
1001
TOP
1070
     2
  0
LINE
  5
FD5
330
FA6
100
AcDbEntity
  8
0
  6
Continuous
 62
     0
100
AcDbLine
 10
128.5491049055133
 20
-138.2267571184318
 30
0.0
 11
131.5491049055133
 21
-132.2267571184318
 31
0.0
1001
TOP
1070
     2
  0
TEXT
  5
FD6
330
FA6
100
AcDbEntity
  8
0
  6
Continuous
 62
     0
100
AcDbText
 10
126.2102423462716
 20
-134.7267571184318
 30
0.0
 40
2.0
  1
0,8
  7
seansi_ttf
 11
126.2102423462716
 21
-132.7267571184318
 31
0.0
100
AcDbText
 73
     3
1001
TOP
1070
     2
  0
LINE
  5
FD7
330
FA6
100
AcDbEntity
  8
0
 62
     0
 48
35.0
100
AcDbLine
 10
5.0
 20
-98.50000000000001
 30
0.0
 11
140.0
 21
-98.50000000000001
 31
0.0
1001
TOP
1070
     1
  0
LINE
  5
FD8
330
FA6
100
AcDbEntity
  8
0
 62
     0
 48
35.0
100
AcDbLine
 10
77.5
 20
-98.50000000000001
 30
0.0
 11
77.5
 21
-108.5
 31
0.0
1001
TOP
1070
     1
  0
TEXT
  5
FD9
330
FA6
100
AcDbEntity
  8
0
 62
     0
 48
35.0
100
AcDbText
 10
5.75666370485942
 20
-84.74999999999999
 30
0.0
 40
1.6
  1
DENOMINAZIONE:
  7
STYLE1
100
AcDbText
1001
TOP
1070
     1
  0
TEXT
  5
FDA
330
FA6
100
AcDbEntity
  8
0
 62
     0
 48
35.0
100
AcDbText
 10
5.75666370485942
 20
-105.5
 30
0.0
 40
1.6
  1
CLIENTE:
  7
STYLE1
100
AcDbText
1001
TOP
1070
     1
  0
LINE
  5
FDB
330
FA6
100
AcDbEntity
  8
0
 62
     0
 48
35.0
100
AcDbLine
 10
77.5
 20
-103.5
 30
0.0
 11
140.0000000000009
 21
-103.5
 31
0.0
1001
TOP
1070
     1
  0
LINE
  5
FDC
330
FA6
100
AcDbEntity
  8
0
 62
     0
 48
35.0
100
AcDbLine
 10
140.0
 20
-93.49999999999988
 30
0.0
 11
205.0
 21
-93.49999999999988
 31
0.0
1001
TOP
1070
     7
  0
LINE
  5
FDD
330
FA6
100
AcDbEntity
  8
0
 62
     0
 48
35.0
100
AcDbLine
 10
140.0
 20
-85.99999999999988
 30
0.0
 11
205.0
 21
-85.99999999999988
 31
0.0
1001
TOP
1070
     7
  0
LINE
  5
FDE
330
FA6
100
AcDbEntity
  8
0
 62
     0
 48
35.0
100
AcDbLine
 10
140.0
 20
-100.9999999999999
 30
0.0
 11
205.0
 21
-100.9999999999999
 31
0.0
1001
TOP
1070
     7
  0
TEXT
  5
FDF
330
FA6
100
AcDbEntity
  8
0
 62
     0
 48
35.0
100
AcDbText
 10
140.7566637048594
 20
-90.74999999999988
 30
0.0
 40
1.6
  1
Diseg.:        
  7
STYLE1
100
AcDbText
1001
TOP
1070
     1
  0
TEXT
  5
FE0
330
FA6
100
AcDbEntity
  8
0
 62
     0
 48
35.0
100
AcDbText
 10
140.7566637048594
 20
-83.99999999999989
 30
0.0
 40
1.6
  1
Data:
  7
STYLE1
100
AcDbText
1001
TOP
1070
     1
  0
TEXT
  5
FE1
330
FA6
100
AcDbEntity
  8
0
 62
     0
 48
35.0
100
AcDbText
 10
140.7566637048594
 20
-98.49999999999988
 30
0.0
 40
1.6
  1
Rifer. ordine:
  7
STYLE1
100
AcDbText
1001
TOP
1070
     1
  0
LINE
  5
FE2
330
FA6
100
AcDbEntity
  8
0
 62
     0
 48
35.0
100
AcDbLine
 10
177.0
 20
-78.49999999999988
 30
0.0
 11
177.0
 21
-93.49999999999999
 31
0.0
  0
TEXT
  5
FE3
330
FA6
100
AcDbEntity
  8
0
 62
     0
 48
35.0
100
AcDbText
 10
177.7566637048594
 20
-83.99999999999989
 30
0.0
 40
1.6
  1
Scala:
  7
STYLE1
100
AcDbText
1001
TOP
1070
     1
  0
TEXT
  5
FE4
330
FA6
100
AcDbEntity
  8
0
 62
     0
 48
35.0
100
AcDbText
 10
140.8581923512756
 20
-110.1249999999999
 30
0.0
 40
1.76
  1
Codice N
  7
STYLE1
100
AcDbText
1001
TOP
1070
     1
  0
TEXT
  5
FE5
330
FA6
100
AcDbEntity
  8
0
 62
     0
 48
35.0
100
AcDbText
 10
177.7566637048594
 20
-91.49999999999989
 30
0.0
 40
1.6
  1
Q.ta:
  7
STYLE1
100
AcDbText
1001
TOP
1070
     1
  0
LINE
  5
FE6
330
FA6
100
AcDbEntity
  8
0
 62
     0
 48
35.0
100
AcDbLine
 10
140.0
 20
-114.7499999999999
 30
0.0
 11
205.0
 21
-114.7499999999999
 31
0.0
1001
TOP
1070
     7
  0
LINE
  5
FE7
330
FA6
100
AcDbEntity
  8
0
 62
     0
 48
35.0
100
AcDbLine
 10
140.0
 20
-124.7499999999999
 30
0.0
 11
205.0
 21
-124.7499999999999
 31
0.0
1001
TOP
1070
     7
  0
LINE
  5
FE8
330
FA6
100
AcDbEntity
  8
0
 62
     0
 48
35.0
100
AcDbLine
 10
140.0
 20
-130.5
 30
0.0
 11
205.0
 21
-130.5
 31
0.0
1001
TOP
1070
     7
  0
CIRCLE
  5
FE9
330
FA6
100
AcDbEntity
  8
0
  6
Continuous
 62
     0
100
AcDbCircle
 10
199.1449550471707
 20
-134.5409172698267
 30
0.0
 40
3.0
1001
TOP
1070
     2
  0
LINE
  5
FEA
330
FA6
100
AcDbEntity
  8
0
  6
DASHDOT2
 62
     0
100
AcDbLine
 10
199.1449550471707
 20
-131.5409172698267
 30
0.0
 11
199.1449550471707
 21
-137.5409172698267
 31
0.0
1001
TOP
1070
     2
  0
CIRCLE
  5
FEB
330
FA6
100
AcDbEntity
  8
0
  6
Continuous
 62
     0
100
AcDbCircle
 10
199.1449550471707
 20
-134.5409172698267
 30
0.0
 40
1.5
1001
TOP
1070
     2
  0
LINE
  5
FEC
330
FA6
100
AcDbEntity
  8
0
  6
DASHDOT2
 62
     0
100
AcDbLine
 10
186.3571688111378
 20
-134.5409172698267
 30
0.0
 11
202.1449550471707
 21
-134.5409172698267
 31
0.0
1001
TOP
1070
     2
  0
LINE
  5
FED
330
FA6
100
AcDbEntity
  8
0
  6
Continuous
 62
     0
100
AcDbLine
 10
193.5117378886862
 20
-131.5409172698267
 30
0.0
 11
193.5117378886862
 21
-137.8298833532369
 31
0.0
1001
TOP
1070
     2
  0
LINE
  5
FEE
330
FA6
100
AcDbEntity
  8
0
  6
Continuous
 62
     0
100
AcDbLine
 10
186.3571688111378
 20
-133.0409172698267
 30
0.0
 11
186.3571688111378
 21
-136.0409172698267
 31
0.0
1001
TOP
1070
     2
  0
TEXT
  5
FEF
330
FA6
100
AcDbEntity
  8
0
  6
Continuous
 62
     0
100
AcDbText
 10
141.7015961023471
 20
-133.4356811538553
 30
0.0
 40
1.5
  1
Negli spigoli non quotati smussi 0,5 x 45°
  7
Stile_Cart
100
AcDbText
1001
TOP
1070
     7
  0
LINE
  5
FF0
330
FA6
100
AcDbEntity
  8
0
  6
Continuous
 62
     0
100
AcDbLine
 10
186.3571688111378
 20
-136.0409172698267
 30
0.0
 11
193.5117378886862
 21
-137.8298833532369
 31
0.0
1001
TOP
1070
     2
  0
TEXT
  5
FF1
330
FA6
100
AcDbEntity
  8
0
  6
Continuous
 62
     0
100
AcDbText
 10
141.6572557995353
 20
-127.6856811538551
 30
0.0
 40
1.5
  1
Le QUOTE senza tolleranze si intendono h 11 / H 11
  7
Stile_Cart
100
AcDbText
1001
TOP
1070
     7
  0
TEXT
  5
FF2
330
FA6
100
AcDbEntity
  8
0
  6
Continuous
 62
     0
100
AcDbText
 10
141.5631678399102
 20
-136.7809056532263
 30
0.0
 40
1.5
  1
Smussi e raggi non quotati = 1 mm
  7
Stile_Cart
100
AcDbText
1001
TOP
1070
     7
  0
LINE
  5
FF3
330
FA6
100
AcDbEntity
  8
0
  6
Continuous
 62
     0
100
AcDbLine
 10
193.5117378886862
 20
-131.5409172698267
 30
0.0
 11
186.3571688111378
 21
-133.0409172698267
 31
0.0
1001
TOP
1070
     2
  0
LINE
  5
FF4
330
FA6
100
AcDbEntity
  8
0
 62
     0
 48
35.0
100
AcDbLine
 10
183.5
 20
-138.5
 30
0.0
 11
183.5
 21
-130.5
 31
0.0
  0
MTEXT
  5
FF5
330
FA6
100
AcDbEntity
  8
0
 62
     0
 48
35.0
100
AcDbMText
 10
141.7015961023471
 20
-116.147829675845
 30
0.0
 40
2.0
 41
187.0802
 71
     1
 72
     5
  1
{\C256;LE TOLLERANZE SI INTENDONO SU PEZZO\PFINITO COMPLETO DI ZINCATURA}
  7
Stile_Cart
 73
     1
 44
1.0
1001
TOP
1070
     3
1001
ACAD
1000
MTEXTBEGIN
1070
    73
1070
     1
1070
    44
1040
1.0
1070
    74
1070
     0
1000
MTEXTEND
  0
LINE
  5
FF6
330
FA6
100
AcDbEntity
  8
0
 62
     0
100
AcDbLine
 10
5.0
 20
-71.0
 30
0.0
 11
204.9999999999991
 21
-71.00000000000012
 31
0.0
1001
TOP
1070
     3
  0
LINE
  5
FF7
330
FA6
100
AcDbEntity
  8
0
 62
     0
100
AcDbLine
 10
5.0
 20
-67.0
 30
0.0
 11
204.9999999999991
 21
-67.0
 31
0.0
1001
TOP
1070
     3
  0
LINE
  5
FF8
330
FA6
100
AcDbEntity
  8
0
 62
     0
100
AcDbLine
 10
5.0
 20
-62.0
 30
0.0
 11
204.9999999999991
 21
-61.99999999999988
 31
0.0
1001
TOP
1070
     3
  0
LINE
  5
FF9
330
FA6
100
AcDbEntity
  8
0
 62
     0
 48
35.0
100
AcDbLine
 10
20.0
 20
-62.0
 30
0.0
 11
20.0
 21
-78.5
 31
0.0
1001
TOP
1070
     1
  0
TEXT
  5
FFA
330
FA6
100
AcDbEntity
  8
0
 62
     0
 48
35.0
100
AcDbText
 10
5.75666370485851
 20
-76.0
 30
0.0
 40
1.6
  1
POS.
  7
STYLE1
100
AcDbText
1001
TOP
1070
     1
  0
TEXT
  5
FFB
330
FA6
100
AcDbEntity
  8
0
 62
     0
 48
35.0
100
AcDbText
 10
20.7566637048576
 20
-76.0
 30
0.0
 40
1.6
  1
MATERIALE:
  7
STYLE1
100
AcDbText
1001
TOP
1070
     1
  0
LINE
  5
FFC
330
FA6
100
AcDbEntity
  8
0
 62
     0
 48
35.0
100
AcDbLine
 10
119.9999999999991
 20
-71.00000000000022
 30
0.0
 11
120.0
 21
-78.5
 31
0.0
1001
TOP
1070
     1
  0
TEXT
  5
FFD
330
FA6
100
AcDbEntity
  8
0
 62
     0
 48
35.0
100
AcDbText
 10
120.7566637048567
 20
-76.0
 30
0.0
 40
1.6
  1
TRATTAMENTI:
  7
STYLE1
100
AcDbText
1001
TOP
1070
     1
  0
TEXT
  5
FFE
330
FA6
100
AcDbEntity
  8
0
 62
     0
 48
35.0
100
AcDbText
 10
10.05702163057413
 20
-69.79763860700177
 30
0.0
 40
1.6
  1
Rev.
  7
STYLE1
100
AcDbText
1001
TOP
1070
     1
  0
LINE
  5
FFF
330
FA6
100
AcDbEntity
  8
0
 62
     0
 48
35.0
100
AcDbLine
 10
185.0
 20
-61.9999999999999
 30
0.0
 11
185.0000000000009
 21
-71.00000000000012
 31
0.0
1001
TOP
1070
     1
  0
LINE
  5
1000
330
FA6
100
AcDbEntity
  8
0
 62
     0
 48
35.0
100
AcDbLine
 10
170.0000000000003
 20
-61.99999999999992
 30
0.0
 11
170.0000000000009
 21
-71.00000000000114
 31
0.0
1001
TOP
1070
     1
  0
TEXT
  5
1001
330
FA6
100
AcDbEntity
  8
0
 62
     0
 48
35.0
100
AcDbText
 10
175.057021630575
 20
-69.79763860700177
 30
0.0
 40
1.6
  1
Data
  7
STYLE1
100
AcDbText
1001
TOP
1070
     1
  0
TEXT
  5
1002
330
FA6
100
AcDbEntity
  8
0
 62
     0
 48
35.0
100
AcDbText
 10
192.7924043056964
 20
-69.79763860700177
 30
0.0
 40
1.6
  1
Diseg.
  7
STYLE1
100
AcDbText
1001
TOP
1070
     1
  0
LINE
  5
1003
330
FA6
100
AcDbEntity
  8
0
  6
Continuous
 62
     0
100
AcDbLine
 10
61.3188375510694
 20
-135.3397943988076
 30
0.0
 11
62.81883755106941
 21
-138.3397943988076
 31
0.0
1001
TOP
1070
     2
  0
LINE
  5
1004
330
FA6
100
AcDbEntity
  8
0
 62
     0
 48
35.0
100
AcDbLine
 10
72.5
 20
-130.5
 30
0.0
 11
72.5
 21
-138.5
 31
0.0
1001
TOP
1070
     7
  0
LINE
  5
1005
330
FA6
100
AcDbEntity
  8
0
 62
     0
 48
35.0
100
AcDbLine
 10
106.25
 20
-130.5
 30
0.0
 11
106.25
 21
-138.5
 31
0.0
1001
TOP
1070
     7
  0
TEXT
  5
1006
330
FA6
100
AcDbEntity
  8
0
  6
Continuous
 62
     0
100
AcDbText
 10
60.4799749918277
 20
-134.8397943988076
 30
0.0
 40
2.0
  1
6,3
  7
seansi_ttf
 11
60.4799749918277
 21
-132.8397943988076
 31
0.0
100
AcDbText
 73
     3
1001
TOP
1070
     2
  0
ATTDEF
  5
1007
330
FA6
100
AcDbEntity
  8
0
 62
     0
 48
35.0
100
AcDbText
 10
28.74010102232296
 20
-89.74999999999999
 30
0.0
 40
2.5
  1

  7
Stile_Cart
 11
28.74010102232296
 21
-88.49999999999999
 31
0.0
100
AcDbAttributeDefinition
  3

  2
DESCRIZIONE2
 70
     4
 74
     2
1001
TOP
1070
     7
  0
ATTDEF
  5
1008
330
FA6
100
AcDbEntity
  8
0
 62
     0
 48
35.0
100
AcDbText
 10
28.74010102232296
 20
-94.74999999999999
 30
0.0
 40
2.5
  1

  7
Stile_Cart
 11
28.74010102232296
 21
-93.49999999999999
 31
0.0
100
AcDbAttributeDefinition
  3

  2
DESCRIZIONE3
 70
     4
 74
     2
1001
TOP
1070
     7
  0
ATTDEF
  5
1009
330
FA6
100
AcDbEntity
  8
0
 62
     0
 48
35.0
100
AcDbText
 10
147.7682984236189
 20
-83.99999999999989
 30
0.0
 40
3.5
  1

  7
Stile_Cart
 11
147.7682984236189
 21
-82.2499999999999
 31
0.0
100
AcDbAttributeDefinition
  3

  2
DATA
 70
     4
 74
     2
1001
TOP
1070
     7
  0
ATTDEF
  5
100A
330
FA6
100
AcDbEntity
  8
0
 62
     0
 48
35.0
100
AcDbText
 10
184.1532157512365
 20
-83.99999999999989
 30
0.0
 40
3.5
  1

  7
Stile_Cart
 11
184.1532157512365
 21
-82.24999999999988
 31
0.0
100
AcDbAttributeDefinition
  3

  2
SCALA
 70
     4
 74
     2
1001
TOP
1070
     7
  0
ATTDEF
  5
100B
330
FA6
100
AcDbEntity
  8
0
 62
     0
 48
35.0
100
AcDbText
 10
184.1532157512365
 20
-91.49999999999989
 30
0.0
 40
3.5
  1

  7
Stile_Cart
 11
184.1532157512365
 21
-89.74999999999988
 31
0.0
100
AcDbAttributeDefinition
  3

  2
QTA
 70
     4
 74
     2
1001
TOP
1070
     7
  0
ATTDEF
  5
100C
330
FA6
100
AcDbEntity
  8
0
 62
     0
 48
35.0
100
AcDbText
 10
147.7682984236189
 20
-90.74999999999988
 30
0.0
 40
2.0
  1

  7
Stile_Cart
 11
147.7682984236189
 21
-89.74999999999988
 31
0.0
100
AcDbAttributeDefinition
  3

  2
DISEGNATORE
 70
     4
 74
     2
1001
TOP
1070
     7
  0
ATTDEF
  5
100D
330
FA6
100
AcDbEntity
  8
0
 62
     0
 48
35.0
100
AcDbText
 10
156.6477659240454
 20
-98.49999999999988
 30
0.0
 40
2.5
  1

  7
Stile_Cart
 11
156.6477659240454
 21
-97.24999999999988
 31
0.0
100
AcDbAttributeDefinition
  3

  2
RIF_ORDINE
 70
     4
 74
     2
1001
TOP
1070
     7
  0
ATTDEF
  5
100E
330
FA6
100
AcDbEntity
  8
0
 62
     0
 48
35.0
100
AcDbText
 10
155.290076571523
 20
-110.1249999999999
 30
0.0
 40
4.5
  1

  7
Stile_Cart
 11
155.290076571523
 21
-107.8749999999999
 31
0.0
100
AcDbAttributeDefinition
  3

  2
CODICE
 70
     4
 74
     2
1001
TOP
1070
     7
  0
ATTDEF
  5
100F
330
FA6
100
AcDbEntity
  8
0
 62
     0
 48
35.0
100
AcDbText
 10
94.8016206352022
 20
-102.25
 30
0.0
 40
2.5
  1

  7
Stile_Cart
 11
94.8016206352022
 21
-101.0
 31
0.0
100
AcDbAttributeDefinition
  3

  2
COD_CLIENTE
 70
     4
 74
     2
1001
TOP
1070
     7
  0
ATTDEF
  5
1010
330
FA6
100
AcDbEntity
  8
0
 62
     0
 48
35.0
100
AcDbText
 10
94.81214291417655
 20
-107.25
 30
0.0
 40
2.5
  1

  7
Stile_Cart
 11
94.81214291417655
 21
-106.0
 31
0.0
100
AcDbAttributeDefinition
  3

  2
COMMESSA
 70
     4
 74
     2
1001
TOP
1070
     7
  0
ATTDEF
  5
1011
330
FA6
100
AcDbEntity
  8
0
 62
     0
 48
35.0
100
AcDbText
 10
17.76035154006968
 20
-105.5
 30
0.0
 40
4.0
  1

  7
Stile_Cart
 11
17.76035154006968
 21
-103.5
 31
0.0
100
AcDbAttributeDefinition
  3

  2
CLIENTE
 70
     4
 74
     2
1001
TOP
1070
     7
  0
ATTDEF
  5
1012
330
FA6
100
AcDbEntity
  8
0
 62
     0
 48
35.0
100
AcDbText
 10
37.04547401447201
 20
-76.0
 30
0.0
 40
2.5
  1

  7
Stile_Cart
 11
37.04547401447201
 21
-74.75
 31
0.0
100
AcDbAttributeDefinition
  3

  2
MATERIALE
 70
     4
 74
     2
1001
TOP
1070
     7
  0
ATTDEF
  5
1013
330
FA6
100
AcDbEntity
  8
0
 62
     0
 48
35.0
100
AcDbText
 10
140.5628059283587
 20
-76.0
 30
0.0
 40
2.5
  1

  7
Stile_Cart
 11
140.5628059283587
 21
-74.75
 31
0.0
100
AcDbAttributeDefinition
  3

  2
TRATTAMENTI
 70
     4
 74
     2
1001
TOP
1070
     7
  0
ATTDEF
  5
1014
330
FA6
100
AcDbEntity
  8
0
 62
     0
 48
35.0
100
AcDbText
 10
15.03077917957932
 20
-76.0
 30
0.0
 40
2.5
  1

  7
Stile_Cart
 72
     1
 11
15.03077917957932
 21
-74.75
 31
0.0
100
AcDbAttributeDefinition
  3

  2
POS.
 70
     4
 74
     2
1001
TOP
1070
     7
  0
ATTDEF
  5
1015
330
FA6
100
AcDbEntity
  8
0
 62
     0
 48
35.0
100
AcDbText
 10
12.5
 20
-65.75
 30
0.0
 40
2.5
  1

  7
Stile_Cart
 72
     1
 11
12.5
 21
-64.5
 31
0.0
100
AcDbAttributeDefinition
  3

  2
REV
 70
     4
 74
     2
1001
TOP
1070
     7
  0
ATTDEF
  5
1016
330
FA6
100
AcDbEntity
  8
0
 62
     0
 48
35.0
100
AcDbText
 10
22.0
 20
-65.75
 30
0.0
 40
2.5
  1

  7
Stile_Cart
 11
22.0
 21
-64.5
 31
0.0
100
AcDbAttributeDefinition
  3

  2
MOD_REV
 70
     4
 74
     2
1001
TOP
1070
     7
  0
ATTDEF
  5
1017
330
FA6
100
AcDbEntity
  8
0
 62
     0
 48
35.0
100
AcDbText
 10
177.5000000000003
 20
-65.74999999999994
 30
0.0
 40
2.5
  1

  7
Stile_Cart
 72
     1
 11
177.5000000000003
 21
-64.49999999999994
 31
0.0
100
AcDbAttributeDefinition
  3

  2
DATA_REV
 70
     4
 74
     2
1001
TOP
1070
     7
  0
ATTDEF
  5
1018
330
FA6
100
AcDbEntity
  8
0
 62
     0
 48
35.0
100
AcDbText
 10
194.9602314460564
 20
-65.49999999999994
 30
0.0
 40
2.0
  1

 41
0.8
  7
Stile_Cart
 72
     1
 11
194.9602314460564
 21
-64.49999999999994
 31
0.0
100
AcDbAttributeDefinition
  3

  2
DISEGN_REV
 70
     4
 74
     2
1001
TOP
1070
     7
  0
LINE
  5
1019
330
FA6
100
AcDbEntity
  8
0
  6
Continuous
 62
     0
100
AcDbLine
 10
5.0
 20
-62.0
 30
0.0
 11
5.0
 21
-143.5
 31
0.0
1001
TOP
1070
     3
  0
TEXT
  5
101A
330
FA6
100
AcDbEntity
  8
P-0000
  6
Continuous
 62
     0
 48
35.0
100
AcDbText
 10
58.71864832338975
 20
-113.3527525052883
 30
0.0
 40
1.846799999999999
  1
Sedi operative: Fiorano Circ.le S. Giovanni Ev.,23   41042 Spezzano (MO)
  7
STYLE1
100
AcDbText
1001
TOP
1070
     7
  0
TEXT
  5
101B
330
FA6
100
AcDbEntity
  8
P-0000
  6
Continuous
 62
     0
 48
35.0
100
AcDbText
 10
98.65908137351675
 20
-117.0692022869476
 30
0.0
 40
1.846799999999999
  1
Tel. 0536 921322  Fax 0536 921218
  7
STYLE1
100
AcDbText
1001
TOP
1070
     7
  0
TEXT
  5
101C
330
FA6
100
AcDbEntity
  8
P-0000
  6
Continuous
 62
     0
 48
35.0
100
AcDbText
 10
75.24509204959509
 20
-120.7856520686069
 30
0.0
 40
1.846799999999999
  1
Bologna Via Del Selciatore, 12   40127 (BO) 
  7
STYLE1
100
AcDbText
1001
TOP
1070
     7
  0
TEXT
  5
101D
330
FA6
100
AcDbEntity
  8
P-0000
  6
Continuous
 62
     0
 48
35.0
100
AcDbText
 10
101.2297752414451
 20
-124.5021018502664
 30
0.0
 40
1.846799999999999
  1
Tel. 051 535318  Fax 051 531297
  7
STYLE1
100
AcDbText
1001
TOP
1070
     7
  0
TEXT
  5
101E
330
FA6
100
AcDbEntity
  8
P-0000
  6
Continuous
 62
     0
 48
35.0
100
AcDbText
 10
75.24546965484001
 20
-128.1147363829751
 30
0.0
 40
1.5
  1
www.dierremacap.com . tecnico@dierreprotezioni.com  
  7
STYLE1
100
AcDbText
1001
TOP
1070
     7
  0
ARC
  5
101F
330
FA6
100
AcDbEntity
  8
P-0000
  6
Continuous
 62
     0
370
     0
100
AcDbCircle
 10
17.44412459906672
 20
-119.8343908033039
 30
0.0
 40
7.264056604142308
100
AcDbArc
 50
54.62314853322836
 51
125.3768514667716
1001
TOP
1070
    85
  0
ARC
  5
1020
330
FA6
100
AcDbEntity
  8
P-0000
  6
Continuous
 62
     0
370
     0
100
AcDbCircle
 10
16.62227853183705
 20
-119.8661633216503
 30
0.0
 40
7.793069759999999
100
AcDbArc
 50
49.82610094250764
 51
223.4287517252227
1001
TOP
1070
    85
  0
ARC
  5
1021
330
FA6
100
AcDbEntity
  8
P-0000
  6
Continuous
 62
     0
370
     0
100
AcDbCircle
 10
17.22616137325187
 20
-119.1102130429075
 30
0.0
 40
4.056769053873
100
AcDbArc
 50
51.09712919102808
 51
223.6094645412326
1001
TOP
1070
    85
  0
ARC
  5
1022
330
FA6
100
AcDbEntity
  8
P-0000
  6
Continuous
 62
     0
370
     0
100
AcDbCircle
 10
16.57733836623376
 20
-119.4851385567151
 30
0.0
 40
4.763630338834137
100
AcDbArc
 50
47.85430720588695
 51
226.8522865263433
1001
TOP
1070
    85
  0
ARC
  5
1023
330
FA6
100
AcDbEntity
  8
P-0000
  6
Continuous
 62
     0
370
     0
100
AcDbCircle
 10
16.17002821100252
 20
-120.0817487520743
 30
0.0
 40
4.056769053873
100
AcDbArc
 50
231.0971291910286
 51
43.60946454123257
1001
TOP
1070
    85
  0
ARC
  5
1024
330
FA6
100
AcDbEntity
  8
P-0000
  6
Continuous
 62
     0
370
     0
100
AcDbCircle
 10
16.81885121802244
 20
-119.7068232382669
 30
0.0
 40
4.763630338834137
100
AcDbArc
 50
227.8543072058867
 51
46.85228652634269
1001
TOP
1070
    85
  0
ARC
  5
1025
330
FA6
100
AcDbEntity
  8
P-0000
  6
Continuous
 62
     0
370
     0
100
AcDbCircle
 10
16.62227853183705
 20
-119.8661633216503
 30
0.0
 40
7.793069759999999
100
AcDbArc
 50
230.1466606584018
 51
45.36258570986113
1001
TOP
1070
    85
  0
ARC
  5
1026
330
FA6
100
AcDbEntity
  8
P-0000
  6
Continuous
 62
     0
370
     0
100
AcDbCircle
 10
15.47406206409434
 20
-119.7374591014474
 30
0.0
 40
7.220700683144739
100
AcDbArc
 50
237.8184274609863
 51
321.1976420062348
1001
TOP
1070
    85
  0
ARC
  5
1027
330
FA6
100
AcDbEntity
  8
P-0000
  6
Continuous
 62
     0
370
     0
100
AcDbCircle
 10
16.49783519669401
 20
-119.1656258049447
 30
0.0
 40
5.663278842528495
100
AcDbArc
 50
171.3036725542784
 51
228.0269063594487
1001
TOP
1070
    85
  0
LINE
  5
1028
330
FA6
100
AcDbEntity
  8
P-0000
  6
Continuous
 62
     0
370
     0
100
AcDbLine
 10
12.71033880342222
 20
-123.3760412617837
 30
0.0
 11
10.96271911221012
 21
-125.2235249353502
 31
0.0
1001
TOP
1070
    85
  0
LINE
  5
1029
330
FA6
100
AcDbEntity
  8
P-0000
  6
Continuous
 62
     0
370
     0
100
AcDbLine
 10
14.28882554895264
 20
-121.9083255159412
 30
0.0
 11
13.31957930169594
 21
-122.9606500129607
 31
0.0
1001
TOP
1070
    85
  0
ARC
  5
102A
330
FA6
100
AcDbEntity
  8
P-0000
  6
Continuous
 62
     0
370
     0
100
AcDbCircle
 10
16.45690671951999
 20
-118.4440510223681
 30
0.0
 40
5.558875133404746
100
AcDbArc
 50
125.3768514667716
 51
178.611514748478
1001
TOP
1070
    85
  0
LINE
  5
102B
330
FA6
100
AcDbEntity
  8
P-0000
  6
Continuous
 62
     0
370
     0
100
AcDbLine
 10
51.34561986762887
 20
-115.6426918998433
 30
0.0
 11
52.48697619624445
 21
-115.6426918998433
 31
0.0
1001
TOP
1070
     7
  0
ARC
  5
102C
330
FA6
100
AcDbEntity
  8
P-0000
  6
Continuous
 62
     0
370
     0
100
AcDbCircle
 10
50.16215002765402
 20
-114.9033114623533
 30
0.0
 40
2.439569664000001
100
AcDbArc
 50
354.0835439993975
 51
342.3574175336751
1001
TOP
1070
     7
  0
LINE
  5
102D
330
FA6
100
AcDbEntity
  8
P-0000
  6
Continuous
 62
     0
370
     0
100
AcDbLine
 10
48.746848330698
 20
-115.1547779670432
 30
0.0
 11
52.60170813361193
 21
-115.1547779670432
 31
0.0
1001
TOP
1070
     7
  0
ARC
  5
102E
330
FA6
100
AcDbEntity
  8
P-0000
  6
Continuous
 62
     0
370
     0
100
AcDbCircle
 10
37.8667189210941
 20
-114.9033114623533
 30
0.0
 40
2.439569664000001
100
AcDbArc
 50
354.0835439993975
 51
342.3574175336751
1001
TOP
1070
     7
  0
LINE
  5
102F
330
FA6
100
AcDbEntity
  8
P-0000
  6
Continuous
 62
     0
370
     0
100
AcDbLine
 10
27.4976504081958
 20
-117.3428811263533
 30
0.0
 11
30.42513400499494
 21
-117.3428811263533
 31
0.0
1001
TOP
1070
     7
  0
LINE
  5
1030
330
FA6
100
AcDbEntity
  8
P-0000
  6
Continuous
 62
     0
370
     0
100
AcDbLine
 10
30.42513400499494
 20
-110.9999999999532
 30
0.0
 11
27.4976504081958
 21
-110.9999999999532
 31
0.0
1001
TOP
1070
     7
  0
LINE
  5
1031
330
FA6
100
AcDbEntity
  8
P-0000
  6
Continuous
 62
     0
370
     0
100
AcDbLine
 10
22.09782851449584
 20
-114.320869039862
 30
0.0
 11
20.5196942813029
 21
-115.9543842828061
 31
0.0
1001
TOP
1070
    85
  0
ARC
  5
1032
330
FA6
100
AcDbEntity
  8
P-0000
  6
Continuous
 62
     0
370
     0
100
AcDbCircle
 10
15.9727702478842
 20
-120.4469356245717
 30
0.0
 40
6.391989965892938
100
AcDbArc
 50
323.352977406186
 51
44.65536847523573
1001
TOP
1070
    85
  0
LINE
  5
1033
330
FA6
100
AcDbEntity
  8
P-0000
  6
Continuous
 62
     0
370
     0
100
AcDbLine
 10
19.10736403530447
 20
-117.283636279041
 30
0.0
 11
20.07661028255846
 21
-116.2313117820216
 31
0.0
1001
TOP
1070
    85
  0
LINE
  5
1034
330
FA6
100
AcDbEntity
  8
P-0000
  6
Continuous
 62
     0
370
     0
100
AcDbLine
 10
27.4976504081958
 20
-110.9999999999532
 30
0.0
 11
27.4976504081958
 21
-117.3428811263533
 31
0.0
1001
TOP
1070
     7
  0
ARC
  5
1035
330
FA6
100
AcDbEntity
  8
P-0000
  6
Continuous
 62
     0
370
     0
100
AcDbCircle
 10
30.18117703859566
 20
-113.6835266303536
 30
0.0
 40
1.5857202816
100
AcDbArc
 50
0.0
 51
90.0
1001
TOP
1070
     7
  0
ARC
  5
1036
330
FA6
100
AcDbEntity
  8
P-0000
  6
Continuous
 62
     0
370
     0
100
AcDbCircle
 10
30.18117703859566
 20
-114.6593544959532
 30
0.0
 40
1.5857202816
100
AcDbArc
 50
270.0
 51
0.0
1001
TOP
1070
     7
  0
ARC
  5
1037
330
FA6
100
AcDbEntity
  8
P-0000
  6
Continuous
 62
     0
370
     0
100
AcDbCircle
 10
30.42513400499494
 20
-114.9033114623533
 30
0.0
 40
2.439569663999999
100
AcDbArc
 50
270.0
 51
0.0
1001
TOP
1070
     7
  0
ARC
  5
1038
330
FA6
100
AcDbEntity
  8
P-0000
  6
Continuous
 62
     0
370
     0
100
AcDbCircle
 10
30.42513400499494
 20
-113.4395696639535
 30
0.0
 40
2.439569663999999
100
AcDbArc
 50
0.0
 51
90.0
1001
TOP
1070
     7
  0
LINE
  5
1039
330
FA6
100
AcDbEntity
  8
P-0000
  6
Continuous
 62
     0
370
     0
100
AcDbLine
 10
28.59545675699515
 20
-112.0978063487534
 30
0.0
 11
28.59545675699515
 21
-116.2450747775533
 31
0.0
1001
TOP
1070
     7
  0
LINE
  5
103A
330
FA6
100
AcDbEntity
  8
P-0000
  6
Continuous
 62
     0
370
     0
100
AcDbLine
 10
28.59545675699515
 20
-116.2450747775533
 30
0.0
 11
30.18117703859566
 21
-116.2450747775533
 31
0.0
1001
TOP
1070
     7
  0
LINE
  5
103B
330
FA6
100
AcDbEntity
  8
P-0000
  6
Continuous
 62
     0
370
     0
100
AcDbLine
 10
30.18117703859566
 20
-112.0978063487534
 30
0.0
 11
28.59545675699515
 21
-112.0978063487534
 31
0.0
1001
TOP
1070
     7
  0
LINE
  5
103C
330
FA6
100
AcDbEntity
  8
P-0000
  6
Continuous
 62
     0
370
     0
100
AcDbLine
 10
34.69527835789438
 20
-117.3428811263533
 30
0.0
 11
34.69527835789438
 21
-112.4637417983535
 31
0.0
1001
TOP
1070
     7
  0
LINE
  5
103D
330
FA6
100
AcDbEntity
  8
P-0000
  6
Continuous
 62
     0
370
     0
100
AcDbLine
 10
33.59747200909242
 20
-112.4637417983535
 30
0.0
 11
33.59747200909242
 21
-117.3428811263533
 31
0.0
1001
TOP
1070
     7
  0
LINE
  5
103E
330
FA6
100
AcDbEntity
  8
P-0000
  6
Continuous
 62
     0
370
     0
100
AcDbLine
 10
33.59747200909242
 20
-117.3428811263533
 30
0.0
 11
34.69527835789438
 21
-117.3428811263533
 31
0.0
1001
TOP
1070
     7
  0
LINE
  5
103F
330
FA6
100
AcDbEntity
  8
P-0000
  6
Continuous
 62
     0
370
     0
100
AcDbLine
 10
33.59747200909242
 20
-111.9758278655534
 30
0.0
 11
34.69527835789438
 21
-111.9758278655534
 31
0.0
1001
TOP
1070
     7
  0
LINE
  5
1040
330
FA6
100
AcDbEntity
  8
P-0000
  6
Continuous
 62
     0
370
     0
100
AcDbLine
 10
34.69527835789438
 20
-110.9999999999532
 30
0.0
 11
33.59747200909242
 21
-110.9999999999532
 31
0.0
1001
TOP
1070
     7
  0
HATCH
  5
1041
330
FA6
100
AcDbEntity
  8
P-0000
  6
Continuous
 62
     0
100
AcDbHatch
 10
0.0
 20
0.0
 30
0.0
210
0.0
220
0.0
230
1.0
  2
SOLID
 70
     1
 71
     0
 91
        1
 92
        1
 93
        4
 72
     1
 10
34.69527835789373
 20
-110.9999999999534
 11
33.59747200909307
 21
-110.9999999999534
 72
     1
 10
33.59747200909438
 20
-110.9999999999534
 11
33.59747200909438
 21
-111.9758278655534
 72
     1
 10
33.59747200909438
 20
-111.9758278655535
 11
34.69527835789504
 21
-111.9758278655535
 72
     1
 10
34.69527835789373
 20
-111.9758278655535
 11
34.69527835789373
 21
-110.9999999999535
 97
        0
 75
     0
 76
     1
 98
        1
 10
-31.48390878038737
 20
-204.8924935638848
1001
TOP
1070
     3
  0
LINE
  5
1042
330
FA6
100
AcDbEntity
  8
P-0000
  6
Continuous
 62
     0
370
     0
100
AcDbLine
 10
34.69527835789438
 20
-112.4637417983535
 30
0.0
 11
33.59747200909242
 21
-112.4637417983535
 31
0.0
1001
TOP
1070
     7
  0
LINE
  5
1043
330
FA6
100
AcDbEntity
  8
P-0000
  6
Continuous
 62
     0
370
     0
100
AcDbLine
 10
31.76689732019684
 20
-114.6593544959532
 30
0.0
 11
31.76689732019684
 21
-113.6835266303536
 31
0.0
1001
TOP
1070
     7
  0
LINE
  5
1044
330
FA6
100
AcDbEntity
  8
P-0000
  6
Continuous
 62
     0
370
     0
100
AcDbLine
 10
32.86470366899553
 20
-114.9033114623533
 30
0.0
 11
32.86470366899553
 21
-113.4395696639535
 31
0.0
1001
TOP
1070
     7
  0
LINE
  5
1045
330
FA6
100
AcDbEntity
  8
P-0000
  6
Continuous
 62
     0
370
     0
100
AcDbLine
 10
33.59747200909242
 20
-110.9999999999532
 30
0.0
 11
33.59747200909242
 21
-111.9758278655534
 31
0.0
1001
TOP
1070
     7
  0
LINE
  5
1046
330
FA6
100
AcDbEntity
  8
P-0000
  6
Continuous
 62
     0
370
     0
100
AcDbLine
 10
34.69527835789438
 20
-111.9758278655534
 30
0.0
 11
34.69527835789438
 21
-110.9999999999532
 31
0.0
1001
TOP
1070
     7
  0
LINE
  5
1047
330
FA6
100
AcDbEntity
  8
P-0000
  6
Continuous
 62
     0
370
     0
100
AcDbLine
 10
43.32027844350591
 20
-112.4637417983535
 30
0.0
 11
43.7763710533296
 21
-112.4637417983535
 31
0.0
1001
TOP
1070
     7
  0
ARC
  5
1048
330
FA6
100
AcDbEntity
  8
P-0000
  6
Continuous
 62
     0
370
     0
100
AcDbCircle
 10
43.77544761583408
 20
-115.745089341616
 30
0.0
 40
2.30551986259622
100
AcDbArc
 50
89.97705113130741
 51
144.7782320142388
1001
TOP
1070
     7
  0
LINE
  5
1049
330
FA6
100
AcDbEntity
  8
P-0000
  6
Continuous
 62
     0
370
     0
100
AcDbLine
 10
39.05018876106896
 20
-115.6426918998433
 30
0.0
 11
40.19154508968519
 21
-115.6426918998433
 31
0.0
1001
TOP
1070
     7
  0
LINE
  5
104A
330
FA6
100
AcDbEntity
  8
P-0000
  6
Continuous
 62
     0
370
     0
100
AcDbLine
 10
36.45141722414005
 20
-115.1547779670432
 30
0.0
 11
40.30627702705135
 21
-115.1547779670432
 31
0.0
1001
TOP
1070
     7
  0
ARC
  5
104B
330
FA6
100
AcDbEntity
  8
P-0000
  6
Continuous
 62
     0
370
     0
100
AcDbCircle
 10
37.8667189210941
 20
-114.7813329791534
 30
0.0
 40
1.463741798400002
100
AcDbArc
 50
194.7813103722914
 51
323.9519363800095
1001
TOP
1070
     7
  0
ARC
  5
104C
330
FA6
100
AcDbEntity
  8
P-0000
  6
Continuous
 62
     0
370
     0
100
AcDbCircle
 10
37.86684605018566
 20
-114.7246775057507
 30
0.0
 40
1.309503544180366
100
AcDbArc
 50
23.46032899247153
 51
156.5396710075285
1001
TOP
1070
     7
  0
LINE
  5
104D
330
FA6
100
AcDbEntity
  8
P-0000
  6
Continuous
 62
     0
370
     0
100
AcDbLine
 10
36.66559137993357
 20
-114.2033457980831
 30
0.0
 11
39.06810072043775
 21
-114.2033457980831
 31
0.0
1001
TOP
1070
     7
  0
LINE
  5
104E
330
FA6
100
AcDbEntity
  8
P-0000
  6
Continuous
 62
     0
370
     0
100
AcDbLine
 10
41.89200886669389
 20
-117.3428811263533
 30
0.0
 11
41.89200886669389
 21
-114.4153975295534
 31
0.0
1001
TOP
1070
     7
  0
LINE
  5
104F
330
FA6
100
AcDbEntity
  8
P-0000
  6
Continuous
 62
     0
370
     0
100
AcDbLine
 10
40.79420251789389
 20
-112.4637417983535
 30
0.0
 11
40.79420251789389
 21
-117.3428811263533
 31
0.0
1001
TOP
1070
     7
  0
LINE
  5
1050
330
FA6
100
AcDbEntity
  8
P-0000
  6
Continuous
 62
     0
370
     0
100
AcDbLine
 10
40.79420251789389
 20
-117.3428811263533
 30
0.0
 11
41.89200886669389
 21
-117.3428811263533
 31
0.0
1001
TOP
1070
     7
  0
LINE
  5
1051
330
FA6
100
AcDbEntity
  8
P-0000
  6
Continuous
 62
     0
370
     0
100
AcDbLine
 10
41.89200886669389
 20
-112.4637417983535
 30
0.0
 11
40.79420251789389
 21
-112.4637417983535
 31
0.0
1001
TOP
1070
     7
  0
ARC
  5
1052
330
FA6
100
AcDbEntity
  8
P-0000
  6
Continuous
 62
     0
370
     0
100
AcDbCircle
 10
43.43211012991381
 20
-114.1605808182825
 30
0.0
 40
1.700520210299701
100
AcDbArc
 50
93.77067625261986
 51
154.9129671807329
1001
TOP
1070
     7
  0
LINE
  5
1053
330
FA6
100
AcDbEntity
  8
P-0000
  6
Continuous
 62
     0
370
     0
100
AcDbLine
 10
41.89200886669389
 20
-113.4395696639535
 30
0.0
 11
41.89200886669389
 21
-112.4637417983535
 31
0.0
1001
TOP
1070
     7
  0
LINE
  5
1054
330
FA6
100
AcDbEntity
  8
P-0000
  6
Continuous
 62
     0
370
     0
100
AcDbLine
 10
41.89200886669389
 20
-112.4637417983535
 30
0.0
 11
41.89200886669389
 21
-113.4395696639535
 31
0.0
1001
TOP
1070
     7
  0
LINE
  5
1055
330
FA6
100
AcDbEntity
  8
P-0000
  6
Continuous
 62
     0
370
     0
100
AcDbLine
 10
45.60503389530265
 20
-117.3428811263533
 30
0.0
 11
45.60503389530265
 21
-114.4153975295534
 31
0.0
1001
TOP
1070
     7
  0
LINE
  5
1056
330
FA6
100
AcDbEntity
  8
P-0000
  6
Continuous
 62
     0
370
     0
100
AcDbLine
 10
44.50722754650199
 20
-112.4637417983535
 30
0.0
 11
44.50722754650199
 21
-117.3428811263533
 31
0.0
1001
TOP
1070
     7
  0
LINE
  5
1057
330
FA6
100
AcDbEntity
  8
P-0000
  6
Continuous
 62
     0
370
     0
100
AcDbLine
 10
44.50722754650199
 20
-117.3428811263533
 30
0.0
 11
45.60503389530265
 21
-117.3428811263533
 31
0.0
1001
TOP
1070
     7
  0
ARC
  5
1058
330
FA6
100
AcDbEntity
  8
P-0000
  6
Continuous
 62
     0
370
     0
100
AcDbCircle
 10
47.14513515852191
 20
-114.1605808182825
 30
0.0
 40
1.700520210299701
100
AcDbArc
 50
93.77067625261986
 51
154.9129671807329
1001
TOP
1070
     7
  0
ARC
  5
1059
330
FA6
100
AcDbEntity
  8
P-0000
  6
Continuous
 62
     0
370
     0
100
AcDbCircle
 10
47.48847264444087
 20
-115.745089341616
 30
0.0
 40
2.30551986259622
100
AcDbArc
 50
89.97705113130741
 51
144.7782320142388
1001
TOP
1070
     7
  0
LINE
  5
105A
330
FA6
100
AcDbEntity
  8
P-0000
  6
Continuous
 62
     0
370
     0
100
AcDbLine
 10
45.60503389530265
 20
-113.4395696639535
 30
0.0
 11
45.60503389530265
 21
-112.4637417983535
 31
0.0
1001
TOP
1070
     7
  0
LINE
  5
105B
330
FA6
100
AcDbEntity
  8
P-0000
  6
Continuous
 62
     0
370
     0
100
AcDbLine
 10
43.7763710533296
 20
-113.4395696639535
 30
0.0
 11
43.7763710533296
 21
-112.4637417983535
 31
0.0
1001
TOP
1070
     7
  0
LINE
  5
105C
330
FA6
100
AcDbEntity
  8
P-0000
  6
Continuous
 62
     0
370
     0
100
AcDbLine
 10
45.60503389530265
 20
-112.4637417983535
 30
0.0
 11
45.60503389530265
 21
-113.4395696639535
 31
0.0
1001
TOP
1070
     7
  0
LINE
  5
105D
330
FA6
100
AcDbEntity
  8
P-0000
  6
Continuous
 62
     0
370
     0
100
AcDbLine
 10
45.60503389530265
 20
-112.4637417983535
 30
0.0
 11
44.50722754650199
 21
-112.4637417983535
 31
0.0
1001
TOP
1070
     7
  0
LINE
  5
105E
330
FA6
100
AcDbEntity
  8
P-0000
  6
Continuous
 62
     0
370
     0
100
AcDbLine
 10
47.4893960819377
 20
-113.4395696639535
 30
0.0
 11
47.4893960819377
 21
-112.4637417983535
 31
0.0
1001
TOP
1070
     7
  0
LINE
  5
105F
330
FA6
100
AcDbEntity
  8
P-0000
  6
Continuous
 62
     0
370
     0
100
AcDbLine
 10
47.03330347211401
 20
-112.4637417983535
 30
0.0
 11
47.4893960819377
 21
-112.4637417983535
 31
0.0
1001
TOP
1070
     7
  0
ARC
  5
1060
330
FA6
100
AcDbEntity
  8
P-0000
  6
Continuous
 62
     0
370
     0
100
AcDbCircle
 10
50.16215002765402
 20
-114.7813329791534
 30
0.0
 40
1.463741798400002
100
AcDbArc
 50
194.7813103722914
 51
323.9519363800095
1001
TOP
1070
     7
  0
ARC
  5
1061
330
FA6
100
AcDbEntity
  8
P-0000
  6
Continuous
 62
     0
370
     0
100
AcDbCircle
 10
50.16227715674557
 20
-114.7246775057507
 30
0.0
 40
1.309503544180366
100
AcDbArc
 50
23.46032899247153
 51
156.5396710075285
1001
TOP
1070
     7
  0
LINE
  5
1062
330
FA6
100
AcDbEntity
  8
P-0000
  6
Continuous
 62
     0
370
     0
100
AcDbLine
 10
48.96102248649414
 20
-114.2033457980831
 30
0.0
 11
51.36353182699832
 21
-114.2033457980831
 31
0.0
1001
TOP
1070
     7
  0
HATCH
  5
1063
330
FA6
100
AcDbEntity
  8
P-0000
  6
Continuous
 62
     0
 48
35.0
100
AcDbHatch
 10
0.0
 20
0.0
 30
0.0
210
0.0
220
0.0
230
1.0
  2
SOLID
 70
     1
 71
     0
 91
        4
 92
        7
 72
     1
 73
     1
 93
        5
 10
10.96271911221012
 20
-125.2235249353502
 42
0.0
 10
12.71033880342222
 20
-123.3760412617837
 42
-0.2526825286644698
 10
10.89966378450943
 20
-118.3093524326913
 42
-0.2365496875282548
 10
13.23858596244193
 20
-113.911556758355
 42
-0.3189181398811642
 10
21.6496632356925
 20
-113.9115567583528
 42
0.9456749006874176
 97
        0
 92
       23
 72
     1
 73
     1
 93
        3
 10
13.31957930169594
 20
-122.9606500129607
 42
0.0
 10
14.28882554895264
 20
-121.9083255159412
 42
-0.9367032511192599
 10
19.7738206586555
 20
-115.9531879682591
 42
0.9912937295561995
 97
        0
 92
       23
 72
     1
 73
     1
 93
        3
 10
13.6223689255989
 20
-123.2387738267226
 42
0.9912937295512975
 10
20.07661028255846
 20
-116.2313117820216
 42
0.0
 10
19.10736403530447
 20
-117.283636279041
 42
-0.9367032511219386
 97
        0
 92
        7
 72
     1
 73
     1
 93
        4
 10
21.1012420296492
 20
-124.2622092592821
 42
-0.3807594385329816
 10
11.62828730439362
 20
-125.8488038677993
 42
0.9590989174885525
 10
22.09782851449584
 20
-114.320869039862
 42
0.0
 10
20.5196942813029
 20
-115.9543842828061
 42
-0.3704192144445564
 97
        0
 75
     0
 76
     1
 47
0.0537802133905057
 98
        4
 10
9.71100091586706
 20
-117.9121948253558
 10
12.48188425561622
 20
-119.1148667670212
 10
20.46640404268985
 20
-120.3175387086872
 10
22.79977970737239
 20
-118.4953086011877
1001
TOP
1070
     3
  0
HATCH
  5
1064
330
FA6
100
AcDbEntity
  8
P-0000
  6
Continuous
 62
     0
 48
35.0
100
AcDbHatch
 10
0.0
 20
0.0
 30
0.0
210
0.0
220
0.0
230
1.0
  2
SOLID
 70
     1
 71
     0
 91
        9
 92
        7
 72
     1
 73
     1
 93
        6
 10
30.42513400499429
 20
-110.9999999999531
 42
0.0
 10
27.4976504081958
 20
-110.9999999999531
 42
0.0
 10
27.49765040819515
 20
-117.3428811263532
 42
0.0
 10
30.42513400499429
 20
-117.3428811263532
 42
0.4142135623732426
 10
32.86470366899553
 20
-114.9033114623533
 42
0.0
 10
32.86470366899553
 20
-113.4395696639534
 42
0.4142135623732917
 97
        0
 92
       22
 72
     1
 73
     1
 93
        6
 10
28.59545675699515
 20
-112.0978063487534
 42
0.0
 10
30.18117703859566
 20
-112.0978063487534
 42
-0.4142135623733217
 10
31.76689732019684
 20
-113.6835266303533
 42
0.0
 10
31.76689732019684
 20
-114.6593544959533
 42
-0.4142135623732008
 10
30.18117703859632
 20
-116.2450747775532
 42
0.0
 10
28.59545675699515
 20
-116.2450747775532
 42
0.0
 97
        0
 92
        7
 72
     0
 73
     1
 93
        4
 10
33.59747200909176
 20
-117.3428811263532
 10
34.69527835789438
 20
-117.3428811263534
 10
34.69527835789438
 20
-112.4637417983535
 10
33.59747200909242
 20
-112.4637417983534
 97
        0
 92
        7
 72
     1
 73
     1
 93
        4
 10
36.4514172241394
 20
-115.1547779670432
 42
0.0
 10
40.29329361446925
 20
-115.1547779670432
 42
19.52759892169242
 10
40.19154508968454
 20
-115.6426918998433
 42
0.0
 10
39.05018876107027
 20
-115.6426918998433
 42
-0.6319943824460191
 97
        0
 92
       22
 72
     1
 73
     1
 93
        2
 10
36.66559137993488
 20
-114.2033457980811
 42
-0.6561238478654379
 10
39.06810072043645
 20
-114.2033457980831
 42
0.0
 97
        0
 92
        7
 72
     1
 73
     1
 93
        9
 10
41.89200886669389
 20
-114.415397529555
 42
-0.2437791817823871
 10
43.7763710533296
 20
-113.4395696639536
 42
0.0
 10
43.7763710533296
 20
-112.4637417983535
 42
0.0
 10
43.3202784435105
 20
-112.4637417983534
 42
0.2732984134248683
 10
41.89200886669389
 20
-113.4395696639525
 42
0.0
 10
41.89200886669389
 20
-112.4637417983534
 42
0.0
 10
40.79420251789454
 20
-112.4637417983534
 42
0.0
 10
40.79420251789389
 20
-117.3428811263532
 42
0.0
 10
41.89200886669325
 20
-117.3428811263532
 42
0.0
 97
        0
 92
        7
 72
     1
 73
     1
 93
        9
 10
44.50722754650264
 20
-117.3428811263532
 42
0.0
 10
45.60503389530331
 20
-117.3428811263534
 42
0.0
 10
45.60503389530265
 20
-114.4153975295523
 42
-0.2437791817821463
 10
47.4893960819377
 20
-113.4395696639536
 42
0.0
 10
47.4893960819377
 20
-112.4637417983535
 42
0.0
 10
47.0333034721186
 20
-112.4637417983534
 42
0.2732984134246251
 10
45.60503389530265
 20
-113.4395696639511
 42
0.0
 10
45.60503389530265
 20
-112.4637417983534
 42
0.0
 10
44.50722754650199
 20
-112.4637417983535
 42
0.0
 97
        0
 92
        7
 72
     1
 73
     1
 93
        4
 10
52.58872472102916
 20
-115.1547779670432
 42
19.52759892169242
 10
52.48697619624445
 20
-115.6426918998433
 42
0.0
 10
51.34561986762953
 20
-115.6426918998433
 42
-0.631994382445661
 10
48.74684833069931
 20
-115.1547779670432
 42
0.0
 97
        0
 92
       22
 72
     1
 73
     1
 93
        2
 10
48.96102248649414
 20
-114.2033457980832
 42
-0.6561238478663365
 10
51.36353182699702
 20
-114.2033457980831
 42
0.0
 97
        0
 75
     0
 76
     1
 47
0.1054092179442032
 98
        9
 10
27.69490638549392
 20
-111.652214293695
 10
27.69490638549392
 20
-111.652214293695
 10
34.07482229139972
 20
-114.0180230722182
 10
36.02995736459688
 20
-114.9952049659171
 10
36.02995736459688
 20
-114.9952049659171
 10
41.58665818505385
 20
-115.2523580455926
 10
44.87951802368876
 20
-115.1494968773671
 10
49.09849458187363
 20
-114.429468063343
 10
49.09849458187363
 20
-114.429468063343
1001
TOP
1070
     5
  0
MTEXT
  5
1065
330
FA6
100
AcDbEntity
  8
P-0000
  6
Continuous
 62
     0
100
AcDbMText
 10
27.49247090377088
 20
-125.390962447158
 30
0.0
 40
1.5
 41
15.89275572328779
 71
     1
 72
     5
  1
{\f@Arial Unicode MS|b0|i0|c0|p34;\H2x;Group\H0.5x; srl}
  7
ROMANS
 73
     1
 44
1.0
1001
TOP
1070
     7
1001
ACAD
1000
MTEXTBEGIN
1070
    73
1070
     1
1070
    44
1040
1.0
1070
    74
1070
     0
1000
MTEXTEND
  0
LINE
  5
1066
330
FA6
100
AcDbEntity
  8
P-0000
  6
Continuous
 62
     0
100
AcDbLine
 10
44.68599253146374
 20
-118.6190131723036
 30
0.0
 11
39.89836754380895
 21
-118.6190131723036
 31
0.0
1001
TOP
1070
     7
  0
LINE
  5
1067
330
FA6
100
AcDbEntity
  8
P-0000
  6
Continuous
 62
     0
100
AcDbLine
 10
39.89836754380895
 20
-118.6190131723036
 30
0.0
 11
44.68599253146374
 21
-118.6190131723036
 31
0.0
1001
TOP
1070
     7
  0
LINE
  5
1068
330
FA6
100
AcDbEntity
  8
P-0000
  6
Continuous
 62
     0
100
AcDbLine
 10
44.3910024591579
 20
-122.4817401737898
 30
0.0
 11
45.21486459679505
 21
-121.2719230596353
 31
0.0
1001
TOP
1070
     7
  0
LINE
  5
1069
330
FA6
100
AcDbEntity
  8
P-0000
  6
Continuous
 62
     0
100
AcDbLine
 10
44.3910024591579
 20
-122.4817401737898
 30
0.0
 11
45.21486459679505
 21
-121.2719230596353
 31
0.0
1001
TOP
1070
     7
  0
LINE
  5
106A
330
FA6
100
AcDbEntity
  8
P-0000
  6
Continuous
 62
     0
100
AcDbLine
 10
44.3910024591579
 20
-122.4817401737898
 30
0.0
 11
46.0387267344322
 21
-122.4817401737898
 31
0.0
1001
TOP
1070
     7
  0
LINE
  5
106B
330
FA6
100
AcDbEntity
  8
P-0000
  6
Continuous
 62
     0
100
AcDbLine
 10
46.0387267344322
 20
-122.4817401737898
 30
0.0
 11
44.3910024591579
 21
-122.4817401737898
 31
0.0
1001
TOP
1070
     7
  0
LINE
  5
106C
330
FA6
100
AcDbEntity
  8
P-0000
  6
Continuous
 62
     0
100
AcDbLine
 10
41.5127601394758
 20
-124.055443766988
 30
0.0
 11
48.9169690541143
 21
-124.055443766988
 31
0.0
1001
TOP
1070
     7
  0
LINE
  5
106D
330
FA6
100
AcDbEntity
  8
P-0000
  6
Continuous
 62
     0
100
AcDbLine
 10
41.5127601394758
 20
-124.055443766988
 30
0.0
 11
48.9169690541143
 21
-124.055443766988
 31
0.0
1001
TOP
1070
     7
  0
LINE
  5
106E
330
FA6
100
AcDbEntity
  8
P-0000
  6
Continuous
 62
     0
100
AcDbLine
 10
43.11736052943385
 20
-120.9225027431547
 30
0.0
 11
44.68599253146374
 21
-118.6190131723036
 31
0.0
1001
TOP
1070
     7
  0
LINE
  5
106F
330
FA6
100
AcDbEntity
  8
P-0000
  6
Continuous
 62
     0
100
AcDbLine
 10
43.11736052943385
 20
-120.9225027431547
 30
0.0
 11
44.68599253146374
 21
-118.6190131723036
 31
0.0
1001
TOP
1070
     7
  0
LINE
  5
1070
330
FA6
100
AcDbEntity
  8
P-0000
  6
Continuous
 62
     0
100
AcDbLine
 10
41.5127601394758
 20
-124.055443766988
 30
0.0
 11
45.21486459679505
 21
-118.6190131723036
 31
0.0
1001
TOP
1070
     7
  0
LINE
  5
1071
330
FA6
100
AcDbEntity
  8
P-0000
  6
Continuous
 62
     0
100
AcDbLine
 10
45.21486459679505
 20
-118.6190131723036
 30
0.0
 11
41.5127601394758
 21
-124.055443766988
 31
0.0
1001
TOP
1070
     7
  0
LINE
  5
1072
330
FA6
100
AcDbEntity
  8
P-0000
  6
Continuous
 62
     0
100
AcDbLine
 10
32.52193502884333
 20
-118.6190131723036
 30
0.0
 11
36.22403948616258
 21
-118.6190131723036
 31
0.0
1001
TOP
1070
     7
  0
LINE
  5
1073
330
FA6
100
AcDbEntity
  8
P-0000
  6
Continuous
 62
     0
100
AcDbLine
 10
32.52193502884333
 20
-118.6190131723036
 30
0.0
 11
36.22403948616258
 21
-118.6190131723036
 31
0.0
1001
TOP
1070
     7
  0
LINE
  5
1074
330
FA6
100
AcDbEntity
  8
P-0000
  6
Continuous
 62
     0
100
AcDbLine
 10
33.05080709417467
 20
-124.055443766988
 30
0.0
 11
36.75291155149392
 21
-118.6190131723036
 31
0.0
1001
TOP
1070
     7
  0
LINE
  5
1075
330
FA6
100
AcDbEntity
  8
P-0000
  6
Continuous
 62
     0
100
AcDbLine
 10
32.52193502884333
 20
-124.055443766988
 30
0.0
 11
36.22403948616258
 21
-118.6190131723036
 31
0.0
1001
TOP
1070
     7
  0
LINE
  5
1076
330
FA6
100
AcDbEntity
  8
P-0000
  6
Continuous
 62
     0
100
AcDbLine
 10
33.05080709417467
 20
-124.055443766988
 30
0.0
 11
36.75291155149392
 21
-118.6190131723036
 31
0.0
1001
TOP
1070
     7
  0
LINE
  5
1077
330
FA6
100
AcDbEntity
  8
P-0000
  6
Continuous
 62
     0
100
AcDbLine
 10
36.22403948616258
 20
-118.6190131723036
 30
0.0
 11
32.52193502884333
 21
-124.055443766988
 31
0.0
1001
TOP
1070
     7
  0
LINE
  5
1078
330
FA6
100
AcDbEntity
  8
P-0000
  6
Continuous
 62
     0
100
AcDbLine
 10
33.05080709417467
 20
-124.055443766988
 30
0.0
 11
40.45501600881317
 21
-124.055443766988
 31
0.0
1001
TOP
1070
     7
  0
LINE
  5
1079
330
FA6
100
AcDbEntity
  8
P-0000
  6
Continuous
 62
     0
100
AcDbLine
 10
40.45501600881317
 20
-124.055443766988
 30
0.0
 11
33.05080709417467
 21
-124.055443766988
 31
0.0
1001
TOP
1070
     7
  0
LINE
  5
107A
330
FA6
100
AcDbEntity
  8
P-0000
  6
Continuous
 62
     0
100
AcDbLine
 10
27.4976504081958
 20
-118.6190131723036
 30
0.0
 11
29.74535668585389
 21
-118.6190131723036
 31
0.0
1001
TOP
1070
     7
  0
LINE
  5
107B
330
FA6
100
AcDbEntity
  8
P-0000
  6
Continuous
 62
     0
100
AcDbLine
 10
27.4976504081958
 20
-124.055443766988
 30
0.0
 11
29.74535668585389
 21
-124.055443766988
 31
0.0
1001
TOP
1070
     7
  0
LINE
  5
107C
330
FA6
100
AcDbEntity
  8
P-0000
  6
Continuous
 62
     0
100
AcDbLine
 10
29.74535668585389
 20
-124.055443766988
 30
0.0
 11
27.4976504081958
 21
-124.055443766988
 31
0.0
1001
TOP
1070
     7
  0
LINE
  5
107D
330
FA6
100
AcDbEntity
  8
P-0000
  6
Continuous
 62
     0
100
AcDbLine
 10
27.4976504081958
 20
-118.6190131723036
 30
0.0
 11
29.74535668585389
 21
-118.6190131723036
 31
0.0
1001
TOP
1070
     7
  0
LINE
  5
107E
330
FA6
100
AcDbEntity
  8
P-0000
  6
Continuous
 62
     0
100
AcDbLine
 10
27.4976504081958
 20
-124.055443766988
 30
0.0
 11
27.4976504081958
 21
-118.6190131723036
 31
0.0
1001
TOP
1070
     7
  0
LINE
  5
107F
330
FA6
100
AcDbEntity
  8
P-0000
  6
Continuous
 62
     0
100
AcDbLine
 10
27.4976504081958
 20
-124.055443766988
 30
0.0
 11
27.4976504081958
 21
-118.6190131723036
 31
0.0
1001
TOP
1070
     7
  0
LINE
  5
1080
330
FA6
100
AcDbEntity
  8
P-0000
  6
Continuous
 62
     0
100
AcDbLine
 10
32.52193502884333
 20
-121.7664203586998
 30
0.0
 11
31.1336458573486
 21
-124.055443766988
 31
0.0
1001
TOP
1070
     7
  0
LINE
  5
1081
330
FA6
100
AcDbEntity
  8
P-0000
  6
Continuous
 62
     0
100
AcDbLine
 10
32.52193502884333
 20
-121.7664203586998
 30
0.0
 11
32.52193502884333
 21
-124.055443766988
 31
0.0
1001
TOP
1070
     7
  0
LINE
  5
1082
330
FA6
100
AcDbEntity
  8
P-0000
  6
Continuous
 62
     0
100
AcDbLine
 10
32.52193502884333
 20
-121.7664203586998
 30
0.0
 11
31.1336458573486
 21
-124.055443766988
 31
0.0
1001
TOP
1070
     7
  0
LINE
  5
1083
330
FA6
100
AcDbEntity
  8
P-0000
  6
Continuous
 62
     0
100
AcDbLine
 10
32.52193502884333
 20
-124.055443766988
 30
0.0
 11
32.52193502884333
 21
-121.7664203586998
 31
0.0
1001
TOP
1070
     7
  0
LINE
  5
1084
330
FA6
100
AcDbEntity
  8
P-0000
  6
Continuous
 62
     0
100
AcDbLine
 10
29.74535668585389
 20
-124.055443766988
 30
0.0
 11
29.74535668585389
 21
-121.7664203586998
 31
0.0
1001
TOP
1070
     7
  0
LINE
  5
1085
330
FA6
100
AcDbEntity
  8
P-0000
  6
Continuous
 62
     0
100
AcDbLine
 10
29.74535668585389
 20
-121.7664203586998
 30
0.0
 11
29.74535668585389
 21
-124.055443766988
 31
0.0
1001
TOP
1070
     7
  0
LINE
  5
1086
330
FA6
100
AcDbEntity
  8
P-0000
  6
Continuous
 62
     0
100
AcDbLine
 10
29.74535668585389
 20
-121.7664203586998
 30
0.0
 11
31.1336458573486
 21
-124.055443766988
 31
0.0
1001
TOP
1070
     7
  0
LINE
  5
1087
330
FA6
100
AcDbEntity
  8
P-0000
  6
Continuous
 62
     0
100
AcDbLine
 10
31.1336458573486
 20
-124.055443766988
 30
0.0
 11
29.74535668585389
 21
-121.7664203586998
 31
0.0
1001
TOP
1070
     7
  0
LINE
  5
1088
330
FA6
100
AcDbEntity
  8
P-0000
  6
Continuous
 62
     0
100
AcDbLine
 10
32.52193502884333
 20
-118.6190131723036
 30
0.0
 11
31.1336458573486
 21
-120.9080365805917
 31
0.0
1001
TOP
1070
     7
  0
LINE
  5
1089
330
FA6
100
AcDbEntity
  8
P-0000
  6
Continuous
 62
     0
100
AcDbLine
 10
31.1336458573486
 20
-120.9080365805917
 30
0.0
 11
32.52193502884333
 21
-118.6190131723036
 31
0.0
1001
TOP
1070
     7
  0
LINE
  5
108A
330
FA6
100
AcDbEntity
  8
P-0000
  6
Continuous
 62
     0
100
AcDbLine
 10
29.74535668585389
 20
-118.6190131723036
 30
0.0
 11
31.1336458573486
 21
-120.9080365805917
 31
0.0
1001
TOP
1070
     7
  0
LINE
  5
108B
330
FA6
100
AcDbEntity
  8
P-0000
  6
Continuous
 62
     0
100
AcDbLine
 10
29.74535668585389
 20
-118.6190131723036
 30
0.0
 11
31.1336458573486
 21
-120.9080365805917
 31
0.0
1001
TOP
1070
     7
  0
ELLIPSE
  5
108C
330
FA6
100
AcDbEntity
  8
P-0000
  6
Continuous
 62
     0
100
AcDbEllipse
 10
39.89836754380895
 20
-120.0496528024836
 30
0.0
 11
-0.0000000000000277
 21
1.430639630180138
 31
0.0
210
0.0
220
0.0
230
-1.0
 40
0.9241881291669729
 41
4.077362244994374
 42
6.283185307179586
1001
TOP
1070
     7
  0
LINE
  5
108D
330
FA6
100
AcDbEntity
  8
P-0000
  6
Continuous
 62
     0
100
AcDbLine
 10
40.45501600881317
 20
-124.055443766988
 30
0.0
 11
36.75291155149392
 21
-118.6190131723036
 31
0.0
1001
TOP
1070
     7
  0
LINE
  5
108E
330
FA6
100
AcDbEntity
  8
P-0000
  6
Continuous
 62
     0
100
AcDbLine
 10
36.75291155149392
 20
-118.6190131723036
 30
0.0
 11
40.45501600881317
 21
-124.055443766988
 31
0.0
1001
TOP
1070
     7
  0
ELLIPSE
  5
108F
330
FA6
100
AcDbEntity
  8
P-0000
  6
Continuous
 62
     0
100
AcDbEllipse
 10
39.89836754380895
 20
-120.0496528024836
 30
0.0
 11
0.0000000000000073
 21
1.430639630180138
 31
0.0
210
0.0
220
0.0
230
1.0
 40
0.9241881291669608
 41
0.0000000000000056
 42
2.205823062185215
1001
TOP
1070
     7
  0
LINE
  5
1090
330
FA6
100
AcDbEntity
  8
P-0000
  6
Continuous
 62
     0
100
AcDbLine
 10
40.98388807414448
 20
-124.055443766988
 30
0.0
 11
38.83393868528867
 21
-120.8983068549025
 31
0.0
1001
TOP
1070
     7
  0
LINE
  5
1091
330
FA6
100
AcDbEntity
  8
P-0000
  6
Continuous
 62
     0
100
AcDbLine
 10
38.83393868528867
 20
-120.8983068549025
 30
0.0
 11
40.98388807414448
 21
-124.055443766988
 31
0.0
1001
TOP
1070
     7
  0
LINE
  5
1092
330
FA6
100
AcDbEntity
  8
P-0000
  6
Continuous
 62
     0
100
AcDbLine
 10
37.57677368913107
 20
-122.4817401737898
 30
0.0
 11
36.75291155149392
 21
-121.2719230596353
 31
0.0
1001
TOP
1070
     7
  0
LINE
  5
1093
330
FA6
100
AcDbEntity
  8
P-0000
  6
Continuous
 62
     0
100
AcDbLine
 10
36.75291155149392
 20
-121.2719230596353
 30
0.0
 11
37.57677368913107
 21
-122.4817401737898
 31
0.0
1001
TOP
1070
     7
  0
LINE
  5
1094
330
FA6
100
AcDbEntity
  8
P-0000
  6
Continuous
 62
     0
100
AcDbLine
 10
35.92904941385678
 20
-122.4817401737898
 30
0.0
 11
36.75291155149392
 21
-121.2719230596353
 31
0.0
1001
TOP
1070
     7
  0
LINE
  5
1095
330
FA6
100
AcDbEntity
  8
P-0000
  6
Continuous
 62
     0
100
AcDbLine
 10
35.92904941385678
 20
-122.4817401737898
 30
0.0
 11
36.75291155149392
 21
-121.2719230596353
 31
0.0
1001
TOP
1070
     7
  0
LINE
  5
1096
330
FA6
100
AcDbEntity
  8
P-0000
  6
Continuous
 62
     0
100
AcDbLine
 10
35.92904941385678
 20
-122.4817401737898
 30
0.0
 11
37.57677368913107
 21
-122.4817401737898
 31
0.0
1001
TOP
1070
     7
  0
LINE
  5
1097
330
FA6
100
AcDbEntity
  8
P-0000
  6
Continuous
 62
     0
100
AcDbLine
 10
37.57677368913107
 20
-122.4817401737898
 30
0.0
 11
35.92904941385678
 21
-122.4817401737898
 31
0.0
1001
TOP
1070
     7
  0
LINE
  5
1098
330
FA6
100
AcDbEntity
  8
P-0000
  6
Continuous
 62
     0
100
AcDbLine
 10
40.98388807414448
 20
-124.055443766988
 30
0.0
 11
42.55252007617437
 21
-121.7519541961368
 31
0.0
1001
TOP
1070
     7
  0
LINE
  5
1099
330
FA6
100
AcDbEntity
  8
P-0000
  6
Continuous
 62
     0
100
AcDbLine
 10
40.98388807414448
 20
-124.055443766988
 30
0.0
 11
42.55252007617437
 21
-121.7519541961368
 31
0.0
1001
TOP
1070
     7
  0
LINE
  5
109A
330
FA6
100
AcDbEntity
  8
P-0000
  6
Continuous
 62
     0
100
AcDbLine
 10
42.55252007617437
 20
-121.7519541961368
 30
0.0
 11
41.53074433343988
 21
-121.7519541961368
 31
0.0
1001
TOP
1070
     7
  0
LINE
  5
109B
330
FA6
100
AcDbEntity
  8
P-0000
  6
Continuous
 62
     0
100
AcDbLine
 10
41.53074433343988
 20
-120.9225027431547
 30
0.0
 11
43.11736052943385
 21
-120.9225027431547
 31
0.0
1001
TOP
1070
     7
  0
LINE
  5
109C
330
FA6
100
AcDbEntity
  8
P-0000
  6
Continuous
 62
     0
100
AcDbLine
 10
42.55252007617437
 20
-121.7519541961368
 30
0.0
 11
41.53074433343988
 21
-121.7519541961368
 31
0.0
1001
TOP
1070
     7
  0
LINE
  5
109D
330
FA6
100
AcDbEntity
  8
P-0000
  6
Continuous
 62
     0
100
AcDbLine
 10
43.11736052943385
 20
-120.9225027431547
 30
0.0
 11
41.53074433343988
 21
-120.9225027431547
 31
0.0
1001
TOP
1070
     7
  0
ELLIPSE
  5
109E
330
FA6
100
AcDbEntity
  8
P-0000
  6
Continuous
 62
     0
100
AcDbEllipse
 10
41.53074433343988
 20
-121.3372284696458
 30
0.0
 11
0.0000000000000016
 21
0.4147257264910956
 31
0.0
210
0.0
220
0.0
230
-1.0
 40
0.9241881291669779
 41
3.141592653589793
 42
6.283185307179586
1001
TOP
1070
     7
  0
ELLIPSE
  5
109F
330
FA6
100
AcDbEntity
  8
P-0000
  6
Continuous
 62
     0
100
AcDbEllipse
 10
41.53074433343988
 20
-121.3372284696458
 30
0.0
 11
-0.0000000000000201
 21
0.4147257264910956
 31
0.0
210
0.0
220
0.0
230
1.0
 40
0.9241881291669438
 41
-0.0000000000000524
 42
3.14159265358974
1001
TOP
1070
     7
  0
ELLIPSE
  5
10A0
330
FA6
100
AcDbEntity
  8
P-0000
  6
Continuous
 62
     0
100
AcDbEllipse
 10
49.44584111944561
 20
-120.3357807285197
 30
0.0
 11
-0.0000000000001066
 21
0.6294814372792618
 31
0.0
210
0.0
220
0.0
230
1.0
 40
0.9241881291669697
 41
3.141592653589633
 42
6.283185307179426
1001
TOP
1070
     7
  0
ELLIPSE
  5
10A1
330
FA6
100
AcDbEntity
  8
P-0000
  6
Continuous
 62
     0
100
AcDbEllipse
 10
49.44584111944561
 20
-120.3357807285197
 30
0.0
 11
0.0000000000000215
 21
0.6294814372792617
 31
0.0
210
0.0
220
0.0
230
-1.0
 40
0.9241881291669697
 41
0.0
 42
3.141592653589793
1001
TOP
1070
     7
  0
ELLIPSE
  5
10A2
330
FA6
100
AcDbEntity
  8
P-0000
  6
Continuous
 62
     0
100
AcDbEllipse
 10
49.44584111944561
 20
-120.3357807285197
 30
0.0
 11
0.0000000000000215
 21
1.716767556216168
 31
0.0
210
0.0
220
0.0
230
1.0
 40
0.9241881291669681
 41
3.141592653589806
 42
6.283185307179599
1001
TOP
1070
     7
  0
ELLIPSE
  5
10A3
330
FA6
100
AcDbEntity
  8
P-0000
  6
Continuous
 62
     0
100
AcDbEllipse
 10
49.44584111944561
 20
-120.3357807285197
 30
0.0
 11
0.0000000000000018
 21
1.716767556216167
 31
0.0
210
0.0
220
0.0
230
-1.0
 40
0.9241881291669688
 41
0.0
 42
3.141592653589793
1001
TOP
1070
     7
  0
LINE
  5
10A4
330
FA6
100
AcDbEntity
  8
P-0000
  6
Continuous
 62
     0
100
AcDbLine
 10
45.21486459679505
 20
-121.2719230596353
 30
0.0
 11
46.0387267344322
 21
-122.4817401737898
 31
0.0
1001
TOP
1070
     7
  0
LINE
  5
10A5
330
FA6
100
AcDbEntity
  8
P-0000
  6
Continuous
 62
     0
100
AcDbLine
 10
46.0387267344322
 20
-122.4817401737898
 30
0.0
 11
45.21486459679505
 21
-121.2719230596353
 31
0.0
1001
TOP
1070
     7
  0
LINE
  5
10A6
330
FA6
100
AcDbEntity
  8
P-0000
  6
Continuous
 62
     0
100
AcDbLine
 10
48.9169690541143
 20
-124.055443766988
 30
0.0
 11
45.21486459679505
 21
-118.6190131723036
 31
0.0
1001
TOP
1070
     7
  0
LINE
  5
10A7
330
FA6
100
AcDbEntity
  8
P-0000
  6
Continuous
 62
     0
100
AcDbLine
 10
49.44584111944561
 20
-124.055443766988
 30
0.0
 11
45.74373666212636
 21
-118.6190131723036
 31
0.0
1001
TOP
1070
     7
  0
LINE
  5
10A8
330
FA6
100
AcDbEntity
  8
P-0000
  6
Continuous
 62
     0
100
AcDbLine
 10
49.44584111944561
 20
-124.055443766988
 30
0.0
 11
45.74373666212636
 21
-118.6190131723036
 31
0.0
1001
TOP
1070
     7
  0
LINE
  5
10A9
330
FA6
100
AcDbEntity
  8
P-0000
  6
Continuous
 62
     0
100
AcDbLine
 10
48.9169690541143
 20
-124.055443766988
 30
0.0
 11
45.21486459679505
 21
-118.6190131723036
 31
0.0
1001
TOP
1070
     7
  0
LINE
  5
10AA
330
FA6
100
AcDbEntity
  8
P-0000
  6
Continuous
 62
     0
100
AcDbLine
 10
49.44584111944561
 20
-124.055443766988
 30
0.0
 11
49.44584111944561
 21
-122.0525482847359
 31
0.0
1001
TOP
1070
     7
  0
LINE
  5
10AB
330
FA6
100
AcDbEntity
  8
P-0000
  6
Continuous
 62
     0
100
AcDbLine
 10
49.44584111944561
 20
-122.0525482847359
 30
0.0
 11
49.44584111944561
 21
-124.055443766988
 31
0.0
1001
TOP
1070
     7
  0
LINE
  5
10AC
330
FA6
100
AcDbEntity
  8
P-0000
  6
Continuous
 62
     0
100
AcDbLine
 10
45.74373666212636
 20
-118.6190131723036
 30
0.0
 11
49.44584111944561
 21
-118.6190131723036
 31
0.0
1001
TOP
1070
     7
  0
LINE
  5
10AD
330
FA6
100
AcDbEntity
  8
P-0000
  6
Continuous
 62
     0
100
AcDbLine
 10
45.74373666212636
 20
-118.6190131723036
 30
0.0
 11
49.44584111944561
 21
-118.6190131723036
 31
0.0
1001
TOP
1070
     7
  0
LINE
  5
10AE
330
FA6
100
AcDbEntity
  8
P-0000
  6
Continuous
 62
     0
100
AcDbLine
 10
49.44584111944561
 20
-119.7062992912404
 30
0.0
 11
48.58851166617168
 21
-119.7062992912404
 31
0.0
1001
TOP
1070
     7
  0
LINE
  5
10AF
330
FA6
100
AcDbEntity
  8
P-0000
  6
Continuous
 62
     0
100
AcDbLine
 10
48.58851166617168
 20
-119.7062992912404
 30
0.0
 11
49.44584111944561
 21
-119.7062992912404
 31
0.0
1001
TOP
1070
     7
  0
LINE
  5
10B0
330
FA6
100
AcDbEntity
  8
P-0000
  6
Continuous
 62
     0
100
AcDbLine
 10
49.44584111944561
 20
-120.9652621657989
 30
0.0
 11
48.58851166617168
 21
-119.7062992912404
 31
0.0
1001
TOP
1070
     7
  0
LINE
  5
10B1
330
FA6
100
AcDbEntity
  8
P-0000
  6
Continuous
 62
     0
100
AcDbLine
 10
49.44584111944561
 20
-120.9652621657989
 30
0.0
 11
48.58851166617168
 21
-119.7062992912404
 31
0.0
1001
TOP
1070
     7
  0
LINE
  5
10B2
330
FA6
100
AcDbEntity
  8
0
 62
     0
 48
35.0
100
AcDbLine
 10
112.0
 20
142.5
 30
0.0
 11
203.0
 21
142.5
 31
0.0
1001
TOP
1070
     1
  0
LINE
  5
10B3
330
FA6
100
AcDbEntity
  8
0
 62
     0
100
AcDbLine
 10
112.0
 20
143.5
 30
0.0
 11
205.0
 21
143.5
 31
0.0
1001
TOP
1070
   256
  0
ARC
  5
10B4
330
FA6
100
AcDbEntity
  8
0
 62
     0
 48
35.0
100
AcDbCircle
 10
203.0
 20
141.5
 30
0.0
 40
1.0
100
AcDbArc
 50
0.0
 51
90.0
1001
TOP
1070
     1
  0
LINE
  5
10B5
330
FA6
100
AcDbEntity
  8
0
 62
     0
 48
35.0
100
AcDbLine
 10
204.0
 20
141.5
 30
0.0
 11
204.0
 21
113.5
 31
0.0
1001
TOP
1070
     1
  0
LINE
  5
10B6
330
FA6
100
AcDbEntity
  8
0
 62
     0
100
AcDbLine
 10
205.0
 20
143.5
 30
0.0
 11
205.0000000000001
 21
113.5
 31
0.0
1001
TOP
1070
   256
  0
ARC
  5
10B7
330
FA6
100
AcDbEntity
  8
0
 62
     0
 48
35.0
100
AcDbCircle
 10
203.0000000000001
 20
113.5
 30
0.0
 40
1.0
100
AcDbArc
 50
270.0
 51
0.0
1001
TOP
1070
     1
  0
ARC
  5
10B8
330
FA6
100
AcDbEntity
  8
0
 62
     0
100
AcDbCircle
 10
203.0000000000001
 20
113.5
 30
0.0
 40
2.0
100
AcDbArc
 50
270.0
 51
0.0
1001
TOP
1070
   256
  0
LINE
  5
10B9
330
FA6
100
AcDbEntity
  8
0
 62
     0
 48
35.0
100
AcDbLine
 10
203.0000000000001
 20
112.5
 30
0.0
 11
112.0
 21
112.5
 31
0.0
1001
TOP
1070
     1
  0
LINE
  5
10BA
330
FA6
100
AcDbEntity
  8
0
 62
     0
100
AcDbLine
 10
203.0000000000001
 20
111.4999999999999
 30
0.0
 11
112.0
 21
111.5
 31
0.0
1001
TOP
1070
   256
  0
ARC
  5
10BB
330
FA6
100
AcDbEntity
  8
0
 62
     0
 48
35.0
100
AcDbCircle
 10
112.0
 20
113.5
 30
0.0
 40
1.0
100
AcDbArc
 50
180.0
 51
270.0
1001
TOP
1070
     1
  0
ARC
  5
10BC
330
FA6
100
AcDbEntity
  8
0
 62
     0
100
AcDbCircle
 10
112.0
 20
113.5
 30
0.0
 40
2.0
100
AcDbArc
 50
180.0
 51
270.0
1001
TOP
1070
   256
  0
LINE
  5
10BD
330
FA6
100
AcDbEntity
  8
0
 62
     0
 48
35.0
100
AcDbLine
 10
111.0
 20
113.5
 30
0.0
 11
111.0
 21
141.5
 31
0.0
1001
TOP
1070
     1
  0
LINE
  5
10BE
330
FA6
100
AcDbEntity
  8
0
 62
     0
100
AcDbLine
 10
110.0
 20
113.5
 30
0.0
 11
110.0
 21
141.5
 31
0.0
1001
TOP
1070
   256
  0
ARC
  5
10BF
330
FA6
100
AcDbEntity
  8
0
 62
     0
 48
35.0
100
AcDbCircle
 10
112.0
 20
141.5
 30
0.0
 40
1.0
100
AcDbArc
 50
90.0
 51
180.0
1001
TOP
1070
     1
  0
ARC
  5
10C0
330
FA6
100
AcDbEntity
  8
0
 62
     0
100
AcDbCircle
 10
112.0
 20
141.5
 30
0.0
 40
2.0
100
AcDbArc
 50
90.0
 51
180.0
1001
TOP
1070
   256
  0
MTEXT
  5
10C1
330
FA6
100
AcDbEntity
  8
0
 62
     0
100
AcDbMText
 10
134.5853581142873
 20
135.6251466847724
 30
0.0
 40
6.0
 41
54.93080742428151
 71
     1
 72
     5
  1
{\fVrinda|b0|i0|c0|p2;BAR CODE\PMontaggio}
 73
     1
 44
1.0
1001
TOP
1070
   256
1001
ACAD
1000
MTEXTBEGIN
1070
    73
1070
     1
1070
    44
1040
1.0
1070
    74
1070
     0
1000
MTEXTEND
  0
ENDBLK
  5
10C3
330
FA6
100
AcDbEntity
  8
0
 62
     3
100
AcDbBlockEnd
  0
BLOCK
  5
113E
330
113D
100
AcDbEntity
  8
0
 62
     3
100
AcDbBlockBegin
  2
*D1
 70
     1
 10
0.0
 20
0.0
 30
0.0
  3
*D1
  1

  0
LINE
  5
1204
330
113D
100
AcDbEntity
  8
P-73B7
  6
Continuous
 62
     2
370
    -2
100
AcDbLine
 10
-493.6893575198696
 20
5668.862551290209
 30
0.0
 11
-493.6893575198696
 21
5843.728694735012
 31
0.0
  0
LINE
  5
1205
330
113D
100
AcDbEntity
  8
P-73B7
  6
Continuous
 62
     2
370
    -2
100
AcDbLine
 10
-2443.689357519879
 20
5233.037251290213
 30
0.0
 11
-2443.689357519879
 21
5843.728694735012
 31
0.0
  0
LINE
  5
1206
330
113D
100
AcDbEntity
  8
P-73B7
  6
Continuous
 62
     2
370
    -2
100
AcDbLine
 10
-513.6893575198696
 20
5828.728694735011
 30
0.0
 11
-2423.689357519879
 21
5828.728694735011
 31
0.0
  0
SOLID
  5
1207
330
113D
100
AcDbEntity
  8
P-73B7
  6
Continuous
 62
     2
100
AcDbTrace
 10
-513.6893575198696
 20
5832.062028068344
 30
0.0
 11
-513.6893575198696
 21
5825.395361401678
 31
0.0
 12
-493.6893575198696
 22
5828.728694735011
 32
0.0
 13
-493.6893575198696
 23
5828.728694735011
 33
0.0
  0
SOLID
  5
1208
330
113D
100
AcDbEntity
  8
P-73B7
  6
Continuous
 62
     2
100
AcDbTrace
 10
-2423.689357519879
 20
5832.062028068344
 30
0.0
 11
-2423.689357519879
 21
5825.395361401678
 31
0.0
 12
-2443.689357519879
 22
5828.728694735011
 32
0.0
 13
-2443.689357519879
 23
5828.728694735011
 33
0.0
  0
MTEXT
  5
1209
330
113D
100
AcDbEntity
  8
P-73B7
  6
Continuous
 62
     1
100
AcDbMText
 10
-1468.689357519874
 20
5848.961930886615
 30
0.0
 40
20.0
 41
0.0
 71
     5
 72
     1
  1
\A1;195
  7
Stile_Quota
 73
     1
 44
1.0
1001
ACAD
1000
MTEXTBEGIN
1070
    73
1070
     1
1070
    44
1040
1.0
1070
    74
1070
     0
1000
MTEXTEND
  0
POINT
  5
120A
330
113D
100
AcDbEntity
  8
Defpoints
  6
Continuous
 62
     0
100
AcDbPoint
 10
-493.6893575198696
 20
5658.862551290209
 30
0.0000000000054804
  0
POINT
  5
120B
330
113D
100
AcDbEntity
  8
Defpoints
  6
Continuous
 62
     0
100
AcDbPoint
 10
-2443.689357519879
 20
5223.037251290212
 30
0.0000000000054804
  0
POINT
  5
120C
330
113D
100
AcDbEntity
  8
Defpoints
  6
Continuous
 62
     0
100
AcDbPoint
 10
-2443.689357519879
 20
5828.728694735011
 30
0.0
  0
ENDBLK
  5
113F
330
113D
100
AcDbEntity
  8
0
 62
     3
100
AcDbBlockEnd
  0
BLOCK
  5
1168
330
1167
100
AcDbEntity
  8
0
 62
     3
100
AcDbBlockBegin
  2
*D2
 70
     1
 10
0.0
 20
0.0
 30
0.0
  3
*D2
  1

  0
LINE
  5
11BF
330
1167
100
AcDbEntity
  8
P-73B7
  6
Continuous
 62
     2
370
    -2
100
AcDbLine
 10
-488.689357519868
 20
4643.862551290209
 30
0.0
 11
-315.6019887183417
 21
4643.862551290209
 31
0.0
  0
LINE
  5
11C0
330
1167
100
AcDbEntity
  8
P-73B7
  6
Continuous
 62
     2
370
    -2
100
AcDbLine
 10
-488.6893575198699
 20
5663.862551290208
 30
0.0
 11
-315.6019887183414
 21
5663.862551290208
 31
0.0
  0
LINE
  5
11C1
330
1167
100
AcDbEntity
  8
P-73B7
  6
Continuous
 62
     2
370
    -2
100
AcDbLine
 10
-330.6019887183416
 20
4663.862551290208
 30
0.0
 11
-330.6019887183414
 21
5643.862551290209
 31
0.0
  0
SOLID
  5
11C2
330
1167
100
AcDbEntity
  8
P-73B7
  6
Continuous
 62
     2
100
AcDbTrace
 10
-333.9353220516749
 20
4663.862551290208
 30
0.0
 11
-327.2686553850083
 21
4663.862551290208
 31
0.0
 12
-330.6019887183416
 22
4643.862551290209
 32
0.0
 13
-330.6019887183416
 23
4643.862551290209
 33
0.0
  0
SOLID
  5
11C3
330
1167
100
AcDbEntity
  8
P-73B7
  6
Continuous
 62
     2
100
AcDbTrace
 10
-333.9353220516747
 20
5643.862551290209
 30
0.0
 11
-327.2686553850081
 21
5643.862551290209
 31
0.0
 12
-330.6019887183414
 22
5663.862551290208
 32
0.0
 13
-330.6019887183414
 23
5663.862551290208
 33
0.0
  0
MTEXT
  5
11C4
330
1167
100
AcDbEntity
  8
P-73B7
  6
Continuous
 62
     1
100
AcDbMText
 10
-351.0320178728611
 20
5153.86255129021
 30
0.0
 40
20.0
 41
0.0
 71
     5
 72
     1
  1
\A1;%%C102
  7
Stile_Quota
 11
0.0000000000000001
 21
1.0
 31
0.0
 73
     1
 44
1.0
1001
ACAD
1000
MTEXTBEGIN
1070
    73
1070
     1
1070
    44
1040
1.0
1070
    74
1070
     0
1000
MTEXTEND
  0
POINT
  5
11C5
330
1167
100
AcDbEntity
  8
Defpoints
  6
Continuous
 62
     0
100
AcDbPoint
 10
-498.689357519868
 20
4643.862551290209
 30
0.0000000000054804
  0
POINT
  5
11C6
330
1167
100
AcDbEntity
  8
Defpoints
  6
Continuous
 62
     0
100
AcDbPoint
 10
-498.6893575198698
 20
5663.862551290208
 30
0.0000000000054804
  0
POINT
  5
11C7
330
1167
100
AcDbEntity
  8
Defpoints
  6
Continuous
 62
     0
100
AcDbPoint
 10
-330.6019887183414
 20
5663.862551290208
 30
0.0
  0
ENDBLK
  5
1169
330
1167
100
AcDbEntity
  8
0
 62
     3
100
AcDbBlockEnd
  0
BLOCK
  5
11CA
330
11C9
100
AcDbEntity
  8
0
 62
     3
100
AcDbBlockBegin
  2
*D3
 70
     1
 10
0.0
 20
0.0
 30
0.0
  3
*D3
  1

  0
LINE
  5
120D
330
11C9
100
AcDbEntity
  8
P-73B7
  6
Continuous
 62
     2
370
    -2
100
AcDbLine
 10
-2442.864057519846
 20
5073.862551290173
 30
0.0
 11
-2646.070739755571
 21
5073.862551290173
 31
0.0
  0
LINE
  5
120E
330
11C9
100
AcDbEntity
  8
P-73B7
  6
Continuous
 62
     2
370
    -2
100
AcDbLine
 10
-2442.86405751991
 20
5233.862551290247
 30
0.0
 11
-2646.070739755571
 21
5233.862551290247
 31
0.0
  0
LINE
  5
120F
330
11C9
100
AcDbEntity
  8
P-73B7
  6
Continuous
 62
     2
370
    -2
100
AcDbLine
 10
-2631.070739755571
 20
5093.862551290174
 30
0.0
 11
-2631.070739755571
 21
5213.862551290247
 31
0.0
  0
SOLID
  5
1210
330
11C9
100
AcDbEntity
  8
P-73B7
  6
Continuous
 62
     2
100
AcDbTrace
 10
-2634.404073088904
 20
5093.862551290174
 30
0.0
 11
-2627.737406422237
 21
5093.862551290174
 31
0.0
 12
-2631.070739755571
 22
5073.862551290173
 32
0.0
 13
-2631.070739755571
 23
5073.862551290173
 33
0.0
  0
SOLID
  5
1211
330
11C9
100
AcDbEntity
  8
P-73B7
  6
Continuous
 62
     2
100
AcDbTrace
 10
-2634.404073088904
 20
5213.862551290247
 30
0.0
 11
-2627.737406422237
 21
5213.862551290247
 31
0.0
 12
-2631.070739755571
 22
5233.862551290247
 32
0.0
 13
-2631.070739755571
 23
5233.862551290247
 33
0.0
  0
MTEXT
  5
1212
330
11C9
100
AcDbEntity
  8
P-73B7
  6
Continuous
 62
     1
100
AcDbMText
 10
-2651.296687277437
 20
5153.86255129021
 30
0.0
 40
20.0
 41
0.0
 71
     5
 72
     1
  1
\A1;M16
  7
Stile_Quota
 11
0.0000000000000001
 21
1.0
 31
0.0
 73
     1
 44
1.0
1001
ACAD
1000
MTEXTBEGIN
1070
    73
1070
     1
1070
    44
1040
1.0
1070
    74
1070
     0
1000
MTEXTEND
  0
POINT
  5
1213
330
11C9
100
AcDbEntity
  8
Defpoints
  6
Continuous
 62
     0
100
AcDbPoint
 10
-2432.864057519846
 20
5073.862551290173
 30
0.0000000000054804
  0
POINT
  5
1214
330
11C9
100
AcDbEntity
  8
Defpoints
  6
Continuous
 62
     0
100
AcDbPoint
 10
-2432.86405751991
 20
5233.862551290247
 30
0.0000000000054804
  0
POINT
  5
1215
330
11C9
100
AcDbEntity
  8
Defpoints
  6
Continuous
 62
     0
100
AcDbPoint
 10
-2631.070739755571
 20
5233.862551290247
 30
0.0
  0
ENDBLK
  5
11CB
330
11C9
100
AcDbEntity
  8
0
 62
     3
100
AcDbBlockEnd
  0
BLOCK
  5
129A
330
1299
100
AcDbEntity
  8
0
 62
     3
100
AcDbBlockBegin
  2
*D4
 70
     1
 10
0.0
 20
0.0
 30
0.0
  3
*D4
  1

  0
LINE
  5
12A6
330
1299
100
AcDbEntity
  8
P-0000
  6
TRATTEGGIO
 62
     2
370
    -2
100
AcDbLine
 10
-2443.689357519879
 20
5233.037251290213
 30
0.0
 11
-2443.689357519879
 21
5902.040081623766
 31
0.0
  0
LINE
  5
12A7
330
1299
100
AcDbEntity
  8
P-0000
  6
TRATTEGGIO
 62
     2
370
    -2
100
AcDbLine
 10
-493.6893575198689
 20
5243.037251290212
 30
0.0
 11
-493.6893575198688
 21
5902.040081623766
 31
0.0
  0
LINE
  5
12A8
330
1299
100
AcDbEntity
  8
P-0000
  6
TRATTEGGIO
 62
     2
370
    -2
100
AcDbLine
 10
-2423.689357519879
 20
5887.040081623767
 30
0.0
 11
-513.6893575198688
 21
5887.040081623767
 31
0.0
  0
SOLID
  5
12A9
330
1299
100
AcDbEntity
  8
P-0000
  6
TRATTEGGIO
 62
     2
100
AcDbTrace
 10
-2423.689357519879
 20
5890.3734149571
 30
0.0
 11
-2423.689357519879
 21
5883.706748290434
 31
0.0
 12
-2443.689357519879
 22
5887.040081623767
 32
0.0
 13
-2443.689357519879
 23
5887.040081623767
 33
0.0
  0
SOLID
  5
12AA
330
1299
100
AcDbEntity
  8
P-0000
  6
TRATTEGGIO
 62
     2
100
AcDbTrace
 10
-513.6893575198688
 20
5890.3734149571
 30
0.0
 11
-513.6893575198688
 21
5883.706748290434
 31
0.0
 12
-493.6893575198688
 22
5887.040081623767
 32
0.0
 13
-493.6893575198688
 23
5887.040081623767
 33
0.0
  0
MTEXT
  5
12AB
330
1299
100
AcDbEntity
  8
P-0000
  6
TRATTEGGIO
 62
     1
100
AcDbMText
 10
-1468.689357519874
 20
5907.273317775371
 30
0.0
 40
20.0
 41
0.0
 71
     5
 72
     1
  1
\A1;1950
  7
Stile_Quota
 73
     1
 44
1.0
1001
ACAD
1000
MTEXTBEGIN
1070
    73
1070
     1
1070
    44
1040
1.0
1070
    74
1070
     0
1000
MTEXTEND
  0
POINT
  5
12AC
330
1299
100
AcDbEntity
  8
Defpoints
  6
TRATTEGGIO
 62
     0
100
AcDbPoint
 10
-2443.689357519879
 20
5223.037251290212
 30
0.0000000000054804
  0
POINT
  5
12AD
330
1299
100
AcDbEntity
  8
Defpoints
  6
TRATTEGGIO
 62
     0
100
AcDbPoint
 10
-493.6893575198689
 20
5233.037251290213
 30
0.0000000000054804
  0
POINT
  5
12AE
330
1299
100
AcDbEntity
  8
Defpoints
  6
TRATTEGGIO
 62
     0
100
AcDbPoint
 10
-493.6893575198688
 20
5887.040081623767
 30
0.0
  0
ENDBLK
  5
129B
330
1299
100
AcDbEntity
  8
0
 62
     3
100
AcDbBlockEnd
  0
ENDSEC
  0
SECTION
  2
ENTITIES
  0
LINE
  5
F48
330
2
100
AcDbEntity
  8
P-73B7
  6
Continuous
 62
   144
100
AcDbLine
 10
-125.0842887615628
 20
6.917469999998502
 30
0.0
 11
-278.084288761563
 21
6.917470000000321
 31
0.0
1001
TOP
1070
     7
  0
LINE
  5
F49
330
2
100
AcDbEntity
  8
P-73B7
  6
Continuous
 62
   144
100
AcDbLine
 10
-125.0842887615628
 20
-6.917470000005778
 30
0.0
 11
-278.084288761563
 21
-6.917470000000321
 31
0.0
1001
TOP
1070
     7
  0
LINE
  5
F4A
330
2
100
AcDbEntity
  8
P-73B7
  6
Continuous
 62
   144
100
AcDbLine
 10
-277.0017587615678
 20
-7.999999999996362
 30
0.0
 11
-277.0017587615669
 21
8.000000000003637
 31
0.0
1001
TOP
1070
     7
  0
LINE
  5
F4B
330
2
100
AcDbEntity
  8
P-73B7
  6
Continuous
 62
   144
100
AcDbLine
 10
-110.0842887615629
 20
7.999999999990905
 30
0.0
 11
-117.0842887615628
 21
7.999999999992724
 31
0.0
1001
TOP
1070
     7
  0
LINE
  5
F4C
330
2
100
AcDbEntity
  8
P-73B7
  6
Continuous
 62
   144
100
AcDbLine
 10
-277.0017587615669
 20
8.000000000003637
 30
0.0
 11
-278.0842887615639
 21
6.917470000000321
 31
0.0
1001
TOP
1070
     7
  0
LINE
  5
F4D
330
2
100
AcDbEntity
  8
P-73B7
  6
Continuous
 62
   144
100
AcDbLine
 10
-278.0842887615639
 20
6.917470000000321
 30
0.0
 11
-278.084288761563
 21
-6.917470000000321
 31
0.0
1001
TOP
1070
     7
  0
LINE
  5
F4E
330
2
100
AcDbEntity
  8
P-73B7
  6
Continuous
 62
   144
100
AcDbLine
 10
-278.084288761563
 20
-6.917470000000321
 30
0.0
 11
-277.0017587615678
 21
-7.999999999996362
 31
0.0
1001
TOP
1070
     7
  0
LINE
  5
F4F
330
2
100
AcDbEntity
  8
P-73B7
  6
Continuous
 62
   144
100
AcDbLine
 10
-128.0842887615629
 20
-8.000000000006366
 30
0.0
 11
-128.0842887615629
 21
7.999999999993633
 31
0.0
1001
TOP
1070
     7
  0
CIRCLE
  5
F50
330
2
100
AcDbEntity
  8
P-73B7
  6
Continuous
 62
   144
100
AcDbCircle
 10
0.0
 20
0.0
 30
0.0
 40
15.99999999999976
1001
TOP
1070
     7
  0
LINE
  5
F51
330
2
100
AcDbEntity
  8
P-73B7
  6
ASSI
 62
   144
100
AcDbLine
 10
0.0
 20
-53.92210777010404
 30
0.0
 11
0.0
 21
53.44358590041338
 31
0.0
1001
TOP
1070
     2
  0
LINE
  5
F52
330
2
100
AcDbEntity
  8
P-73B7
  6
ASSI
 62
   144
100
AcDbLine
 10
-58.46545673088712
 20
0.0
 30
0.0
 11
58.39550045433202
 21
0.0
 31
0.0
1001
TOP
1070
     2
  0
ARC
  5
F53
330
2
100
AcDbEntity
  8
P-73B7
  6
Continuous
 62
   144
100
AcDbCircle
 10
-157.4393363635699
 20
-10.39230484541349
 30
0.0
 40
5.641911828417037
100
AcDbArc
 50
142.1211205082264
 51
217.8788794917736
1001
TOP
1070
     7
  0
ARC
  5
F54
330
2
100
AcDbEntity
  8
P-73B7
  6
Continuous
 62
   144
100
AcDbCircle
 10
-142.2966385011604
 20
0.0
 30
0.0
 40
20.78460969082649
100
AcDbArc
 50
160.5287793657513
 51
199.4712206342487
1001
TOP
1070
     7
  0
ARC
  5
F55
330
2
100
AcDbEntity
  8
P-73B7
  6
Continuous
 62
   144
100
AcDbCircle
 10
-157.4393363635699
 20
10.39230484541258
 30
0.0
 40
5.641911828417037
100
AcDbArc
 50
142.1211205082264
 51
217.8788794917736
1001
TOP
1070
     7
  0
ARC
  5
F56
330
2
100
AcDbEntity
  8
P-73B7
  6
Continuous
 62
   144
100
AcDbCircle
 10
-155.723160020404
 20
10.39230484541258
 30
0.0
 40
5.641911828417041
100
AcDbArc
 50
322.1211205082265
 51
37.87887949177358
1001
TOP
1070
     7
  0
ARC
  5
F57
330
2
100
AcDbEntity
  8
P-73B7
  6
Continuous
 62
   144
100
AcDbCircle
 10
-170.8658578828134
 20
0.0
 30
0.0
 40
20.78460969082648
100
AcDbArc
 50
340.5287793657513
 51
19.4712206342487
1001
TOP
1070
     7
  0
ARC
  5
F58
330
2
100
AcDbEntity
  8
P-73B7
  6
Continuous
 62
   144
100
AcDbCircle
 10
-155.723160020404
 20
-10.39230484541349
 30
0.0
 40
5.641911828417041
100
AcDbArc
 50
322.1211205082265
 51
37.87887949177358
1001
TOP
1070
     7
  0
LINE
  5
F59
330
2
100
AcDbEntity
  8
P-73B7
  6
Continuous
 62
   144
100
AcDbLine
 10
-151.2699399405482
 20
-13.85640646055162
 30
0.0
 11
-161.8925564434258
 21
-13.85640646055162
 31
0.0
1001
TOP
1070
     7
  0
LINE
  5
F5A
330
2
100
AcDbEntity
  8
P-73B7
  6
Continuous
 62
   144
100
AcDbLine
 10
-151.2699399405482
 20
-6.928203230275357
 30
0.0
 11
-161.8925564434258
 21
-6.928203230275357
 31
0.0
1001
TOP
1070
     7
  0
LINE
  5
F5B
330
2
100
AcDbEntity
  8
P-73B7
  6
Continuous
 62
   144
100
AcDbLine
 10
-151.2699399405482
 20
6.928203230275357
 30
0.0
 11
-161.8925564434258
 21
6.928203230275357
 31
0.0
1001
TOP
1070
     7
  0
LINE
  5
F5C
330
2
100
AcDbEntity
  8
P-73B7
  6
Continuous
 62
   144
100
AcDbLine
 10
-151.2699399405482
 20
13.85640646055071
 30
0.0
 11
-161.8925564434258
 21
13.85640646055071
 31
0.0
1001
TOP
1070
     7
  0
LINE
  5
F5D
330
2
100
AcDbEntity
  8
P-73B7
  6
Continuous
 62
   144
100
AcDbLine
 10
-163.0812481919869
 20
-10.39230484541349
 30
0.0
 11
-163.0812481919869
 21
10.39230484541258
 31
0.0
1001
TOP
1070
     7
  0
LINE
  5
F5E
330
2
100
AcDbEntity
  8
P-73B7
  6
Continuous
 62
   144
100
AcDbLine
 10
-150.0812481919869
 20
10.39230484541258
 30
0.0
 11
-150.0812481919869
 21
-10.39230484541349
 31
0.0
1001
TOP
1070
     7
  0
LINE
  5
F5F
330
2
100
AcDbEntity
  8
P-73B7
  6
ASSI
 62
   144
100
AcDbLine
 10
-80.86547697153845
 20
0.0
 30
0.0
 11
-281.5159465057025
 21
0.0
 31
0.0
1001
TOP
1070
     2
  0
LINE
  5
F60
330
2
100
AcDbEntity
  8
P-73B7
  6
Continuous
 62
   144
100
AcDbLine
 10
13.856406460551
 20
0.0
 30
0.0
 11
6.928203230275414
 21
12.0
 31
0.0
1001
TOP
1070
     7
  0
LINE
  5
F61
330
2
100
AcDbEntity
  8
P-73B7
  6
Continuous
 62
   144
100
AcDbLine
 10
6.928203230275414
 20
12.0
 30
0.0
 11
-6.928203230275528
 21
12.0
 31
0.0
1001
TOP
1070
     7
  0
LINE
  5
F62
330
2
100
AcDbEntity
  8
P-73B7
  6
Continuous
 62
   144
100
AcDbLine
 10
-6.928203230275528
 20
12.0
 30
0.0
 11
-13.85640646055111
 21
0.0
 31
0.0
1001
TOP
1070
     7
  0
LINE
  5
F63
330
2
100
AcDbEntity
  8
P-73B7
  6
Continuous
 62
   144
100
AcDbLine
 10
-13.85640646055111
 20
0.0
 30
0.0
 11
-6.928203230275528
 21
-12.0
 31
0.0
1001
TOP
1070
     7
  0
LINE
  5
F64
330
2
100
AcDbEntity
  8
P-73B7
  6
Continuous
 62
   144
100
AcDbLine
 10
-6.928203230275528
 20
-12.0
 30
0.0
 11
6.928203230275414
 21
-12.0
 31
0.0
1001
TOP
1070
     7
  0
LINE
  5
F65
330
2
100
AcDbEntity
  8
P-73B7
  6
Continuous
 62
   144
100
AcDbLine
 10
6.928203230275414
 20
-12.0
 30
0.0
 11
13.856406460551
 21
0.0
 31
0.0
1001
TOP
1070
     7
  0
CIRCLE
  5
F66
330
2
100
AcDbEntity
  8
P-73B7
  6
Continuous
 62
   144
100
AcDbCircle
 10
0.0
 20
0.0
 30
0.0
 40
12.0
1001
TOP
1070
     7
  0
ARC
  5
F67
330
2
100
AcDbEntity
  8
P-73B7
  6
Continuous
 62
   144
100
AcDbCircle
 10
0.0
 20
0.0
 30
0.0
 40
6.773139999999999
100
AcDbArc
 50
0.0
 51
270.0
1001
TOP
1070
     3
  0
LINE
  5
F68
330
2
100
AcDbEntity
  8
P-73B7
  6
Continuous
 62
   144
100
AcDbLine
 10
-110.0842887615629
 20
-7.999999999991814
 30
0.0
 11
-117.0842887615628
 21
-7.999999999992724
 31
0.0
1001
TOP
1070
     7
  0
ARC
  5
F69
330
2
100
AcDbEntity
  8
P-73B7
  6
Continuous
 62
   144
100
AcDbCircle
 10
-119.4423769331458
 20
-10.39230484541349
 30
0.0
 40
5.641911828417037
100
AcDbArc
 50
142.1211205082264
 51
217.8788794917736
1001
TOP
1070
     7
  0
ARC
  5
F6A
330
2
100
AcDbEntity
  8
P-73B7
  6
Continuous
 62
   144
100
AcDbCircle
 10
-104.2996790707363
 20
0.0
 30
0.0
 40
20.78460969082649
100
AcDbArc
 50
160.5287793657513
 51
199.4712206342487
1001
TOP
1070
     7
  0
ARC
  5
F6B
330
2
100
AcDbEntity
  8
P-73B7
  6
Continuous
 62
   144
100
AcDbCircle
 10
-119.4423769331458
 20
10.39230484541349
 30
0.0
 40
5.641911828417037
100
AcDbArc
 50
142.1211205082264
 51
217.8788794917736
1001
TOP
1070
     7
  0
ARC
  5
F6C
330
2
100
AcDbEntity
  8
P-73B7
  6
Continuous
 62
   144
100
AcDbCircle
 10
-122.7262005899799
 20
10.39230484541349
 30
0.0
 40
5.641911828417041
100
AcDbArc
 50
322.1211205082265
 51
37.87887949177358
1001
TOP
1070
     7
  0
ARC
  5
F6D
330
2
100
AcDbEntity
  8
P-73B7
  6
Continuous
 62
   144
100
AcDbCircle
 10
-137.8688984523892
 20
0.0
 30
0.0
 40
20.78460969082648
100
AcDbArc
 50
340.5287793657513
 51
19.4712206342487
1001
TOP
1070
     7
  0
ARC
  5
F6E
330
2
100
AcDbEntity
  8
P-73B7
  6
Continuous
 62
   144
100
AcDbCircle
 10
-122.7262005899799
 20
-10.39230484541349
 30
0.0
 40
5.641911828417041
100
AcDbArc
 50
322.1211205082265
 51
37.87887949177358
1001
TOP
1070
     7
  0
LINE
  5
F6F
330
2
100
AcDbEntity
  8
P-73B7
  6
Continuous
 62
   144
100
AcDbLine
 10
-118.272980510124
 20
-13.85640646055162
 30
0.0
 11
-123.8955970130017
 21
-13.85640646055162
 31
0.0
1001
TOP
1070
     7
  0
LINE
  5
F70
330
2
100
AcDbEntity
  8
P-73B7
  6
Continuous
 62
   144
100
AcDbLine
 10
-118.272980510124
 20
-6.928203230275357
 30
0.0
 11
-123.8955970130017
 21
-6.928203230275357
 31
0.0
1001
TOP
1070
     7
  0
LINE
  5
F71
330
2
100
AcDbEntity
  8
P-73B7
  6
Continuous
 62
   144
100
AcDbLine
 10
-118.272980510124
 20
6.928203230275357
 30
0.0
 11
-123.8955970130017
 21
6.928203230275357
 31
0.0
1001
TOP
1070
     7
  0
LINE
  5
F72
330
2
100
AcDbEntity
  8
P-73B7
  6
Continuous
 62
   144
100
AcDbLine
 10
-118.272980510124
 20
13.85640646055071
 30
0.0
 11
-123.8955970130017
 21
13.85640646055071
 31
0.0
1001
TOP
1070
     7
  0
LINE
  5
F73
330
2
100
AcDbEntity
  8
P-73B7
  6
Continuous
 62
   144
100
AcDbLine
 10
-125.0842887615628
 20
-10.39230484541349
 30
0.0
 11
-125.0842887615628
 21
10.39230484541349
 31
0.0
1001
TOP
1070
     7
  0
LINE
  5
F74
330
2
100
AcDbEntity
  8
P-73B7
  6
Continuous
 62
   144
100
AcDbLine
 10
-117.0842887615628
 20
10.39230484541349
 30
0.0
 11
-117.0842887615628
 21
-10.39230484541349
 31
0.0
1001
TOP
1070
     7
  0
LINE
  5
F75
330
2
100
AcDbEntity
  8
P-73B7
  6
Continuous
 62
   144
100
AcDbLine
 10
-128.0842887615629
 20
-7.999999999994543
 30
0.0
 11
-150.0812481919869
 21
-7.999999999997271
 31
0.0
1001
TOP
1070
     7
  0
LINE
  5
F76
330
2
100
AcDbEntity
  8
P-73B7
  6
Continuous
 62
   144
100
AcDbLine
 10
-128.0842887615629
 20
7.999999999994543
 30
0.0
 11
-150.0812481919869
 21
7.999999999996362
 31
0.0
1001
TOP
1070
     7
  0
LINE
  5
F77
330
2
100
AcDbEntity
  8
P-73B7
  6
Continuous
 62
   144
100
AcDbLine
 10
-110.0842887615629
 20
-7.999999999991814
 30
0.0
 11
-110.0842887615629
 21
7.999999999990905
 31
0.0
1001
TOP
1070
     7
  0
ARC
  5
F78
330
2
100
AcDbEntity
  8
P-73B7
  6
Continuous
 62
   144
100
AcDbCircle
 10
-98.08428876154557
 20
0.0
 30
0.0
 40
14.42220510186559
100
AcDbArc
 50
123.6900675259761
 51
146.309932474031
1001
TOP
1070
     7
  0
ARC
  5
F79
330
2
100
AcDbEntity
  8
P-73B7
  6
Continuous
 62
   144
100
AcDbCircle
 10
-98.08428876154557
 20
0.0
 30
0.0
 40
14.42220510186559
100
AcDbArc
 50
213.6900675259689
 51
236.3099324740238
1001
TOP
1070
     7
  0
LINE
  5
F7A
330
2
100
AcDbEntity
  8
P-73B7
  6
Continuous
 62
   144
100
AcDbLine
 10
-163.0812481919869
 20
-7.99999999999909
 30
0.0
 11
-277.0017587615669
 21
-8.000000000003637
 31
0.0
1001
TOP
1070
     7
  0
LINE
  5
F7B
330
2
100
AcDbEntity
  8
P-73B7
  6
Continuous
 62
   144
100
AcDbLine
 10
-163.0812481919869
 20
7.99999999999909
 30
0.0
 11
-277.0017587615669
 21
8.000000000003637
 31
0.0
1001
TOP
1070
     7
  0
CIRCLE
  5
F7C
330
2
100
AcDbEntity
  8
P-73B7
  6
Continuous
 62
   144
100
AcDbCircle
 10
0.0
 20
0.0
 30
0.0
 40
8.0
1001
TOP
1070
     7
  0
LINE
  5
F7D
330
2
100
AcDbEntity
  8
P-73B7
  6
Continuous
 62
   144
100
AcDbLine
 10
-83.08428876156273
 20
-50.5
 30
0.0
 11
-83.08428876156289
 21
50.5
 31
0.0
1001
TOP
1070
     7
  0
LINE
  5
F7E
330
2
100
AcDbEntity
  8
P-73B7
  6
Continuous
 62
   144
100
AcDbLine
 10
-83.5842887615629
 20
51.0
 30
0.0
 11
-88.08428876156289
 21
51.0
 31
0.0
1001
TOP
1070
     7
  0
LINE
  5
F7F
330
2
100
AcDbEntity
  8
P-73B7
  6
Continuous
 62
   144
100
AcDbLine
 10
-88.08428876156289
 20
-51.0
 30
0.0
 11
-83.58428876156272
 21
-51.0
 31
0.0
1001
TOP
1070
     7
  0
LINE
  5
F80
330
2
100
AcDbEntity
  8
P-73B7
  6
Continuous
 62
   144
100
AcDbLine
 10
-88.08428876156289
 20
51.0
 30
0.0
 11
-106.0842887615629
 21
15.99999999999909
 31
0.0
1001
TOP
1070
     7
  0
LINE
  5
F81
330
2
100
AcDbEntity
  8
P-73B7
  6
Continuous
 62
   144
100
AcDbLine
 10
-88.08428876156289
 20
-51.0
 30
0.0
 11
-106.0842887615629
 21
-16.0
 31
0.0
1001
TOP
1070
     7
  0
LINE
  5
F82
330
2
100
AcDbEntity
  8
P-73B7
  6
Continuous
 62
   144
100
AcDbLine
 10
-106.0842887615629
 20
-16.0
 30
0.0
 11
-106.0842887615629
 21
15.99999999999909
 31
0.0
1001
TOP
1070
     7
  0
LINE
  5
F83
330
2
100
AcDbEntity
  8
P-73B7
  6
Continuous
 62
   144
100
AcDbLine
 10
-88.08428876156289
 20
51.0
 30
0.0
 11
-98.58428876156274
 21
51.0
 31
0.0
1001
TOP
1070
     7
  0
LINE
  5
F84
330
2
100
AcDbEntity
  8
P-73B7
  6
Continuous
 62
   144
100
AcDbLine
 10
-101.0842887615627
 20
48.5
 30
0.0
 11
-101.0842887615629
 21
25.44444444444434
 31
0.0
1001
TOP
1070
     7
  0
LINE
  5
F85
330
2
100
AcDbEntity
  8
P-73B7
  6
Continuous
 62
   144
100
AcDbLine
 10
-88.08428876156289
 20
-51.0
 30
0.0
 11
-98.58428876156274
 21
-51.0
 31
0.0
1001
TOP
1070
     7
  0
LINE
  5
F86
330
2
100
AcDbEntity
  8
P-73B7
  6
Continuous
 62
   144
100
AcDbLine
 10
-101.0842887615627
 20
-48.5
 30
0.0
 11
-101.0842887615629
 21
-25.44444444444434
 31
0.0
1001
TOP
1070
     7
  0
ARC
  5
F87
330
2
100
AcDbEntity
  8
P-73B7
  6
Continuous
 62
   144
100
AcDbCircle
 10
-98.58428876156274
 20
-48.5
 30
0.0
 40
2.5
100
AcDbArc
 50
180.0
 51
270.0
1001
TOP
1070
     7
  0
ARC
  5
F88
330
2
100
AcDbEntity
  8
P-73B7
  6
Continuous
 62
   144
100
AcDbCircle
 10
-98.58428876156274
 20
48.5
 30
0.0
 40
2.5
100
AcDbArc
 50
90.0
 51
180.0
1001
TOP
1070
     7
  0
ARC
  5
F89
330
2
100
AcDbEntity
  8
P-73B7
  6
Continuous
 62
   144
100
AcDbCircle
 10
-83.58428876156272
 20
-50.5
 30
0.0
 40
0.5
100
AcDbArc
 50
270.0
 51
0.0
1001
TOP
1070
     7
  0
ARC
  5
F8A
330
2
100
AcDbEntity
  8
P-73B7
  6
Continuous
 62
   144
100
AcDbCircle
 10
-83.5842887615629
 20
50.5
 30
0.0
 40
0.5
100
AcDbArc
 50
0.0
 51
90.0
1001
TOP
1070
     7
  0
LINE
  5
F8B
330
2
100
AcDbEntity
  8
P-73B7
  6
TRATTEGGIO
 62
   144
100
AcDbLine
 10
-101.0842887615627
 20
-42.75
 30
0.0
 11
-83.08428876156273
 21
-42.75
 31
0.0
1001
TOP
1070
     3
  0
LINE
  5
F8C
330
2
100
AcDbEntity
  8
P-73B7
  6
TRATTEGGIO
 62
   144
100
AcDbLine
 10
-101.0842887615627
 20
-32.25
 30
0.0
 11
-83.08428876156273
 21
-32.25
 31
0.0
1001
TOP
1070
     3
  0
LINE
  5
F8D
330
2
100
AcDbEntity
  8
P-73B7
  6
ASSI
 62
   144
100
AcDbLine
 10
-101.9842887615628
 20
-37.5
 30
0.0
 11
-82.18428876156265
 21
-37.5
 31
0.0
1001
TOP
1070
     2
  0
LINE
  5
F8E
330
2
100
AcDbEntity
  8
P-73B7
  6
TRATTEGGIO
 62
   144
100
AcDbLine
 10
-101.0842887615627
 20
32.25
 30
0.0
 11
-83.08428876156273
 21
32.25
 31
0.0
1001
TOP
1070
     3
  0
LINE
  5
F8F
330
2
100
AcDbEntity
  8
P-73B7
  6
TRATTEGGIO
 62
   144
100
AcDbLine
 10
-101.0842887615627
 20
42.75
 30
0.0
 11
-83.08428876156273
 21
42.75
 31
0.0
1001
TOP
1070
     3
  0
LINE
  5
F90
330
2
100
AcDbEntity
  8
P-73B7
  6
ASSI
 62
   144
100
AcDbLine
 10
-101.9842887615628
 20
37.5
 30
0.0
 11
-82.18428876156265
 21
37.5
 31
0.0
1001
TOP
1070
     2
  0
ARC
  5
F91
330
2
100
AcDbEntity
  8
P-73B7
  6
Continuous
 62
   144
100
AcDbCircle
 10
0.4538951783429184
 20
-33.08950708586053
 30
0.0
 40
17.91624339141336
100
AcDbArc
 50
230.6527146210962
 51
303.5871531591205
1001
TOP
1070
     7
  0
LINE
  5
F92
330
2
100
AcDbEntity
  8
P-73B7
  6
Continuous
 62
   144
100
AcDbLine
 10
-17.21094606127479
 20
-18.13238361815365
 30
0.0
 11
-12.65929112873851
 21
-43.9461014862245
 31
0.0
1001
TOP
1070
     7
  0
LINE
  5
F93
330
2
100
AcDbEntity
  8
P-73B7
  6
Continuous
 62
   144
100
AcDbLine
 10
12.52326150142221
 20
-44.71756383855245
 30
0.0
 11
17.21094606127485
 21
-18.13238361815365
 31
0.0
1001
TOP
1070
     7
  0
ARC
  5
F94
330
2
100
AcDbEntity
  8
P-73B7
  6
Continuous
 62
   144
100
AcDbCircle
 10
0.4538951783429184
 20
33.08950708586053
 30
0.0
 40
17.91624339141336
100
AcDbArc
 50
56.41284684087955
 51
129.3472853789037
1001
TOP
1070
     7
  0
LINE
  5
F95
330
2
100
AcDbEntity
  8
P-73B7
  6
Continuous
 62
   144
100
AcDbLine
 10
-17.21094606127468
 20
18.13238361815365
 30
0.0
 11
-12.65929112873851
 21
43.94610148622359
 31
0.0
1001
TOP
1070
     7
  0
LINE
  5
F96
330
2
100
AcDbEntity
  8
P-73B7
  6
Continuous
 62
   144
100
AcDbLine
 10
12.5232615014221
 20
44.71756383855153
 30
0.0
 11
17.21094606127474
 21
18.13238361815365
 31
0.0
1001
TOP
1070
     7
  0
CIRCLE
  5
F97
330
2
100
AcDbEntity
  8
P-73B7
  6
Continuous
 62
   144
100
AcDbCircle
 10
0.0
 20
-37.5
 30
0.0
 40
5.25
1001
TOP
1070
     7
  0
LINE
  5
F98
330
2
100
AcDbEntity
  8
P-73B7
  6
ASSI
 62
   144
100
AcDbLine
 10
-5.775000000000034
 20
-37.5
 30
0.0
 11
5.77499999999992
 21
-37.5
 31
0.0
1001
TOP
1070
     2
  0
CIRCLE
  5
F99
330
2
100
AcDbEntity
  8
P-73B7
  6
Continuous
 62
   144
100
AcDbCircle
 10
0.0
 20
37.5
 30
0.0
 40
5.25
1001
TOP
1070
     7
  0
LINE
  5
F9A
330
2
100
AcDbEntity
  8
P-73B7
  6
ASSI
 62
   144
100
AcDbLine
 10
-5.775000000000034
 20
37.5
 30
0.0
 11
5.77499999999992
 21
37.5
 31
0.0
1001
TOP
1070
     2
  0
CIRCLE
  5
F9B
330
2
100
AcDbEntity
  8
P-73B7
  6
Continuous
 62
   144
100
AcDbCircle
 10
0.0
 20
0.0
 30
0.0
 40
51.0
1001
TOP
1070
     7
  0
ARC
  5
F9C
330
2
100
AcDbEntity
  8
P-73B7
  6
Continuous
 62
   144
100
AcDbCircle
 10
0.0
 20
0.0
 30
0.0
 40
25.0
100
AcDbArc
 50
226.4934225776322
 51
313.5065774223678
1001
TOP
1070
     7
  0
ARC
  5
F9D
330
2
100
AcDbEntity
  8
P-73B7
  6
Continuous
 62
   144
100
AcDbCircle
 10
0.0
 20
0.0
 30
0.0
 40
25.0
100
AcDbArc
 50
46.49342257763218
 51
133.5065774223678
1001
TOP
1070
     7
  0
ARC
  5
F9E
330
2
100
AcDbEntity
  8
P-73B7
  6
Continuous
 62
   144
100
AcDbCircle
 10
-7.735252363677489
 20
-43.07786059788941
 30
0.0
 40
5.0
100
AcDbArc
 50
190.0000000001634
 51
230.6527146210962
1001
TOP
1070
     7
  0
ARC
  5
F9F
330
2
100
AcDbEntity
  8
P-73B7
  6
Continuous
 62
   144
100
AcDbCircle
 10
7.599222736361127
 20
-43.84932295021735
 30
0.0
 40
5.0
100
AcDbArc
 50
303.5871531591205
 51
349.9999999998365
1001
TOP
1070
     7
  0
ARC
  5
FA0
330
2
100
AcDbEntity
  8
P-73B7
  6
Continuous
 62
   144
100
AcDbCircle
 10
7.599222736361127
 20
43.84932295021735
 30
0.0
 40
5.0
100
AcDbArc
 50
10.00000000016407
 51
56.41284684087955
1001
TOP
1070
     7
  0
ARC
  5
FA1
330
2
100
AcDbEntity
  8
P-73B7
  6
Continuous
 62
   144
100
AcDbCircle
 10
-7.735252363677375
 20
43.07786059788941
 30
0.0
 40
5.0
100
AcDbArc
 50
129.3472853789037
 51
169.9999999998365
1001
TOP
1070
     7
  0
ENDSEC
  0
SECTION
  2
OBJECTS
  0
DICTIONARY
  5
1A
330
0
100
AcDbDictionary
281
     1
  3
ACAD_2007HEADERVARS_RT
350
12B6
  3
ACAD_COLOR
350
2C5
  3
ACAD_GROUP
350
18
  3
ACAD_LAYOUT
350
45
  3
ACAD_MATERIAL
350
2B0
  3
ACAD_MLEADERSTYLE
350
354
  3
ACAD_MLINESTYLE
350
19
  3
ACAD_PLOTSETTINGS
350
46
  3
ACAD_PLOTSTYLENAME
350
43
  3
ACAD_SCALELIST
350
332
  3
ACAD_TABLESTYLE
350
2C6
  3
ACAD_VISUALSTYLE
350
2B4
  3
ACDB_RECOMPOSE_DATA
350
12B4
  3
AcDbVariableDictionary
350
2AA
  3
AEC_PROPERTY_SET_DEFS
350
6EA
  3
DWGPROPS
350
12B5
  3
qs_topprt_diz
350
50
  3
QSCATDICT
350
6D9
  3
QsPallStyleDict
350
768
  3
QsTop499
350
1279
  3
TopSpotLight
350
6E0
  0
DICTIONARY
  5
300
330
12
100
AcDbDictionary
280
     1
281
     1
  0
DICTIONARY
  5
9A1
330
A
100
AcDbDictionary
280
     1
281
     1
  3
ACAD_LAYERSTATES
360
9A2
  0
DICTIONARY
  5
37B
330
4
100
AcDbDictionary
280
     1
281
     1
  3
ADSK_XREC_LAYER_RECONCILED
360
76A
  0
DICTIONARY
  5
76B
330
6DB
100
AcDbDictionary
280
     1
281
     1
  3
ADSK_XREC_LAYER_RECONCILED
360
76C
  0
DICTIONARY
  5
12B6
102
{ACAD_REACTORS
330
1A
102
}
330
1A
100
AcDbDictionary
281
     1
  3
INTERFEREVPVS
350
12B7
  0
DICTIONARY
  5
2C5
102
{ACAD_REACTORS
330
1A
102
}
330
1A
100
AcDbDictionary
281
     1
  0
DICTIONARY
  5
18
102
{ACAD_REACTORS
330
1A
102
}
330
1A
100
AcDbDictionary
281
     1
  0
DICTIONARY
  5
45
102
{ACAD_REACTORS
330
1A
102
}
330
1A
100
AcDbDictionary
281
     1
  3
Layout1
350
48
  3
Model
350
47
  0
DICTIONARY
  5
2B0
102
{ACAD_REACTORS
330
1A
102
}
330
1A
100
AcDbDictionary
281
     1
  3
ByBlock
350
2B2
  3
ByLayer
350
2B1
  3
Global
350
2B3
  0
DICTIONARY
  5
354
102
{ACAD_REACTORS
330
1A
102
}
330
1A
100
AcDbDictionary
281
     1
  3
Standard
350
355
  0
DICTIONARY
  5
19
102
{ACAD_REACTORS
330
1A
102
}
330
1A
100
AcDbDictionary
281
     1
  3
STANDARD
350
1C
  0
DICTIONARY
  5
46
102
{ACAD_REACTORS
330
1A
102
}
330
1A
100
AcDbDictionary
281
     1
  3
Kyocera_1010 OR
350
1262
  3
Kyocera_1010 VER
350
1263
  3
Olivetti_200 A3
350
1264
  3
Olivetti_200 A4
350
1265
  3
PLOTTER
350
1266
  0
ACDBDICTIONARYWDFLT
  5
43
102
{ACAD_REACTORS
330
1A
102
}
330
1A
100
AcDbDictionary
281
     1
  3
Normal
350
44
100
AcDbDictionaryWithDefault
340
44
  0
DICTIONARY
  5
332
102
{ACAD_REACTORS
330
1A
102
}
330
1A
100
AcDbDictionary
281
     1
  3
A0
350
333
  3
A1
350
334
  3
A2
350
335
  3
A3
350
336
  3
A4
350
337
  3
A5
350
338
  3
A6
350
339
  3
A7
350
33A
  3
A8
350
33B
  3
A9
350
33C
  3
B0
350
33D
  3
B1
350
33E
  3
B2
350
33F
  3
B3
350
340
  3
B4
350
341
  3
B5
350
342
  3
B6
350
343
  3
B7
350
344
  3
B8
350
345
  3
B9
350
346
  3
C0
350
347
  3
C1
350
348
  3
C2
350
349
  3
C3
350
34A
  3
C4
350
34B
  3
C5
350
34C
  3
C6
350
34D
  3
C7
350
34E
  3
C8
350
34F
  3
C9
350
350
  3
D0
350
351
  3
D1
350
352
  3
D2
350
353
  0
DICTIONARY
  5
2C6
102
{ACAD_REACTORS
330
1A
102
}
330
1A
100
AcDbDictionary
281
     1
  3
QSTABFORI
350
1238
  3
QSTABREGION
350
123A
  3
Standard
350
2C7
  0
DICTIONARY
  5
2B4
102
{ACAD_REACTORS
330
1A
102
}
330
1A
100
AcDbDictionary
281
     1
  3
2dWireframe
350
2BA
  3
3D Hidden
350
2BC
  3
3dWireframe
350
2BB
  3
Basic
350
2B9
  3
Brighten
350
2C0
  3
ColorChange
350
2C4
  3
Conceptual
350
2BD
  3
Dim
350
2BF
  3
EdgeColorOff
350
128C
  3
Facepattern
350
2C3
  3
Flat
350
2B5
  3
FlatWithEdges
350
2B6
  3
Gouraud
350
2B7
  3
GouraudWithEdges
350
2B8
  3
Hidden
350
1284
  3
JitterOff
350
128A
  3
Linepattern
350
2C2
  3
OverhangOff
350
128B
  3
Realistic
350
2BE
  3
Shaded
350
1289
  3
Shaded with edges
350
1288
  3
Shades of Gray
350
1285
  3
Sketchy
350
1286
  3
Thicken
350
2C1
  3
Wireframe
350
1283
  3
X-Ray
350
1287
  0
XRECORD
  5
12B4
102
{ACAD_REACTORS
330
1A
102
}
330
1A
100
AcDbXrecord
280
     1
 90
        1
330
2C7
330
1238
330
123A
  0
DICTIONARY
  5
2AA
102
{ACAD_REACTORS
330
1A
102
}
330
1A
100
AcDbDictionary
281
     1
  3
CANNOSCALE
350
36B
  3
CMLEADERSTYLE
350
369
  3
CTABLESTYLE
350
312
  3
DIMASSOC
350
2AB
  3
DRAWORDERCTL
350
D09
  3
INDEXCTL
350
314
  3
LAYEREVAL
350
D0B
  3
LAYERNOTIFY
350
D0C
  3
LIGHTINGUNITS
350
36C
  3
MLEADERSCALE
350
D0A
  3
MSLTSCALE
350
36A
  3
SORTENTS
350
313
  3
XCLIPFRAME
350
12B0
  0
DICTIONARY
  5
6EA
102
{ACAD_REACTORS
330
1A
102
}
330
1A
100
AcDbDictionary
281
     1
  0
XRECORD
  5
12B5
102
{ACAD_REACTORS
330
1A
102
}
330
1A
100
AcDbXrecord
280
     1
  1
DWGPROPS COOKIE
  2

  3

  4

  6

  7

  8
mpistoia
  9

300
=
301
=
302
=
303
=
304
=
305
=
306
=
307
=
308
=
309
=
 40
0.3047363773148148
 41
2455155.394611181
 42
2455650.429483785
  1

 90
        0
  0
DICTIONARY
  5
50
102
{ACAD_REACTORS
330
1A
102
}
330
1A
100
AcDbDictionary
281
     1
  3
UCNT
350
51
  0
DICTIONARY
  5
6D9
102
{ACAD_REACTORS
330
1A
102
}
330
1A
100
AcDbDictionary
280
     1
281
     1
  3
DEFAULT
360
6DA
  0
DICTIONARY
  5
768
102
{ACAD_REACTORS
330
1A
102
}
330
1A
100
AcDbDictionary
281
     1
  3
DEFAULT
350
769
  0
DICTIONARY
  5
1279
102
{ACAD_REACTORS
330
1A
102
}
330
1A
100
AcDbDictionary
281
     1
  3
TOP
350
127E
  3
X4c5e
350
127C
  3
X6643
350
127D
  3
X6d05
350
127B
  3
X726a
350
127A
  0
DICTIONARY
  5
6E0
102
{ACAD_REACTORS
330
1A
102
}
330
1A
100
AcDbDictionary
281
     1
  3
colors
350
6E1
  0
DICTIONARY
  5
9A2
102
{ACAD_REACTORS
330
9A1
102
}
330
9A1
100
AcDbDictionary
281
     1
  0
XRECORD
  5
76A
102
{ACAD_REACTORS
330
37B
102
}
330
37B
100
AcDbXrecord
280
     1
290
     1
  0
XRECORD
  5
76C
102
{ACAD_REACTORS
330
76B
102
}
330
76B
100
AcDbXrecord
280
     1
290
     1
  0
XRECORD
  5
12B7
102
{ACAD_REACTORS
330
12B6
102
}
330
12B6
100
AcDbXrecord
280
     1
340
2BB
  0
LAYOUT
  5
48
102
{ACAD_XDICTIONARY
360
12BA
102
}
102
{ACAD_REACTORS
330
45
102
}
330
45
100
AcDbPlotSettings
  1

  2
RICOH Aficio 270 PCL 6 A4
  4

  6

 40
0.0
 41
0.0
 42
0.0
 43
0.0
 44
0.0
 45
0.0
 46
0.0
 47
0.0
 48
0.0
 49
0.0
140
0.0
141
0.0
142
1.0
143
1.0
 70
   688
 72
     0
 73
     0
 74
     5
  7
monochrome.ctb
 75
    16
147
1.0
148
0.0
149
0.0
100
AcDbLayout
  1
Layout1
 70
     0
 71
     1
 10
0.0
 20
0.0
 11
12.0
 21
9.0
 12
0.0
 22
0.0
 32
0.0
 14
1.000000000000000E+20
 24
1.000000000000000E+20
 34
1.000000000000000E+20
 15
-1.000000000000000E+20
 25
-1.000000000000000E+20
 35
-1.000000000000000E+20
146
0.0
 13
0.0
 23
0.0
 33
0.0
 16
1.0
 26
0.0
 36
0.0
 17
0.0
 27
1.0
 37
0.0
 76
     0
330
7
  0
LAYOUT
  5
47
102
{ACAD_XDICTIONARY
360
12B8
102
}
102
{ACAD_REACTORS
330
45
102
}
330
45
100
AcDbPlotSettings
  1
Olivetti_200 A4
  2
Olivetti_200.pc3
  4
A4
  6

 40
4.984749794006347
 41
5.154074668884277
 42
5.111740112304687
 43
4.9847412109375
 44
210.0156707763672
 45
297.0106506347656
 46
51.67548120477697
 47
0.0
 48
0.0
 49
0.0
140
0.0
141
0.0
142
1.0
143
0.4718508448115938
 70
 11956
 72
     1
 73
     0
 74
     1
  7
monochrome.ctb
 75
     0
147
2.119313785268927
148
-222.4649060220283
149
-239.0808115236937
100
AcDbLayout
  1
Model
 70
     1
 71
     0
 10
0.0
 20
0.0
 11
12.0
 21
9.0
 12
0.0
 22
0.0
 32
0.0
 14
0.0
 24
0.0
 34
0.0
 15
0.0
 25
0.0
 35
0.0
146
0.0
 13
0.0
 23
0.0
 33
0.0
 16
1.0
 26
0.0
 36
0.0
 17
0.0
 27
1.0
 37
0.0
 76
     0
330
2
331
2AE
1001
ACAD_PSEXT
1000
Olivetti_200.pc3
1000
Olivetti d-Copia 200MF KX
1000
IP_192.168.1.151
1000

1070
     0
  0
MATERIAL
  5
2B2
102
{ACAD_XDICTIONARY
360
12BE
102
}
102
{ACAD_REACTORS
330
2B0
102
}
330
2B0
100
AcDbMaterial
  1
ByBlock
 73
     1
 78
     1
172
     1
176
     1
270
     1
274
     1
  0
MATERIAL
  5
2B1
102
{ACAD_XDICTIONARY
360
12BC
102
}
102
{ACAD_REACTORS
330
2B0
102
}
330
2B0
100
AcDbMaterial
  1
ByLayer
 73
     1
 78
     1
172
     1
176
     1
270
     1
274
     1
  0
MATERIAL
  5
2B3
102
{ACAD_XDICTIONARY
360
12C0
102
}
102
{ACAD_REACTORS
330
2B0
102
}
330
2B0
100
AcDbMaterial
  1
Global
 73
     1
 78
     1
172
     1
176
     1
270
     1
274
     1
  0
MLEADERSTYLE
  5
355
102
{ACAD_REACTORS
330
354
102
}
330
354
100
AcDbMLeaderStyle
170
     2
171
     1
172
     0
 90
        2
 40
0.0
 41
0.0
173
     1
 91
-1056964608
340
E
 92
       -2
290
     1
 42
2.0
291
     1
 43
0.36
  3
Standard
 44
4.0
300

342
C
174
     1
178
     6
175
     1
176
     0
 93
-1056964608
 45
4.0
292
     0
297
     0
 46
4.0
 94
-1056964608
 47
1.0
 49
1.0
140
1.0
293
     1
141
0.0
294
     1
177
     0
142
1.0
295
     0
296
     0
143
0.125
1001
ACAD_MLEADERVER
1070
     2
  0
MLINESTYLE
  5
1C
102
{ACAD_REACTORS
330
19
102
}
330
19
100
AcDbMlineStyle
  2
STANDARD
 70
     0
  3

 62
     0
 51
90.0
 52
90.0
 71
     2
 49
0.5
 62
   256
  6
BYLAYER
 49
-0.5
 62
   256
  6
BYLAYER
  0
PLOTSETTINGS
  5
1262
102
{ACAD_XDICTIONARY
360
12E5
102
}
102
{ACAD_REACTORS
330
46
102
}
330
46
100
AcDbPlotSettings
  1
Kyocera_1010 OR
  2
Kyocera_1010.pc3
  4
A4
  6

 40
4.984749794006347
 41
5.154074668884277
 42
5.111740112304687
 43
4.9847412109375
 44
210.0156707763672
 45
297.0106506347656
 46
0.0
 47
109.7870247470818
 48
0.0
 49
0.0
140
0.0
141
0.0
142
1.0
143
0.6770771918566143
 70
 11956
 72
     1
 73
     1
 74
     1
  7
DIERRE BN.ctb
 75
     0
147
1.476936473458659
148
-222.4649060220283
149
-239.0808115236937
1001
ACAD_PSEXT
1000
Kyocera_1010.pc3
1000
Kyocera Mita FS-1010 KX
1000
\\PC5
1000

1070
     0
  0
PLOTSETTINGS
  5
1263
102
{ACAD_XDICTIONARY
360
12E7
102
}
102
{ACAD_REACTORS
330
46
102
}
330
46
100
AcDbPlotSettings
  1
Kyocera_1010 VER
  2
Kyocera_1010.pc3
  4
A4
  6

 40
4.984749794006347
 41
5.154074668884277
 42
5.111740112304687
 43
4.9847412109375
 44
210.0156707763672
 45
297.0106506347656
 46
51.67548120477697
 47
0.0
 48
0.0
 49
0.0
140
0.0
141
0.0
142
1.0
143
0.4718508448115938
 70
 11956
 72
     1
 73
     0
 74
     1
  7
DIERRE BN.ctb
 75
     0
147
2.119313785268927
148
-222.4649060220283
149
-239.0808115236937
1001
ACAD_PSEXT
1000
Kyocera_1010.pc3
1000
Kyocera Mita FS-1010 KX
1000
\\PC5
1000

1070
     0
  0
PLOTSETTINGS
  5
1264
102
{ACAD_XDICTIONARY
360
12E9
102
}
102
{ACAD_REACTORS
330
46
102
}
330
46
100
AcDbPlotSettings
  1
Olivetti_200 A3
  2
Olivetti_200.pc3
  4
A3
  6

 40
4.984749794006347
 41
5.111746788024902
 42
5.154083251953125
 43
4.9847412109375
 44
297.0106506347656
 45
419.9889831542968
 46
0.0
 47
156.6621412366913
 48
0.0
 49
0.0
140
0.0
141
0.0
142
1.0
143
0.4718508730467012
 70
 11956
 72
     1
 73
     1
 74
     1
  7
DIERRE BN.ctb
 75
     0
147
2.119313658451206
148
-222.4649060220283
149
-239.0808115236937
1001
ACAD_PSEXT
1000
Olivetti_200.pc3
1000
Olivetti d-Copia 200MF KX
1000
IP_192.168.1.151
1000

1070
     0
  0
PLOTSETTINGS
  5
1265
102
{ACAD_XDICTIONARY
360
12EB
102
}
102
{ACAD_REACTORS
330
46
102
}
330
46
100
AcDbPlotSettings
  1
Olivetti_200 A4
  2
Olivetti_200.pc3
  4
A4
  6

 40
4.984749794006347
 41
5.154074668884277
 42
5.111740112304687
 43
4.9847412109375
 44
210.0156707763672
 45
297.0106506347656
 46
51.67548120477697
 47
0.0
 48
0.0
 49
0.0
140
0.0
141
0.0
142
1.0
143
0.4718508448115938
 70
 11956
 72
     1
 73
     0
 74
     1
  7
DIERRE BN.ctb
 75
     0
147
2.119313785268927
148
-222.4649060220283
149
-239.0808115236937
1001
ACAD_PSEXT
1000
Olivetti_200.pc3
1000
Olivetti d-Copia 200MF KX
1000
IP_192.168.1.151
1000

1070
     0
  0
PLOTSETTINGS
  5
1266
102
{ACAD_XDICTIONARY
360
12ED
102
}
102
{ACAD_REACTORS
330
46
102
}
330
46
100
AcDbPlotSettings
  1
PLOTTER
  2
PLOTTER.pc3
  4
User622
  6

 40
0.0
 41
0.0
 42
0.0
 43
0.0
 44
841.0
 45
1189.0
 46
0.0
 47
0.0
 48
0.0
 49
0.0
140
0.0
141
0.0
142
1.0
143
1.0
 70
 11936
 72
     1
 73
     0
 74
     1
  7
DIERRE BN.ctb
 75
     0
147
2.194137304425714
148
-222.4649060220283
149
-239.0808115236937
1001
ACAD_PSEXT
1000
PLOTTER.pc3
1000
HP DesignJet 430 (E/A0) by HP
1000
\\SERVER2003
1000

1070
     0
  0
ACDBPLACEHOLDER
  5
44
102
{ACAD_REACTORS
330
43
102
}
330
43
  0
SCALE
  5
333
102
{ACAD_REACTORS
330
332
102
}
330
332
100
AcDbScale
 70
     0
300
1:1
140
1.0
141
1.0
290
     1
  0
SCALE
  5
334
102
{ACAD_REACTORS
330
332
102
}
330
332
100
AcDbScale
 70
     0
300
1:2
140
1.0
141
2.0
290
     0
  0
SCALE
  5
335
102
{ACAD_REACTORS
330
332
102
}
330
332
100
AcDbScale
 70
     0
300
1:4
140
1.0
141
4.0
290
     0
  0
SCALE
  5
336
102
{ACAD_REACTORS
330
332
102
}
330
332
100
AcDbScale
 70
     0
300
1:5
140
1.0
141
5.0
290
     0
  0
SCALE
  5
337
102
{ACAD_REACTORS
330
332
102
}
330
332
100
AcDbScale
 70
     0
300
1:8
140
1.0
141
8.0
290
     0
  0
SCALE
  5
338
102
{ACAD_REACTORS
330
332
102
}
330
332
100
AcDbScale
 70
     0
300
1:10
140
1.0
141
10.0
290
     0
  0
SCALE
  5
339
102
{ACAD_REACTORS
330
332
102
}
330
332
100
AcDbScale
 70
     0
300
1:16
140
1.0
141
16.0
290
     0
  0
SCALE
  5
33A
102
{ACAD_REACTORS
330
332
102
}
330
332
100
AcDbScale
 70
     0
300
1:20
140
1.0
141
20.0
290
     0
  0
SCALE
  5
33B
102
{ACAD_REACTORS
330
332
102
}
330
332
100
AcDbScale
 70
     0
300
1:30
140
1.0
141
30.0
290
     0
  0
SCALE
  5
33C
102
{ACAD_REACTORS
330
332
102
}
330
332
100
AcDbScale
 70
     0
300
1:40
140
1.0
141
40.0
290
     0
  0
SCALE
  5
33D
102
{ACAD_REACTORS
330
332
102
}
330
332
100
AcDbScale
 70
     0
300
1:50
140
1.0
141
50.0
290
     0
  0
SCALE
  5
33E
102
{ACAD_REACTORS
330
332
102
}
330
332
100
AcDbScale
 70
     0
300
1:100
140
1.0
141
100.0
290
     0
  0
SCALE
  5
33F
102
{ACAD_REACTORS
330
332
102
}
330
332
100
AcDbScale
 70
     0
300
2:1
140
2.0
141
1.0
290
     0
  0
SCALE
  5
340
102
{ACAD_REACTORS
330
332
102
}
330
332
100
AcDbScale
 70
     0
300
4:1
140
4.0
141
1.0
290
     0
  0
SCALE
  5
341
102
{ACAD_REACTORS
330
332
102
}
330
332
100
AcDbScale
 70
     0
300
8:1
140
8.0
141
1.0
290
     0
  0
SCALE
  5
342
102
{ACAD_REACTORS
330
332
102
}
330
332
100
AcDbScale
 70
     0
300
10:1
140
10.0
141
1.0
290
     0
  0
SCALE
  5
343
102
{ACAD_REACTORS
330
332
102
}
330
332
100
AcDbScale
 70
     0
300
100:1
140
100.0
141
1.0
290
     0
  0
SCALE
  5
344
102
{ACAD_REACTORS
330
332
102
}
330
332
100
AcDbScale
 70
     0
300
1/128" = 1'-0"
140
0.0078125
141
12.0
290
     0
  0
SCALE
  5
345
102
{ACAD_REACTORS
330
332
102
}
330
332
100
AcDbScale
 70
     0
300
1/64" = 1'-0"
140
0.015625
141
12.0
290
     0
  0
SCALE
  5
346
102
{ACAD_REACTORS
330
332
102
}
330
332
100
AcDbScale
 70
     0
300
1/32" = 1'-0"
140
0.03125
141
12.0
290
     0
  0
SCALE
  5
347
102
{ACAD_REACTORS
330
332
102
}
330
332
100
AcDbScale
 70
     0
300
1/16" = 1'-0"
140
0.0625
141
12.0
290
     0
  0
SCALE
  5
348
102
{ACAD_REACTORS
330
332
102
}
330
332
100
AcDbScale
 70
     0
300
3/32" = 1'-0"
140
0.09375
141
12.0
290
     0
  0
SCALE
  5
349
102
{ACAD_REACTORS
330
332
102
}
330
332
100
AcDbScale
 70
     0
300
1/8" = 1'-0"
140
0.125
141
12.0
290
     0
  0
SCALE
  5
34A
102
{ACAD_REACTORS
330
332
102
}
330
332
100
AcDbScale
 70
     0
300
3/16" = 1'-0"
140
0.1875
141
12.0
290
     0
  0
SCALE
  5
34B
102
{ACAD_REACTORS
330
332
102
}
330
332
100
AcDbScale
 70
     0
300
1/4" = 1'-0"
140
0.25
141
12.0
290
     0
  0
SCALE
  5
34C
102
{ACAD_REACTORS
330
332
102
}
330
332
100
AcDbScale
 70
     0
300
3/8" = 1'-0"
140
0.375
141
12.0
290
     0
  0
SCALE
  5
34D
102
{ACAD_REACTORS
330
332
102
}
330
332
100
AcDbScale
 70
     0
300
1/2" = 1'-0"
140
0.5
141
12.0
290
     0
  0
SCALE
  5
34E
102
{ACAD_REACTORS
330
332
102
}
330
332
100
AcDbScale
 70
     0
300
3/4" = 1'-0"
140
0.75
141
12.0
290
     0
  0
SCALE
  5
34F
102
{ACAD_REACTORS
330
332
102
}
330
332
100
AcDbScale
 70
     0
300
1" = 1'-0"
140
1.0
141
12.0
290
     0
  0
SCALE
  5
350
102
{ACAD_REACTORS
330
332
102
}
330
332
100
AcDbScale
 70
     0
300
1-1/2" = 1'-0"
140
1.5
141
12.0
290
     0
  0
SCALE
  5
351
102
{ACAD_REACTORS
330
332
102
}
330
332
100
AcDbScale
 70
     0
300
3" = 1'-0"
140
3.0
141
12.0
290
     0
  0
SCALE
  5
352
102
{ACAD_REACTORS
330
332
102
}
330
332
100
AcDbScale
 70
     0
300
6" = 1'-0"
140
6.0
141
12.0
290
     0
  0
SCALE
  5
353
102
{ACAD_REACTORS
330
332
102
}
330
332
100
AcDbScale
 70
     0
300
1'-0" = 1'-0"
140
12.0
141
12.0
290
     0
  0
TABLESTYLE
  5
1238
102
{ACAD_XDICTIONARY
360
1239
102
}
102
{ACAD_REACTORS
330
2C6
102
}
330
2C6
100
AcDbTableStyle
  3
Standard
 70
     1
 71
     0
 40
1.5
 41
1.5
280
     1
281
     0
  7
ROMANS
140
3.0
170
     5
 62
     7
 63
     7
283
     0
274
    -2
284
     1
 64
     0
275
    -2
285
     1
 65
     0
276
    -2
286
     1
 66
     0
277
    -2
287
     1
 67
     0
278
    -2
288
     1
 68
     0
279
    -2
289
     1
 69
     0
  7
ROMANS
140
6.0
170
     5
 62
     1
 63
     7
283
     0
274
    -2
284
     1
 64
     0
275
    -2
285
     1
 65
     0
276
    -2
286
     1
 66
     0
277
    -2
287
     1
 67
     0
278
    -2
288
     1
 68
     0
279
    -2
289
     1
 69
     0
  7
ROMANS
140
3.5
170
     5
 62
     3
 63
     7
283
     0
274
    -2
284
     1
 64
     0
275
    -2
285
     1
 65
     0
276
    -2
286
     1
 66
     0
277
    -2
287
     1
 67
     0
278
    -2
288
     1
 68
     0
279
    -2
289
     1
 69
     0
  0
TABLESTYLE
  5
123A
102
{ACAD_XDICTIONARY
360
123B
102
}
102
{ACAD_REACTORS
330
2C6
102
}
330
2C6
100
AcDbTableStyle
  3
Standard
 70
     0
 71
     0
 40
1.5
 41
1.5
280
     0
281
     0
  7
ROMANS
140
4.5
170
     5
 62
     7
 63
     7
283
     0
274
    -2
284
     1
 64
     0
275
    -2
285
     1
 65
     0
276
    -2
286
     1
 66
     0
277
    -2
287
     1
 67
     0
278
    -2
288
     1
 68
     0
279
    -2
289
     1
 69
     0
  7
ROMANS
140
6.0
170
     5
 62
     1
 63
     7
283
     0
274
    -2
284
     1
 64
     0
275
    -2
285
     1
 65
     0
276
    -2
286
     1
 66
     0
277
    -2
287
     1
 67
     0
278
    -2
288
     1
 68
     0
279
    -2
289
     1
 69
     0
  7
ROMANS
140
5.0
170
     5
 62
     3
 63
     7
283
     0
274
    -2
284
     1
 64
     0
275
    -2
285
     1
 65
     0
276
    -2
286
     1
 66
     0
277
    -2
287
     1
 67
     0
278
    -2
288
     1
 68
     0
279
    -2
289
     1
 69
     0
  0
TABLESTYLE
  5
2C7
102
{ACAD_XDICTIONARY
360
362
102
}
102
{ACAD_REACTORS
330
2C6
102
}
330
2C6
100
AcDbTableStyle
  3
Standard
 70
     0
 71
     0
 40
1.5
 41
1.5
280
     0
281
     0
  7
STANDARD
140
4.5
170
     2
 62
     0
 63
     7
283
     0
274
    -2
284
     1
 64
     0
275
    -2
285
     1
 65
     0
276
    -2
286
     1
 66
     0
277
    -2
287
     1
 67
     0
278
    -2
288
     1
 68
     0
279
    -2
289
     1
 69
     0
  7
STANDARD
140
6.0
170
     5
 62
     0
 63
     7
283
     0
274
    -2
284
     1
 64
     0
275
    -2
285
     1
 65
     0
276
    -2
286
     1
 66
     0
277
    -2
287
     1
 67
     0
278
    -2
288
     1
 68
     0
279
    -2
289
     1
 69
     0
  7
STANDARD
140
4.5
170
     5
 62
     0
 63
     7
283
     0
274
    -2
284
     1
 64
     0
275
    -2
285
     1
 65
     0
276
    -2
286
     1
 66
     0
277
    -2
287
     1
 67
     0
278
    -2
288
     1
 68
     0
279
    -2
289
     1
 69
     0
  0
VISUALSTYLE
  5
2BA
102
{ACAD_XDICTIONARY
360
12CC
102
}
102
{ACAD_REACTORS
330
2B4
102
}
330
2B4
100
AcDbVisualStyle
  2
2dWireframe
 70
     4
 71
     0
 72
     2
 73
     0
 90
        0
 40
-0.6
 41
-30.0
 62
     5
 63
     7
 74
     1
 91
        4
 64
     7
 65
   257
 75
     1
175
     1
 42
1.0
 92
        0
 66
   257
 43
1.0
 76
     1
 77
     6
 78
     2
 67
     7
 79
     5
170
     0
171
     0
290
     0
174
     0
 93
        1
 44
0.0
173
     0
291
     0
 45
0.0
1001
ACAD
1000
AcDbSavedByObjectVersion
1070
     0
  0
VISUALSTYLE
  5
2BC
102
{ACAD_XDICTIONARY
360
12D0
102
}
102
{ACAD_REACTORS
330
2B4
102
}
330
2B4
100
AcDbVisualStyle
  2
3D Hidden
 70
     6
 71
     1
 72
     2
 73
     2
 90
        0
 40
-0.6
 41
-30.0
 62
     5
 63
     7
 74
     2
 91
        2
 64
     7
 65
   257
 75
     2
175
     1
 42
40.0
 92
        0
 66
   257
 43
1.0
 76
     1
 77
     6
 78
     2
 67
     7
 79
     3
170
     0
171
     0
290
     0
174
     0
 93
        1
 44
0.0
173
     0
291
     0
 45
0.0
1001
ACAD
1000
AcDbSavedByObjectVersion
1070
     0
  0
VISUALSTYLE
  5
2BB
102
{ACAD_XDICTIONARY
360
12CE
102
}
102
{ACAD_REACTORS
330
2B4
102
}
330
2B4
100
AcDbVisualStyle
  2
3dWireframe
 70
     5
 71
     0
 72
     2
 73
     0
 90
        0
 40
-0.6
 41
-30.0
 62
     5
 63
     7
 74
     1
 91
        4
 64
     7
 65
   257
 75
     1
175
     1
 42
1.0
 92
        0
 66
   257
 43
1.0
 76
     1
 77
     6
 78
     2
 67
     7
 79
     5
170
     0
171
     0
290
     0
174
     0
 93
        1
 44
0.0
173
     0
291
     0
 45
0.0
1001
ACAD
1000
AcDbSavedByObjectVersion
1070
     0
  0
VISUALSTYLE
  5
2B9
102
{ACAD_XDICTIONARY
360
12CA
102
}
102
{ACAD_REACTORS
330
2B4
102
}
330
2B4
100
AcDbVisualStyle
  2
Basic
 70
     7
 71
     1
 72
     0
 73
     1
 90
        0
 40
-0.6
 41
-30.0
 62
     5
 63
     7
 74
     0
 91
        4
 64
     7
 65
   257
 75
     1
175
     1
 42
1.0
 92
        8
 66
     7
 43
1.0
 76
     1
 77
     6
 78
     2
 67
     7
 79
     5
170
     0
171
     0
290
     0
174
     0
 93
        1
 44
0.0
173
     0
291
     1
 45
0.0
1001
ACAD
1000
AcDbSavedByObjectVersion
1070
     0
  0
VISUALSTYLE
  5
2C0
102
{ACAD_XDICTIONARY
360
12D8
102
}
102
{ACAD_REACTORS
330
2B4
102
}
330
2B4
100
AcDbVisualStyle
  2
Brighten
 70
    12
 71
     2
 72
     2
 73
     0
 90
        0
 40
-0.6
 41
-30.0
 62
     5
 63
     7
 74
     1
 91
        4
 64
     7
 65
   257
 75
     1
175
     1
 42
1.0
 92
        8
 66
     7
 43
1.0
 76
     1
 77
     6
 78
     2
 67
     7
 79
     5
170
     0
171
     0
290
     0
174
     0
 93
        1
 44
50.0
173
     0
291
     1
 45
0.0
1001
ACAD
1000
AcDbSavedByObjectVersion
1070
     0
  0
VISUALSTYLE
  5
2C4
102
{ACAD_XDICTIONARY
360
12E0
102
}
102
{ACAD_REACTORS
330
2B4
102
}
330
2B4
100
AcDbVisualStyle
  2
ColorChange
 70
    16
 71
     2
 72
     2
 73
     3
 90
        0
 40
-0.6
 41
-30.0
 62
     5
 63
     8
 74
     1
 91
        4
 64
     7
 65
   257
 75
     1
175
     1
 42
1.0
 92
        8
 66
     8
 43
1.0
 76
     1
 77
     6
 78
     2
 67
     7
 79
     5
170
     0
171
     0
290
     0
174
     0
 93
        1
 44
0.0
173
     0
291
     1
 45
0.0
1001
ACAD
1000
AcDbSavedByObjectVersion
1070
     0
  0
VISUALSTYLE
  5
2BD
102
{ACAD_XDICTIONARY
360
12D2
102
}
102
{ACAD_REACTORS
330
2B4
102
}
330
2B4
100
AcDbVisualStyle
  2
Conceptual
 70
     9
 71
     3
 72
     2
 73
     0
 90
        0
 40
-0.6
 41
-30.0
 62
     5
 63
     7
 74
     2
 91
        2
 64
     7
 65
   257
 75
     1
175
     1
 42
40.0
 92
        8
 66
     7
 43
1.0
 76
     1
 77
     6
 78
     2
 67
     7
 79
     3
170
     0
171
     0
290
     0
174
     0
 93
        1
 44
0.0
173
     0
291
     0
 45
0.0
1001
ACAD
1000
AcDbSavedByObjectVersion
1070
     0
  0
VISUALSTYLE
  5
2BF
102
{ACAD_XDICTIONARY
360
12D6
102
}
102
{ACAD_REACTORS
330
2B4
102
}
330
2B4
100
AcDbVisualStyle
  2
Dim
 70
    11
 71
     2
 72
     2
 73
     0
 90
        0
 40
-0.6
 41
-30.0
 62
     5
 63
     7
 74
     1
 91
        4
 64
     7
 65
   257
 75
     1
175
     1
 42
1.0
 92
        8
 66
     7
 43
1.0
 76
     1
 77
     6
 78
     2
 67
     7
 79
     5
170
     0
171
     0
290
     0
174
     0
 93
        1
 44
-50.0
173
     0
291
     1
 45
0.0
1001
ACAD
1000
AcDbSavedByObjectVersion
1070
     0
  0
VISUALSTYLE
  5
128C
102
{ACAD_XDICTIONARY
360
1301
102
}
102
{ACAD_REACTORS
330
2B4
102
}
330
2B4
100
AcDbVisualStyle
  2
EdgeColorOff
 70
    22
 71
     2
 72
     2
 73
     0
 90
        0
 40
-0.6
 41
-30.0
 62
     5
 63
     7
 74
     1
 91
        4
 64
     7
 65
   257
 75
     1
175
     1
 42
1.0
 92
        8
 66
     7
 43
1.0
 76
     1
 77
     6
 78
     2
 67
     7
 79
     5
170
     0
171
     0
290
     0
174
     0
 93
        1
 44
0.0
173
     0
291
     1
 45
0.0
1001
ACAD
1000
AcDbSavedByObjectVersion
1070
     0
  0
VISUALSTYLE
  5
2C3
102
{ACAD_XDICTIONARY
360
12DE
102
}
102
{ACAD_REACTORS
330
2B4
102
}
330
2B4
100
AcDbVisualStyle
  2
Facepattern
 70
    15
 71
     2
 72
     2
 73
     0
 90
        0
 40
-0.6
 41
-30.0
 62
     5
 63
     7
 74
     1
 91
        4
 64
     7
 65
   257
 75
     1
175
     1
 42
1.0
 92
        8
 66
     7
 43
1.0
 76
     1
 77
     6
 78
     2
 67
     7
 79
     5
170
     0
171
     0
290
     0
174
     0
 93
        1
 44
0.0
173
     0
291
     1
 45
0.0
1001
ACAD
1000
AcDbSavedByObjectVersion
1070
     0
  0
VISUALSTYLE
  5
2B5
102
{ACAD_XDICTIONARY
360
12C2
102
}
102
{ACAD_REACTORS
330
2B4
102
}
330
2B4
100
AcDbVisualStyle
  2
Flat
 70
     0
 71
     2
 72
     1
 73
     1
 90
        2
 40
-0.6
 41
30.0
 62
     5
 63
     7
 74
     0
 91
        4
 64
     7
 65
   257
 75
     1
175
     1
 42
1.0
 92
        8
 66
     7
 43
1.0
 76
     1
 77
     6
 78
     2
 67
     7
 79
     5
170
     0
171
     0
290
     0
174
     0
 93
       13
 44
0.0
173
     0
291
     1
 45
0.0
1001
ACAD
1000
AcDbSavedByObjectVersion
1070
     0
  0
VISUALSTYLE
  5
2B6
102
{ACAD_XDICTIONARY
360
12C4
102
}
102
{ACAD_REACTORS
330
2B4
102
}
330
2B4
100
AcDbVisualStyle
  2
FlatWithEdges
 70
     1
 71
     2
 72
     1
 73
     1
 90
        2
 40
-0.6
 41
30.0
 62
     5
 63
     7
 74
     1
 91
        4
 64
     7
 65
   257
 75
     1
175
     1
 42
1.0
 92
        0
 66
   257
 43
1.0
 76
     1
 77
     6
 78
     2
 67
     7
 79
     5
170
     0
171
     0
290
     0
174
     0
 93
       13
 44
0.0
173
     0
291
     1
 45
0.0
1001
ACAD
1000
AcDbSavedByObjectVersion
1070
     0
  0
VISUALSTYLE
  5
2B7
102
{ACAD_XDICTIONARY
360
12C6
102
}
102
{ACAD_REACTORS
330
2B4
102
}
330
2B4
100
AcDbVisualStyle
  2
Gouraud
 70
     2
 71
     2
 72
     2
 73
     1
 90
        2
 40
-0.6
 41
30.0
 62
     5
 63
     7
 74
     0
 91
        4
 64
     7
 65
   257
 75
     1
175
     1
 42
1.0
 92
        0
 66
     7
 43
1.0
 76
     1
 77
     6
 78
     2
 67
     7
 79
     5
170
     0
171
     0
290
     0
174
     0
 93
       13
 44
0.0
173
     0
291
     1
 45
0.0
1001
ACAD
1000
AcDbSavedByObjectVersion
1070
     0
  0
VISUALSTYLE
  5
2B8
102
{ACAD_XDICTIONARY
360
12C8
102
}
102
{ACAD_REACTORS
330
2B4
102
}
330
2B4
100
AcDbVisualStyle
  2
GouraudWithEdges
 70
     3
 71
     2
 72
     2
 73
     1
 90
        2
 40
-0.6
 41
30.0
 62
     5
 63
     7
 74
     1
 91
        4
 64
     7
 65
   257
 75
     1
175
     1
 42
1.0
 92
        0
 66
   257
 43
1.0
 76
     1
 77
     6
 78
     2
 67
     7
 79
     5
170
     0
171
     0
290
     0
174
     0
 93
       13
 44
0.0
173
     0
291
     1
 45
0.0
1001
ACAD
1000
AcDbSavedByObjectVersion
1070
     0
  0
VISUALSTYLE
  5
1284
102
{ACAD_XDICTIONARY
360
12F1
102
}
102
{ACAD_REACTORS
330
2B4
102
}
330
2B4
100
AcDbVisualStyle
  2
Hidden
 70
     6
 71
     1
 72
     2
 73
     2
 90
        0
 40
-0.6
 41
-30.0
 62
     5
 63
     7
 74
     2
 91
        2
 64
     7
 65
   257
 75
     2
175
     1
 42
40.0
 92
        0
 66
   257
 43
1.0
 76
     1
 77
     6
 78
     2
 67
     7
 79
     3
170
     0
171
     0
290
     0
174
     0
 93
        1
 44
0.0
173
     0
291
     0
 45
0.0
1001
ACAD
1000
AcDbSavedByObjectVersion
1070
     0
  0
VISUALSTYLE
  5
128A
102
{ACAD_XDICTIONARY
360
12FD
102
}
102
{ACAD_REACTORS
330
2B4
102
}
330
2B4
100
AcDbVisualStyle
  2
JitterOff
 70
    20
 71
     2
 72
     2
 73
     0
 90
        0
 40
-0.6
 41
-30.0
 62
     5
 63
     7
 74
     1
 91
        4
 64
     7
 65
   257
 75
     1
175
     1
 42
1.0
 92
       10
 66
     7
 43
1.0
 76
     1
 77
     6
 78
     2
 67
     7
 79
     5
170
     0
171
     0
290
     0
174
     0
 93
        1
 44
0.0
173
     0
291
     1
 45
0.0
1001
ACAD
1000
AcDbSavedByObjectVersion
1070
     0
  0
VISUALSTYLE
  5
2C2
102
{ACAD_XDICTIONARY
360
12DC
102
}
102
{ACAD_REACTORS
330
2B4
102
}
330
2B4
100
AcDbVisualStyle
  2
Linepattern
 70
    14
 71
     2
 72
     2
 73
     0
 90
        0
 40
-0.6
 41
-30.0
 62
     5
 63
     7
 74
     1
 91
        4
 64
     7
 65
   257
 75
     7
175
     7
 42
1.0
 92
        8
 66
     7
 43
1.0
 76
     1
 77
     6
 78
     2
 67
     7
 79
     5
170
     0
171
     0
290
     0
174
     0
 93
        1
 44
0.0
173
     0
291
     1
 45
0.0
1001
ACAD
1000
AcDbSavedByObjectVersion
1070
     0
  0
VISUALSTYLE
  5
128B
102
{ACAD_XDICTIONARY
360
12FF
102
}
102
{ACAD_REACTORS
330
2B4
102
}
330
2B4
100
AcDbVisualStyle
  2
OverhangOff
 70
    21
 71
     2
 72
     2
 73
     0
 90
        0
 40
-0.6
 41
-30.0
 62
     5
 63
     7
 74
     1
 91
        4
 64
     7
 65
   257
 75
     1
175
     1
 42
1.0
 92
        9
 66
     7
 43
1.0
 76
     1
 77
     6
 78
     2
 67
     7
 79
     5
170
     0
171
     0
290
     0
174
     0
 93
        1
 44
0.0
173
     0
291
     1
 45
0.0
1001
ACAD
1000
AcDbSavedByObjectVersion
1070
     0
  0
VISUALSTYLE
  5
2BE
102
{ACAD_XDICTIONARY
360
12D4
102
}
102
{ACAD_REACTORS
330
2B4
102
}
330
2B4
100
AcDbVisualStyle
  2
Realistic
 70
     8
 71
     2
 72
     2
 73
     0
 90
        0
 40
-0.6
 41
-30.0
 62
     5
 63
     7
 74
     1
 91
        0
 64
     7
 65
   257
 75
     1
175
     1
 42
1.0
 92
        8
 66
     8
 43
1.0
 76
     1
 77
     6
 78
     2
 67
     7
 79
     5
170
     0
171
     0
290
     0
174
     0
 93
       13
 44
0.0
173
     0
291
     0
 45
0.0
1001
ACAD
1000
AcDbSavedByObjectVersion
1070
     0
  0
VISUALSTYLE
  5
1289
102
{ACAD_XDICTIONARY
360
12FB
102
}
102
{ACAD_REACTORS
330
2B4
102
}
330
2B4
100
AcDbVisualStyle
  2
Shaded
 70
    27
 71
     2
 72
     2
 73
     1
 90
        2
 40
-0.6
 41
30.0
 62
     5
 63
     7
 74
     0
 91
        4
 64
     7
 65
   257
 75
     1
175
     1
 42
1.0
 92
        8
 66
   257
 43
1.0
 76
     1
 77
     6
 78
     2
 67
     8
 79
     3
170
     0
171
     0
290
     0
174
     0
 93
        5
 44
0.0
173
     0
291
     0
 45
0.0
1001
ACAD
1000
AcDbSavedByObjectVersion
1070
     0
  0
VISUALSTYLE
  5
1288
102
{ACAD_XDICTIONARY
360
12F9
102
}
102
{ACAD_REACTORS
330
2B4
102
}
330
2B4
100
AcDbVisualStyle
  2
Shaded with edges
 70
    26
 71
     2
 72
     2
 73
     1
 90
        2
 40
-0.6
 41
30.0
 62
     5
 63
     7
 74
     1
 91
       10
 64
     7
 65
   257
 75
     2
175
     1
 42
1.0
 92
        8
 66
   257
 43
1.0
 76
     1
 77
     6
 78
     2
 67
     7
 79
     3
170
     0
171
     0
290
     0
174
     0
 93
        5
 44
0.0
173
     0
291
     0
 45
0.0
1001
ACAD
1000
AcDbSavedByObjectVersion
1070
     0
  0
VISUALSTYLE
  5
1285
102
{ACAD_XDICTIONARY
360
12F3
102
}
102
{ACAD_REACTORS
330
2B4
102
}
330
2B4
100
AcDbVisualStyle
  2
Shades of Gray
 70
    23
 71
     2
 72
     2
 73
     3
 90
        0
 40
-0.6
 41
-30.0
 62
     5
 63
     7
 74
     2
 91
        2
 64
     7
 65
     7
 75
     1
175
     1
 42
40.0
 92
        8
 66
     7
 43
1.0
 76
     1
 77
     6
 78
     2
 67
     7
 79
     3
170
     0
171
     0
290
     0
174
     0
 93
        1
 44
0.0
173
     0
291
     0
 45
0.0
1001
ACAD
1000
AcDbSavedByObjectVersion
1070
     0
  0
VISUALSTYLE
  5
1286
102
{ACAD_XDICTIONARY
360
12F5
102
}
102
{ACAD_REACTORS
330
2B4
102
}
330
2B4
100
AcDbVisualStyle
  2
Sketchy
 70
    24
 71
     1
 72
     2
 73
     2
 90
        0
 40
-0.6
 41
-30.0
 62
     5
 63
     7
 74
     2
 91
        2
 64
     7
 65
     7
 75
     1
175
     1
 42
40.0
 92
       11
 66
     7
 43
1.0
 76
     1
 77
     6
 78
     2
 67
     7
 79
     6
170
     0
171
     0
290
     0
174
     0
 93
        1
 44
0.0
173
     0
291
     0
 45
0.0
1001
ACAD
1000
AcDbSavedByObjectVersion
1070
     0
  0
VISUALSTYLE
  5
2C1
102
{ACAD_XDICTIONARY
360
12DA
102
}
102
{ACAD_REACTORS
330
2B4
102
}
330
2B4
100
AcDbVisualStyle
  2
Thicken
 70
    13
 71
     2
 72
     2
 73
     0
 90
        0
 40
-0.6
 41
-30.0
 62
     5
 63
     7
 74
     1
 91
        4
 64
     7
 65
   257
 75
     1
175
     1
 42
1.0
 92
       12
 66
     7
 43
1.0
 76
     1
 77
     6
 78
     2
 67
     7
 79
     5
170
     0
171
     0
290
     0
174
     0
 93
        1
 44
0.0
173
     0
291
     1
 45
0.0
1001
ACAD
1000
AcDbSavedByObjectVersion
1070
     0
  0
VISUALSTYLE
  5
1283
102
{ACAD_XDICTIONARY
360
12EF
102
}
102
{ACAD_REACTORS
330
2B4
102
}
330
2B4
100
AcDbVisualStyle
  2
Wireframe
 70
     5
 71
     0
 72
     2
 73
     0
 90
        0
 40
-0.6
 41
-30.0
 62
     5
 63
     7
 74
     1
 91
        4
 64
     7
 65
   257
 75
     1
175
     1
 42
1.0
 92
        0
 66
   257
 43
1.0
 76
     1
 77
     6
 78
     2
 67
     7
 79
     3
170
     0
171
     0
290
     0
174
     0
 93
        1
 44
0.0
173
     0
291
     0
 45
0.0
1001
ACAD
1000
AcDbSavedByObjectVersion
1070
     0
  0
VISUALSTYLE
  5
1287
102
{ACAD_XDICTIONARY
360
12F7
102
}
102
{ACAD_REACTORS
330
2B4
102
}
330
2B4
100
AcDbVisualStyle
  2
X-Ray
 70
    25
 71
     2
 72
     2
 73
     1
 90
        1
 40
0.5
 41
-30.0
 62
     5
 63
     7
 74
     1
 91
        0
 64
     7
 65
   257
 75
     1
175
     1
 42
1.0
 92
        8
 66
     7
 43
1.0
 76
     1
 77
     6
 78
     2
 67
     7
 79
     3
170
     0
171
     0
290
     0
174
     0
 93
       13
 44
0.0
173
     0
291
     0
 45
0.0
1001
ACAD
1000
AcDbSavedByObjectVersion
1070
     0
  0
DICTIONARYVAR
  5
36B
102
{ACAD_REACTORS
330
2AA
102
}
330
2AA
100
DictionaryVariables
280
     0
  1
1:1
  0
DICTIONARYVAR
  5
369
102
{ACAD_REACTORS
330
2AA
102
}
330
2AA
100
DictionaryVariables
280
     0
  1
STANDARD
  0
DICTIONARYVAR
  5
312
102
{ACAD_REACTORS
330
2AA
102
}
330
2AA
100
DictionaryVariables
280
     0
  1
STANDARD
  0
DICTIONARYVAR
  5
2AB
102
{ACAD_REACTORS
330
2AA
102
}
330
2AA
100
DictionaryVariables
280
     0
  1
2
  0
DICTIONARYVAR
  5
D09
102
{ACAD_REACTORS
330
2AA
102
}
330
2AA
100
DictionaryVariables
280
     0
  1
0
  0
DICTIONARYVAR
  5
314
102
{ACAD_REACTORS
330
2AA
102
}
330
2AA
100
DictionaryVariables
280
     0
  1
0
  0
DICTIONARYVAR
  5
D0B
102
{ACAD_REACTORS
330
2AA
102
}
330
2AA
100
DictionaryVariables
280
     0
  1
1
  0
DICTIONARYVAR
  5
D0C
102
{ACAD_REACTORS
330
2AA
102
}
330
2AA
100
DictionaryVariables
280
     0
  1
15
  0
DICTIONARYVAR
  5
36C
102
{ACAD_REACTORS
330
2AA
102
}
330
2AA
100
DictionaryVariables
280
     0
  1
0
  0
DICTIONARYVAR
  5
D0A
102
{ACAD_REACTORS
330
2AA
102
}
330
2AA
100
DictionaryVariables
280
     0
  1
10.000000
  0
DICTIONARYVAR
  5
36A
102
{ACAD_REACTORS
330
2AA
102
}
330
2AA
100
DictionaryVariables
280
     0
  1
0
  0
DICTIONARYVAR
  5
313
102
{ACAD_REACTORS
330
2AA
102
}
330
2AA
100
DictionaryVariables
280
     0
  1
127
  0
DICTIONARYVAR
  5
12B0
102
{ACAD_REACTORS
330
2AA
102
}
330
2AA
100
DictionaryVariables
280
     0
  1
0
  0
XRECORD
  5
51
102
{ACAD_REACTORS
330
50
102
}
330
50
100
AcDbXrecord
280
     1
 91
        0
  0
ACAD_PROXY_OBJECT
  5
6DA
102
{ACAD_REACTORS
330
6D9
102
}
330
6D9
100
AcDbProxyObject
 90
      499
 91
      512
 95
  3276827
 70
     0
 93
      153
310
407907440045004600410055004C0054007A00CC
 94
        0
1001
ACAD
1000
AcRTDxfName
1000
ACDBQSCATEGORY
  0
ACAD_PROXY_OBJECT
  5
769
102
{ACAD_REACTORS
330
768
102
}
330
768
100
AcDbProxyObject
 90
      499
 91
      515
 95
  3276827
 70
     0
 93
     2908
310
40B520280D55480A0281203520280A0280C0000000000000A200000000000000448080C00000000000019200000000000000688120280A0280A0E88008A008C008200AA009800A80082280027802980170020E88008A008C008200AA009800A80080A180202860120C86009E008800920086008A008A220024802680228027
310
00298024802780270024802F8022002480268018801680220024802680190024EA2007400B800A200A600BE00A4008A00A8008A00B80082009A00840092008A009C00A8009200B800A8009E00A000BE00880092008A00A400A4008A00B800A8008200840060005C008800AE008E0095A8801D002E00288029802F802900228
310
02A0022802E002080268021002480228027002A0024802E002A00278028002F802200248022802900290022802E002A00278028002F802800208026002600170022002B80238020C86009E008800920086008A0085A200228029802180290024802D00248027802700228050413C
 94
        0
1001
ACAD
1000
AcRTDxfName
1000
ACDBQSPALLSTYLE
  0
XRECORD
  5
127E
102
{ACAD_REACTORS
330
1279
102
}
330
1279
100
AcDbXrecord
280
     1
  9
X726a
  0
XRECORD
  5
127C
102
{ACAD_REACTORS
330
1279
102
}
330
1279
100
AcDbXrecord
280
     1
  2
PIEDE SNODATO P. 38 PA D102 M16x195 ZN
  3
P-3A19
  6
X726a
280
     1
310
6465736372697A696F6E6500504945444520534E4F4441544F20502E2033382050412044313032204D313678313935205A4E00444154410031392F31312F30390064697365676E61746F7265004D6172636F20412E00717461003100554D004E520052455600300024736F7572636500416E61677261666963612047657374696F6E616C6500434F444943450058433330333230004D4154455249414C450041495349333034004445534352495A494F4E453200303036430000
 10
-1732.92514035655
 20
4486.647180817944
 30
0.0
  0
XRECORD
  5
127D
102
{ACAD_REACTORS
330
1279
102
}
330
1279
100
AcDbXrecord
280
     1
  2
.cart
  3
P-6448
  6
X726a
280
     1
310
6465736372697A696F6E65002E6361727400444154410031392F31312F30390064697365676E61746F7265004D6172636F20412E00717461003100554D004E52005245560030005343414C4100313A31300000
 10
0.0
 20
0.0
 30
0.0
  0
XRECORD
  5
127B
102
{ACAD_REACTORS
330
1279
102
}
330
1279
100
AcDbXrecord
280
     1
  2
.1
  3
P-73B7
  6
X726a
280
     1
310
6465736372697A696F6E65002E3100444154410031392F31312F30390064697365676E61746F7265004D6172636F20412E00717461003100554D004E520052455600300000
 10
0.0
 20
0.0
 30
0.0
  0
XRECORD
  5
127A
102
{ACAD_REACTORS
330
1279
102
}
330
1279
100
AcDbXrecord
280
     1
  2
PIEDE SNODATO M16 D.102x195/FE ZN
  3
P-0000
280
     1
310
6465736372697A696F6E6500504945444520534E4F4441544F204D313620442E313032783139352F4645205A4E00444154410031392F31312F303900554D004E520052455600300044495345474E41544F5245004D6172636F20412E005343414C4100313A3130005452415454414D454E5449005A494E434154555241005154410031004D4154455249414C4500464500434F444943450058433330333230002E666D7400330000
 10
0.0
 20
0.0
 30
0.0
  0
XRECORD
  5
6E1
102
{ACAD_REACTORS
330
6E0
102
}
330
6E0
100
AcDbXrecord
280
     1
 90
      202
 91
      144
  0
DICTIONARY
  5
12BA
330
48
100
AcDbDictionary
280
     1
281
     1
  3
ACAD_XREC_ROUNDTRIP
360
12BB
  0
DICTIONARY
  5
12B8
330
47
100
AcDbDictionary
280
     1
281
     1
  3
ACAD_XREC_ROUNDTRIP
360
12B9
  0
DICTIONARY
  5
12BE
330
2B2
100
AcDbDictionary
280
     1
281
     1
  3
ACAD_XREC_ROUNDTRIP
360
12BF
  0
DICTIONARY
  5
12BC
330
2B1
100
AcDbDictionary
280
     1
281
     1
  3
ACAD_XREC_ROUNDTRIP
360
12BD
  0
DICTIONARY
  5
12C0
330
2B3
100
AcDbDictionary
280
     1
281
     1
  3
ACAD_XREC_ROUNDTRIP
360
12C1
  0
DICTIONARY
  5
12E5
330
1262
100
AcDbDictionary
280
     1
281
     1
  3
ACAD_XREC_ROUNDTRIP
360
12E6
  0
DICTIONARY
  5
12E7
330
1263
100
AcDbDictionary
280
     1
281
     1
  3
ACAD_XREC_ROUNDTRIP
360
12E8
  0
DICTIONARY
  5
12E9
330
1264
100
AcDbDictionary
280
     1
281
     1
  3
ACAD_XREC_ROUNDTRIP
360
12EA
  0
DICTIONARY
  5
12EB
330
1265
100
AcDbDictionary
280
     1
281
     1
  3
ACAD_XREC_ROUNDTRIP
360
12EC
  0
DICTIONARY
  5
12ED
330
1266
100
AcDbDictionary
280
     1
281
     1
  3
ACAD_XREC_ROUNDTRIP
360
12EE
  0
DICTIONARY
  5
1239
330
1238
100
AcDbDictionary
280
     1
281
     1
  3
ACAD_ROUNDTRIP_2008_TABLESTYLE_CELLSTYLEMAP
360
12B2
  3
ACAD_XREC_ROUNDTRIP
360
12E3
  0
DICTIONARY
  5
123B
330
123A
100
AcDbDictionary
280
     1
281
     1
  3
ACAD_ROUNDTRIP_2008_TABLESTYLE_CELLSTYLEMAP
360
12B3
  3
ACAD_XREC_ROUNDTRIP
360
12E4
  0
DICTIONARY
  5
362
330
2C7
100
AcDbDictionary
280
     1
281
     1
  3
ACAD_ROUNDTRIP_2008_TABLESTYLE_CELLSTYLEMAP
360
12B1
  3
ACAD_XREC_ROUNDTRIP
360
12E2
  0
DICTIONARY
  5
12CC
330
2BA
100
AcDbDictionary
280
     1
281
     1
  3
ACAD_XREC_ROUNDTRIP
360
12CD
  0
DICTIONARY
  5
12D0
330
2BC
100
AcDbDictionary
280
     1
281
     1
  3
ACAD_XREC_ROUNDTRIP
360
12D1
  0
DICTIONARY
  5
12CE
330
2BB
100
AcDbDictionary
280
     1
281
     1
  3
ACAD_XREC_ROUNDTRIP
360
12CF
  0
DICTIONARY
  5
12CA
330
2B9
100
AcDbDictionary
280
     1
281
     1
  3
ACAD_XREC_ROUNDTRIP
360
12CB
  0
DICTIONARY
  5
12D8
330
2C0
100
AcDbDictionary
280
     1
281
     1
  3
ACAD_XREC_ROUNDTRIP
360
12D9
  0
DICTIONARY
  5
12E0
330
2C4
100
AcDbDictionary
280
     1
281
     1
  3
ACAD_XREC_ROUNDTRIP
360
12E1
  0
DICTIONARY
  5
12D2
330
2BD
100
AcDbDictionary
280
     1
281
     1
  3
ACAD_XREC_ROUNDTRIP
360
12D3
  0
DICTIONARY
  5
12D6
330
2BF
100
AcDbDictionary
280
     1
281
     1
  3
ACAD_XREC_ROUNDTRIP
360
12D7
  0
DICTIONARY
  5
1301
330
128C
100
AcDbDictionary
280
     1
281
     1
  3
ACAD_XREC_ROUNDTRIP
360
1302
  0
DICTIONARY
  5
12DE
330
2C3
100
AcDbDictionary
280
     1
281
     1
  3
ACAD_XREC_ROUNDTRIP
360
12DF
  0
DICTIONARY
  5
12C2
330
2B5
100
AcDbDictionary
280
     1
281
     1
  3
ACAD_XREC_ROUNDTRIP
360
12C3
  0
DICTIONARY
  5
12C4
330
2B6
100
AcDbDictionary
280
     1
281
     1
  3
ACAD_XREC_ROUNDTRIP
360
12C5
  0
DICTIONARY
  5
12C6
330
2B7
100
AcDbDictionary
280
     1
281
     1
  3
ACAD_XREC_ROUNDTRIP
360
12C7
  0
DICTIONARY
  5
12C8
330
2B8
100
AcDbDictionary
280
     1
281
     1
  3
ACAD_XREC_ROUNDTRIP
360
12C9
  0
DICTIONARY
  5
12F1
330
1284
100
AcDbDictionary
280
     1
281
     1
  3
ACAD_XREC_ROUNDTRIP
360
12F2
  0
DICTIONARY
  5
12FD
330
128A
100
AcDbDictionary
280
     1
281
     1
  3
ACAD_XREC_ROUNDTRIP
360
12FE
  0
DICTIONARY
  5
12DC
330
2C2
100
AcDbDictionary
280
     1
281
     1
  3
ACAD_XREC_ROUNDTRIP
360
12DD
  0
DICTIONARY
  5
12FF
330
128B
100
AcDbDictionary
280
     1
281
     1
  3
ACAD_XREC_ROUNDTRIP
360
1300
  0
DICTIONARY
  5
12D4
330
2BE
100
AcDbDictionary
280
     1
281
     1
  3
ACAD_XREC_ROUNDTRIP
360
12D5
  0
DICTIONARY
  5
12FB
330
1289
100
AcDbDictionary
280
     1
281
     1
  3
ACAD_XREC_ROUNDTRIP
360
12FC
  0
DICTIONARY
  5
12F9
330
1288
100
AcDbDictionary
280
     1
281
     1
  3
ACAD_XREC_ROUNDTRIP
360
12FA
  0
DICTIONARY
  5
12F3
330
1285
100
AcDbDictionary
280
     1
281
     1
  3
ACAD_XREC_ROUNDTRIP
360
12F4
  0
DICTIONARY
  5
12F5
330
1286
100
AcDbDictionary
280
     1
281
     1
  3
ACAD_XREC_ROUNDTRIP
360
12F6
  0
DICTIONARY
  5
12DA
330
2C1
100
AcDbDictionary
280
     1
281
     1
  3
ACAD_XREC_ROUNDTRIP
360
12DB
  0
DICTIONARY
  5
12EF
330
1283
100
AcDbDictionary
280
     1
281
     1
  3
ACAD_XREC_ROUNDTRIP
360
12F0
  0
DICTIONARY
  5
12F7
330
1287
100
AcDbDictionary
280
     1
281
     1
  3
ACAD_XREC_ROUNDTRIP
360
12F8
  0
XRECORD
  5
12BB
102
{ACAD_REACTORS
330
12BA
102
}
330
12BA
100
AcDbXrecord
280
     1
102
SHADEPLOT
 70
     0
102
SHADEPLOTRESLEVEL
 70
     2
102
SHADEPLOTCUSTOMDPI
 70
   300
  0
XRECORD
  5
12B9
102
{ACAD_REACTORS
330
12B8
102
}
330
12B8
100
AcDbXrecord
280
     1
102
SHADEPLOT
 70
     0
102
SHADEPLOTRESLEVEL
 70
     2
102
SHADEPLOTCUSTOMDPI
 70
   300
  0
XRECORD
  5
12BF
102
{ACAD_REACTORS
330
12BE
102
}
330
12BE
100
AcDbXrecord
280
     1
102
MATERIAL
148
0.0
149
0.0
149
0.0
 93
        0
 94
       63
282
     0
 72
     1
 77
     1
171
     1
175
     1
179
     1
273
     0
  0
XRECORD
  5
12BD
102
{ACAD_REACTORS
330
12BC
102
}
330
12BC
100
AcDbXrecord
280
     1
102
MATERIAL
148
0.0
149
0.0
149
0.0
 93
        0
 94
       63
282
     0
 72
     1
 77
     1
171
     1
175
     1
179
     1
273
     0
  0
XRECORD
  5
12C1
102
{ACAD_REACTORS
330
12C0
102
}
330
12C0
100
AcDbXrecord
280
     1
102
MATERIAL
148
0.0
149
0.0
149
0.0
 93
        0
 94
       63
282
     0
 72
     1
 77
     1
171
     1
175
     1
179
     1
273
     0
  0
XRECORD
  5
12E6
102
{ACAD_REACTORS
330
12E5
102
}
330
12E5
100
AcDbXrecord
280
     1
102
SHADEPLOT
 70
     0
102
SHADEPLOTRESLEVEL
 70
     2
102
SHADEPLOTCUSTOMDPI
 70
   300
  0
XRECORD
  5
12E8
102
{ACAD_REACTORS
330
12E7
102
}
330
12E7
100
AcDbXrecord
280
     1
102
SHADEPLOT
 70
     0
102
SHADEPLOTRESLEVEL
 70
     2
102
SHADEPLOTCUSTOMDPI
 70
   300
  0
XRECORD
  5
12EA
102
{ACAD_REACTORS
330
12E9
102
}
330
12E9
100
AcDbXrecord
280
     1
102
SHADEPLOT
 70
     0
102
SHADEPLOTRESLEVEL
 70
     2
102
SHADEPLOTCUSTOMDPI
 70
   300
  0
XRECORD
  5
12EC
102
{ACAD_REACTORS
330
12EB
102
}
330
12EB
100
AcDbXrecord
280
     1
102
SHADEPLOT
 70
     0
102
SHADEPLOTRESLEVEL
 70
     2
102
SHADEPLOTCUSTOMDPI
 70
   300
  0
XRECORD
  5
12EE
102
{ACAD_REACTORS
330
12ED
102
}
330
12ED
100
AcDbXrecord
280
     1
102
SHADEPLOT
 70
     0
102
SHADEPLOTRESLEVEL
 70
     2
102
SHADEPLOTCUSTOMDPI
 70
   300
  0
CELLSTYLEMAP
  5
12B2
102
{ACAD_REACTORS
330
1239
102
}
330
1239
100
AcDbCellStyleMap
 90
        3
300
CELLSTYLE
  1
TABLEFORMAT_BEGIN
 90
        5
170
     1
 91
        0
 92
    32768
 62
   257
 93
        1
300
CONTENTFORMAT
  1
CONTENTFORMAT_BEGIN
 90
        0
 91
        0
 92
      512
 93
        0
300

 40
0.0
140
1.0
 94
        5
 62
     1
340
1B
144
6.0
309
CONTENTFORMAT_END
171
     1
301
MARGIN
  1
CELLMARGIN_BEGIN
 40
1.5
 40
1.5
 40
1.5
 40
1.5
 40
0.18
 40
0.18
309
CELLMARGIN_END
 94
        6
 95
        1
302
GRIDFORMAT
  1
GRIDFORMAT_BEGIN
 90
        0
 91
        1
 62
     0
 92
       -2
340
0
 93
        0
 40
0.045
309
GRIDFORMAT_END
 95
        2
302
GRIDFORMAT
  1
GRIDFORMAT_BEGIN
 90
        0
 91
        1
 62
     0
 92
       -2
340
0
 93
        0
 40
0.045
309
GRIDFORMAT_END
 95
        4
302
GRIDFORMAT
  1
GRIDFORMAT_BEGIN
 90
        0
 91
        1
 62
     0
 92
       -2
340
0
 93
        0
 40
0.045
309
GRIDFORMAT_END
 95
        8
302
GRIDFORMAT
  1
GRIDFORMAT_BEGIN
 90
        0
 91
        1
 62
     0
 92
       -2
340
0
 93
        0
 40
0.045
309
GRIDFORMAT_END
 95
       16
302
GRIDFORMAT
  1
GRIDFORMAT_BEGIN
 90
        0
 91
        1
 62
     0
 92
       -2
340
0
 93
        0
 40
0.045
309
GRIDFORMAT_END
 95
       32
302
GRIDFORMAT
  1
GRIDFORMAT_BEGIN
 90
        0
 91
        1
 62
     0
 92
       -2
340
0
 93
        0
 40
0.045
309
GRIDFORMAT_END
309
TABLEFORMAT_END
  1
CELLSTYLE_BEGIN
 90
        1
 91
        1
300
_TITLE
309
CELLSTYLE_END
300
CELLSTYLE
  1
TABLEFORMAT_BEGIN
 90
        5
170
     1
 91
        0
 92
        0
 62
   257
 93
        1
300
CONTENTFORMAT
  1
CONTENTFORMAT_BEGIN
 90
        0
 91
        0
 92
      512
 93
        0
300

 40
0.0
140
1.0
 94
        5
 62
     3
340
1B
144
3.5
309
CONTENTFORMAT_END
171
     1
301
MARGIN
  1
CELLMARGIN_BEGIN
 40
1.5
 40
1.5
 40
1.5
 40
1.5
 40
0.18
 40
0.18
309
CELLMARGIN_END
 94
        6
 95
        1
302
GRIDFORMAT
  1
GRIDFORMAT_BEGIN
 90
        0
 91
        1
 62
     0
 92
       -2
340
0
 93
        0
 40
0.045
309
GRIDFORMAT_END
 95
        2
302
GRIDFORMAT
  1
GRIDFORMAT_BEGIN
 90
        0
 91
        1
 62
     0
 92
       -2
340
0
 93
        0
 40
0.045
309
GRIDFORMAT_END
 95
        4
302
GRIDFORMAT
  1
GRIDFORMAT_BEGIN
 90
        0
 91
        1
 62
     0
 92
       -2
340
0
 93
        0
 40
0.045
309
GRIDFORMAT_END
 95
        8
302
GRIDFORMAT
  1
GRIDFORMAT_BEGIN
 90
        0
 91
        1
 62
     0
 92
       -2
340
0
 93
        0
 40
0.045
309
GRIDFORMAT_END
 95
       16
302
GRIDFORMAT
  1
GRIDFORMAT_BEGIN
 90
        0
 91
        1
 62
     0
 92
       -2
340
0
 93
        0
 40
0.045
309
GRIDFORMAT_END
 95
       32
302
GRIDFORMAT
  1
GRIDFORMAT_BEGIN
 90
        0
 91
        1
 62
     0
 92
       -2
340
0
 93
        0
 40
0.045
309
GRIDFORMAT_END
309
TABLEFORMAT_END
  1
CELLSTYLE_BEGIN
 90
        2
 91
        1
300
_HEADER
309
CELLSTYLE_END
300
CELLSTYLE
  1
TABLEFORMAT_BEGIN
 90
        5
170
     1
 91
        0
 92
        0
 62
   257
 93
        1
300
CONTENTFORMAT
  1
CONTENTFORMAT_BEGIN
 90
        0
 91
        0
 92
      512
 93
        0
300

 40
0.0
140
1.0
 94
        5
 62
     7
340
1B
144
3.0
309
CONTENTFORMAT_END
171
     1
301
MARGIN
  1
CELLMARGIN_BEGIN
 40
1.5
 40
1.5
 40
1.5
 40
1.5
 40
0.18
 40
0.18
309
CELLMARGIN_END
 94
        6
 95
        1
302
GRIDFORMAT
  1
GRIDFORMAT_BEGIN
 90
        0
 91
        1
 62
     0
 92
       -2
340
0
 93
        0
 40
0.045
309
GRIDFORMAT_END
 95
        2
302
GRIDFORMAT
  1
GRIDFORMAT_BEGIN
 90
        0
 91
        1
 62
     0
 92
       -2
340
0
 93
        0
 40
0.045
309
GRIDFORMAT_END
 95
        4
302
GRIDFORMAT
  1
GRIDFORMAT_BEGIN
 90
        0
 91
        1
 62
     0
 92
       -2
340
0
 93
        0
 40
0.045
309
GRIDFORMAT_END
 95
        8
302
GRIDFORMAT
  1
GRIDFORMAT_BEGIN
 90
        0
 91
        1
 62
     0
 92
       -2
340
0
 93
        0
 40
0.045
309
GRIDFORMAT_END
 95
       16
302
GRIDFORMAT
  1
GRIDFORMAT_BEGIN
 90
        0
 91
        1
 62
     0
 92
       -2
340
0
 93
        0
 40
0.045
309
GRIDFORMAT_END
 95
       32
302
GRIDFORMAT
  1
GRIDFORMAT_BEGIN
 90
        0
 91
        1
 62
     0
 92
       -2
340
0
 93
        0
 40
0.045
309
GRIDFORMAT_END
309
TABLEFORMAT_END
  1
CELLSTYLE_BEGIN
 90
        3
 91
        2
300
_DATA
309
CELLSTYLE_END
  0
XRECORD
  5
12E3
102
{ACAD_REACTORS
330
1239
102
}
330
1239
100
AcDbXrecord
280
     1
102
ACAD_ROUNDTRIP_PRE2007_TABLESTYLE
 90
      512
 91
        0
  1

 92
      512
 93
        0
  2

 94
      512
 95
        0
  3

  0
CELLSTYLEMAP
  5
12B3
102
{ACAD_REACTORS
330
123B
102
}
330
123B
100
AcDbCellStyleMap
 90
        3
300
CELLSTYLE
  1
TABLEFORMAT_BEGIN
 90
        5
170
     1
 91
        0
 92
    32768
 62
   257
 93
        1
300
CONTENTFORMAT
  1
CONTENTFORMAT_BEGIN
 90
        0
 91
        0
 92
      512
 93
        0
300

 40
0.0
140
1.0
 94
        5
 62
     1
340
1B
144
6.0
309
CONTENTFORMAT_END
171
     1
301
MARGIN
  1
CELLMARGIN_BEGIN
 40
1.5
 40
1.5
 40
1.5
 40
1.5
 40
0.18
 40
0.18
309
CELLMARGIN_END
 94
        6
 95
        1
302
GRIDFORMAT
  1
GRIDFORMAT_BEGIN
 90
        0
 91
        1
 62
     0
 92
       -2
340
0
 93
        0
 40
0.045
309
GRIDFORMAT_END
 95
        2
302
GRIDFORMAT
  1
GRIDFORMAT_BEGIN
 90
        0
 91
        1
 62
     0
 92
       -2
340
0
 93
        0
 40
0.045
309
GRIDFORMAT_END
 95
        4
302
GRIDFORMAT
  1
GRIDFORMAT_BEGIN
 90
        0
 91
        1
 62
     0
 92
       -2
340
0
 93
        0
 40
0.045
309
GRIDFORMAT_END
 95
        8
302
GRIDFORMAT
  1
GRIDFORMAT_BEGIN
 90
        0
 91
        1
 62
     0
 92
       -2
340
0
 93
        0
 40
0.045
309
GRIDFORMAT_END
 95
       16
302
GRIDFORMAT
  1
GRIDFORMAT_BEGIN
 90
        0
 91
        1
 62
     0
 92
       -2
340
0
 93
        0
 40
0.045
309
GRIDFORMAT_END
 95
       32
302
GRIDFORMAT
  1
GRIDFORMAT_BEGIN
 90
        0
 91
        1
 62
     0
 92
       -2
340
0
 93
        0
 40
0.045
309
GRIDFORMAT_END
309
TABLEFORMAT_END
  1
CELLSTYLE_BEGIN
 90
        1
 91
        1
300
_TITLE
309
CELLSTYLE_END
300
CELLSTYLE
  1
TABLEFORMAT_BEGIN
 90
        5
170
     1
 91
        0
 92
        0
 62
   257
 93
        1
300
CONTENTFORMAT
  1
CONTENTFORMAT_BEGIN
 90
        0
 91
        0
 92
      512
 93
        0
300

 40
0.0
140
1.0
 94
        5
 62
     3
340
1B
144
5.0
309
CONTENTFORMAT_END
171
     1
301
MARGIN
  1
CELLMARGIN_BEGIN
 40
1.5
 40
1.5
 40
1.5
 40
1.5
 40
0.18
 40
0.18
309
CELLMARGIN_END
 94
        6
 95
        1
302
GRIDFORMAT
  1
GRIDFORMAT_BEGIN
 90
        0
 91
        1
 62
     0
 92
       -2
340
0
 93
        0
 40
0.045
309
GRIDFORMAT_END
 95
        2
302
GRIDFORMAT
  1
GRIDFORMAT_BEGIN
 90
        0
 91
        1
 62
     0
 92
       -2
340
0
 93
        0
 40
0.045
309
GRIDFORMAT_END
 95
        4
302
GRIDFORMAT
  1
GRIDFORMAT_BEGIN
 90
        0
 91
        1
 62
     0
 92
       -2
340
0
 93
        0
 40
0.045
309
GRIDFORMAT_END
 95
        8
302
GRIDFORMAT
  1
GRIDFORMAT_BEGIN
 90
        0
 91
        1
 62
     0
 92
       -2
340
0
 93
        0
 40
0.045
309
GRIDFORMAT_END
 95
       16
302
GRIDFORMAT
  1
GRIDFORMAT_BEGIN
 90
        0
 91
        1
 62
     0
 92
       -2
340
0
 93
        0
 40
0.045
309
GRIDFORMAT_END
 95
       32
302
GRIDFORMAT
  1
GRIDFORMAT_BEGIN
 90
        0
 91
        1
 62
     0
 92
       -2
340
0
 93
        0
 40
0.045
309
GRIDFORMAT_END
309
TABLEFORMAT_END
  1
CELLSTYLE_BEGIN
 90
        2
 91
        1
300
_HEADER
309
CELLSTYLE_END
300
CELLSTYLE
  1
TABLEFORMAT_BEGIN
 90
        5
170
     1
 91
        0
 92
        0
 62
   257
 93
        1
300
CONTENTFORMAT
  1
CONTENTFORMAT_BEGIN
 90
        0
 91
        0
 92
      512
 93
        0
300

 40
0.0
140
1.0
 94
        5
 62
     7
340
1B
144
4.5
309
CONTENTFORMAT_END
171
     1
301
MARGIN
  1
CELLMARGIN_BEGIN
 40
1.5
 40
1.5
 40
1.5
 40
1.5
 40
0.18
 40
0.18
309
CELLMARGIN_END
 94
        6
 95
        1
302
GRIDFORMAT
  1
GRIDFORMAT_BEGIN
 90
        0
 91
        1
 62
     0
 92
       -2
340
0
 93
        0
 40
0.045
309
GRIDFORMAT_END
 95
        2
302
GRIDFORMAT
  1
GRIDFORMAT_BEGIN
 90
        0
 91
        1
 62
     0
 92
       -2
340
0
 93
        0
 40
0.045
309
GRIDFORMAT_END
 95
        4
302
GRIDFORMAT
  1
GRIDFORMAT_BEGIN
 90
        0
 91
        1
 62
     0
 92
       -2
340
0
 93
        0
 40
0.045
309
GRIDFORMAT_END
 95
        8
302
GRIDFORMAT
  1
GRIDFORMAT_BEGIN
 90
        0
 91
        1
 62
     0
 92
       -2
340
0
 93
        0
 40
0.045
309
GRIDFORMAT_END
 95
       16
302
GRIDFORMAT
  1
GRIDFORMAT_BEGIN
 90
        0
 91
        1
 62
     0
 92
       -2
340
0
 93
        0
 40
0.045
309
GRIDFORMAT_END
 95
       32
302
GRIDFORMAT
  1
GRIDFORMAT_BEGIN
 90
        0
 91
        1
 62
     0
 92
       -2
340
0
 93
        0
 40
0.045
309
GRIDFORMAT_END
309
TABLEFORMAT_END
  1
CELLSTYLE_BEGIN
 90
        3
 91
        2
300
_DATA
309
CELLSTYLE_END
  0
XRECORD
  5
12E4
102
{ACAD_REACTORS
330
123B
102
}
330
123B
100
AcDbXrecord
280
     1
102
ACAD_ROUNDTRIP_PRE2007_TABLESTYLE
 90
      512
 91
        0
  1

 92
      512
 93
        0
  2

 94
      512
 95
        0
  3

  0
CELLSTYLEMAP
  5
12B1
102
{ACAD_REACTORS
330
362
102
}
330
362
100
AcDbCellStyleMap
 90
        3
300
CELLSTYLE
  1
TABLEFORMAT_BEGIN
 90
        5
170
     1
 91
        0
 92
    32768
 62
   257
 93
        1
300
CONTENTFORMAT
  1
CONTENTFORMAT_BEGIN
 90
        0
 91
        0
 92
      512
 93
        0
300

 40
0.0
140
1.0
 94
        5
 62
     0
340
C
144
6.0
309
CONTENTFORMAT_END
171
     1
301
MARGIN
  1
CELLMARGIN_BEGIN
 40
1.5
 40
1.5
 40
1.5
 40
1.5
 40
0.18
 40
0.18
309
CELLMARGIN_END
 94
        6
 95
        1
302
GRIDFORMAT
  1
GRIDFORMAT_BEGIN
 90
        0
 91
        1
 62
     0
 92
       -2
340
0
 93
        0
 40
0.045
309
GRIDFORMAT_END
 95
        2
302
GRIDFORMAT
  1
GRIDFORMAT_BEGIN
 90
        0
 91
        1
 62
     0
 92
       -2
340
0
 93
        0
 40
0.045
309
GRIDFORMAT_END
 95
        4
302
GRIDFORMAT
  1
GRIDFORMAT_BEGIN
 90
        0
 91
        1
 62
     0
 92
       -2
340
0
 93
        0
 40
0.045
309
GRIDFORMAT_END
 95
        8
302
GRIDFORMAT
  1
GRIDFORMAT_BEGIN
 90
        0
 91
        1
 62
     0
 92
       -2
340
0
 93
        0
 40
0.045
309
GRIDFORMAT_END
 95
       16
302
GRIDFORMAT
  1
GRIDFORMAT_BEGIN
 90
        0
 91
        1
 62
     0
 92
       -2
340
0
 93
        0
 40
0.045
309
GRIDFORMAT_END
 95
       32
302
GRIDFORMAT
  1
GRIDFORMAT_BEGIN
 90
        0
 91
        1
 62
     0
 92
       -2
340
0
 93
        0
 40
0.045
309
GRIDFORMAT_END
309
TABLEFORMAT_END
  1
CELLSTYLE_BEGIN
 90
        1
 91
        1
300
_TITLE
309
CELLSTYLE_END
300
CELLSTYLE
  1
TABLEFORMAT_BEGIN
 90
        5
170
     1
 91
        0
 92
        0
 62
   257
 93
        1
300
CONTENTFORMAT
  1
CONTENTFORMAT_BEGIN
 90
        0
 91
        0
 92
      512
 93
        0
300

 40
0.0
140
1.0
 94
        5
 62
     0
340
C
144
4.5
309
CONTENTFORMAT_END
171
     1
301
MARGIN
  1
CELLMARGIN_BEGIN
 40
1.5
 40
1.5
 40
1.5
 40
1.5
 40
0.18
 40
0.18
309
CELLMARGIN_END
 94
        6
 95
        1
302
GRIDFORMAT
  1
GRIDFORMAT_BEGIN
 90
        0
 91
        1
 62
     0
 92
       -2
340
0
 93
        0
 40
0.045
309
GRIDFORMAT_END
 95
        2
302
GRIDFORMAT
  1
GRIDFORMAT_BEGIN
 90
        0
 91
        1
 62
     0
 92
       -2
340
0
 93
        0
 40
0.045
309
GRIDFORMAT_END
 95
        4
302
GRIDFORMAT
  1
GRIDFORMAT_BEGIN
 90
        0
 91
        1
 62
     0
 92
       -2
340
0
 93
        0
 40
0.045
309
GRIDFORMAT_END
 95
        8
302
GRIDFORMAT
  1
GRIDFORMAT_BEGIN
 90
        0
 91
        1
 62
     0
 92
       -2
340
0
 93
        0
 40
0.045
309
GRIDFORMAT_END
 95
       16
302
GRIDFORMAT
  1
GRIDFORMAT_BEGIN
 90
        0
 91
        1
 62
     0
 92
       -2
340
0
 93
        0
 40
0.045
309
GRIDFORMAT_END
 95
       32
302
GRIDFORMAT
  1
GRIDFORMAT_BEGIN
 90
        0
 91
        1
 62
     0
 92
       -2
340
0
 93
        0
 40
0.045
309
GRIDFORMAT_END
309
TABLEFORMAT_END
  1
CELLSTYLE_BEGIN
 90
        2
 91
        1
300
_HEADER
309
CELLSTYLE_END
300
CELLSTYLE
  1
TABLEFORMAT_BEGIN
 90
        5
170
     1
 91
        0
 92
        0
 62
   257
 93
        1
300
CONTENTFORMAT
  1
CONTENTFORMAT_BEGIN
 90
        0
 91
        0
 92
      512
 93
        0
300

 40
0.0
140
1.0
 94
        2
 62
     0
340
C
144
4.5
309
CONTENTFORMAT_END
171
     1
301
MARGIN
  1
CELLMARGIN_BEGIN
 40
1.5
 40
1.5
 40
1.5
 40
1.5
 40
0.18
 40
0.18
309
CELLMARGIN_END
 94
        6
 95
        1
302
GRIDFORMAT
  1
GRIDFORMAT_BEGIN
 90
        0
 91
        1
 62
     0
 92
       -2
340
0
 93
        0
 40
0.045
309
GRIDFORMAT_END
 95
        2
302
GRIDFORMAT
  1
GRIDFORMAT_BEGIN
 90
        0
 91
        1
 62
     0
 92
       -2
340
0
 93
        0
 40
0.045
309
GRIDFORMAT_END
 95
        4
302
GRIDFORMAT
  1
GRIDFORMAT_BEGIN
 90
        0
 91
        1
 62
     0
 92
       -2
340
0
 93
        0
 40
0.045
309
GRIDFORMAT_END
 95
        8
302
GRIDFORMAT
  1
GRIDFORMAT_BEGIN
 90
        0
 91
        1
 62
     0
 92
       -2
340
0
 93
        0
 40
0.045
309
GRIDFORMAT_END
 95
       16
302
GRIDFORMAT
  1
GRIDFORMAT_BEGIN
 90
        0
 91
        1
 62
     0
 92
       -2
340
0
 93
        0
 40
0.045
309
GRIDFORMAT_END
 95
       32
302
GRIDFORMAT
  1
GRIDFORMAT_BEGIN
 90
        0
 91
        1
 62
     0
 92
       -2
340
0
 93
        0
 40
0.045
309
GRIDFORMAT_END
309
TABLEFORMAT_END
  1
CELLSTYLE_BEGIN
 90
        3
 91
        2
300
_DATA
309
CELLSTYLE_END
  0
XRECORD
  5
12E2
102
{ACAD_REACTORS
330
362
102
}
330
362
100
AcDbXrecord
280
     1
102
ACAD_ROUNDTRIP_PRE2007_TABLESTYLE
 90
      512
 91
        0
  1

 92
      512
 93
        0
  2

 94
      512
 95
        0
  3

  0
XRECORD
  5
12CD
102
{ACAD_REACTORS
330
12CC
102
}
330
12CC
100
AcDbXrecord
280
     1
102
RTVSPropertyOp0
 70
     1
102
RTVSPropertyOp1
 70
     1
102
RTVSPropertyOp2
 70
     1
102
RTVSPropertyOp3
 70
     1
102
RTVSPropertyOp4
 70
     1
102
RTVSPropertyOp5
 70
     1
102
RTVSPropertyOp6
 70
     1
102
RTVSPropertyOp7
 70
     1
102
RTVSPropertyOp8
 70
     1
102
RTVSPropertyOp9
 70
     1
102
RTVSPropertyOp10
 70
     1
102
RTVSPropertyOp11
 70
     1
102
RTVSPropertyOp12
 70
     1
102
RTVSPropertyOp13
 70
     1
102
RTVSPropertyOp14
 70
     1
102
RTVSPropertyOp15
 70
     1
102
RTVSPropertyOp16
 70
     1
102
RTVSPropertyOp17
 70
     1
102
RTVSPropertyOp18
 70
     1
102
RTVSPropertyOp19
 70
     1
102
RTVSPropertyOp20
 70
     1
102
RTVSPropertyOp21
 70
     1
102
RTVSPropertyOp22
 70
     1
102
RTVSPropertyOp23
 70
     1
102
RTVSPropertyOp24
 70
     1
102
RTVSPropertyOp25
 70
     1
102
RTVSPropertyOp26
 70
     1
102
RTVSPropertyOp27
 70
     1
102
RTVSPropertyOp28
 70
     1
102
RTVSPropertyOp29
 70
     1
102
RTVSPropertyOp30
 70
     1
102
RTVSPropertyOp31
 70
     1
102
RTVSPropertyOp32
 70
     1
  0
XRECORD
  5
12D1
102
{ACAD_REACTORS
330
12D0
102
}
330
12D0
100
AcDbXrecord
280
     1
102
RTVSPropertyOp0
 70
     1
102
RTVSPropertyOp1
 70
     1
102
RTVSPropertyOp2
 70
     1
102
RTVSPropertyOp3
 70
     1
102
RTVSPropertyOp4
 70
     1
102
RTVSPropertyOp5
 70
     1
102
RTVSPropertyOp6
 70
     1
102
RTVSPropertyOp7
 70
     1
102
RTVSPropertyOp8
 70
     1
102
RTVSPropertyOp9
 70
     1
102
RTVSPropertyOp10
 70
     1
102
RTVSPropertyOp11
 70
     1
102
RTVSPropertyOp12
 70
     1
102
RTVSPropertyOp13
 70
     1
102
RTVSPropertyOp14
 70
     1
102
RTVSPropertyOp15
 70
     1
102
RTVSPropertyOp16
 70
     1
102
RTVSPropertyOp17
 70
     1
102
RTVSPropertyOp18
 70
     1
102
RTVSPropertyOp19
 70
     1
102
RTVSPropertyOp20
 70
     1
102
RTVSPropertyOp21
 70
     1
102
RTVSPropertyOp22
 70
     1
102
RTVSPropertyOp23
 70
     1
102
RTVSPropertyOp24
 70
     1
102
RTVSPropertyOp25
 70
     1
102
RTVSPropertyOp26
 70
     1
102
RTVSPropertyOp27
 70
     1
102
RTVSPropertyOp28
 70
     1
102
RTVSPropertyOp29
 70
     1
102
RTVSPropertyOp30
 70
     1
102
RTVSPropertyOp31
 70
     1
102
RTVSPropertyOp32
 70
     1
  0
XRECORD
  5
12CF
102
{ACAD_REACTORS
330
12CE
102
}
330
12CE
100
AcDbXrecord
280
     1
102
RTVSPropertyOp0
 70
     1
102
RTVSPropertyOp1
 70
     1
102
RTVSPropertyOp2
 70
     1
102
RTVSPropertyOp3
 70
     1
102
RTVSPropertyOp4
 70
     1
102
RTVSPropertyOp5
 70
     1
102
RTVSPropertyOp6
 70
     1
102
RTVSPropertyOp7
 70
     1
102
RTVSPropertyOp8
 70
     1
102
RTVSPropertyOp9
 70
     1
102
RTVSPropertyOp10
 70
     1
102
RTVSPropertyOp11
 70
     1
102
RTVSPropertyOp12
 70
     1
102
RTVSPropertyOp13
 70
     1
102
RTVSPropertyOp14
 70
     1
102
RTVSPropertyOp15
 70
     1
102
RTVSPropertyOp16
 70
     1
102
RTVSPropertyOp17
 70
     1
102
RTVSPropertyOp18
 70
     1
102
RTVSPropertyOp19
 70
     1
102
RTVSPropertyOp20
 70
     1
102
RTVSPropertyOp21
 70
     1
102
RTVSPropertyOp22
 70
     1
102
RTVSPropertyOp23
 70
     1
102
RTVSPropertyOp24
 70
     1
102
RTVSPropertyOp25
 70
     1
102
RTVSPropertyOp26
 70
     1
102
RTVSPropertyOp27
 70
     1
102
RTVSPropertyOp28
 70
     1
102
RTVSPropertyOp29
 70
     1
102
RTVSPropertyOp30
 70
     1
102
RTVSPropertyOp31
 70
     1
102
RTVSPropertyOp32
 70
     1
  0
XRECORD
  5
12CB
102
{ACAD_REACTORS
330
12CA
102
}
330
12CA
100
AcDbXrecord
280
     1
102
RTVSPropertyOp0
 70
     1
102
RTVSPropertyOp1
 70
     1
102
RTVSPropertyOp2
 70
     1
102
RTVSPropertyOp3
 70
     1
102
RTVSPropertyOp4
 70
     1
102
RTVSPropertyOp5
 70
     1
102
RTVSPropertyOp6
 70
     1
102
RTVSPropertyOp7
 70
     1
102
RTVSPropertyOp8
 70
     1
102
RTVSPropertyOp9
 70
     1
102
RTVSPropertyOp10
 70
     1
102
RTVSPropertyOp11
 70
     1
102
RTVSPropertyOp12
 70
     1
102
RTVSPropertyOp13
 70
     1
102
RTVSPropertyOp14
 70
     1
102
RTVSPropertyOp15
 70
     1
102
RTVSPropertyOp16
 70
     1
102
RTVSPropertyOp17
 70
     1
102
RTVSPropertyOp18
 70
     1
102
RTVSPropertyOp19
 70
     1
102
RTVSPropertyOp20
 70
     1
102
RTVSPropertyOp21
 70
     1
102
RTVSPropertyOp22
 70
     1
102
RTVSPropertyOp23
 70
     1
102
RTVSPropertyOp24
 70
     1
102
RTVSPropertyOp25
 70
     1
102
RTVSPropertyOp26
 70
     1
102
RTVSPropertyOp27
 70
     1
102
RTVSPropertyOp28
 70
     1
102
RTVSPropertyOp29
 70
     1
102
RTVSPropertyOp30
 70
     1
102
RTVSPropertyOp31
 70
     1
102
RTVSPropertyOp32
 70
     1
  0
XRECORD
  5
12D9
102
{ACAD_REACTORS
330
12D8
102
}
330
12D8
100
AcDbXrecord
280
     1
102
RTVSPropertyOp0
 70
     1
102
RTVSPropertyOp1
 70
     1
102
RTVSPropertyOp2
 70
     1
102
RTVSPropertyOp3
 70
     1
102
RTVSPropertyOp4
 70
     1
102
RTVSPropertyOp5
 70
     1
102
RTVSPropertyOp6
 70
     1
102
RTVSPropertyOp7
 70
     1
102
RTVSPropertyOp8
 70
     1
102
RTVSPropertyOp9
 70
     1
102
RTVSPropertyOp10
 70
     1
102
RTVSPropertyOp11
 70
     1
102
RTVSPropertyOp12
 70
     1
102
RTVSPropertyOp13
 70
     1
102
RTVSPropertyOp14
 70
     1
102
RTVSPropertyOp15
 70
     1
102
RTVSPropertyOp16
 70
     1
102
RTVSPropertyOp17
 70
     1
102
RTVSPropertyOp18
 70
     1
102
RTVSPropertyOp19
 70
     1
102
RTVSPropertyOp20
 70
     1
102
RTVSPropertyOp21
 70
     1
102
RTVSPropertyOp22
 70
     1
102
RTVSPropertyOp23
 70
     1
102
RTVSPropertyOp24
 70
     1
102
RTVSPropertyOp25
 70
     1
102
RTVSPropertyOp26
 70
     1
102
RTVSPropertyOp27
 70
     1
102
RTVSPropertyOp28
 70
     1
102
RTVSPropertyOp29
 70
     1
102
RTVSPropertyOp30
 70
     1
102
RTVSPropertyOp31
 70
     1
102
RTVSPropertyOp32
 70
     1
  0
XRECORD
  5
12E1
102
{ACAD_REACTORS
330
12E0
102
}
330
12E0
100
AcDbXrecord
280
     1
102
RTVSPropertyOp0
 70
     1
102
RTVSPropertyOp1
 70
     1
102
RTVSPropertyOp2
 70
     1
102
RTVSPropertyOp3
 70
     1
102
RTVSPropertyOp4
 70
     1
102
RTVSPropertyOp5
 70
     1
102
RTVSPropertyOp6
 70
     1
102
RTVSPropertyOp7
 70
     1
102
RTVSPropertyOp8
 70
     1
102
RTVSPropertyOp9
 70
     1
102
RTVSPropertyOp10
 70
     1
102
RTVSPropertyOp11
 70
     1
102
RTVSPropertyOp12
 70
     1
102
RTVSPropertyOp13
 70
     1
102
RTVSPropertyOp14
 70
     1
102
RTVSPropertyOp15
 70
     1
102
RTVSPropertyOp16
 70
     1
102
RTVSPropertyOp17
 70
     1
102
RTVSPropertyOp18
 70
     1
102
RTVSPropertyOp19
 70
     1
102
RTVSPropertyOp20
 70
     1
102
RTVSPropertyOp21
 70
     1
102
RTVSPropertyOp22
 70
     1
102
RTVSPropertyOp23
 70
     1
102
RTVSPropertyOp24
 70
     1
102
RTVSPropertyOp25
 70
     1
102
RTVSPropertyOp26
 70
     1
102
RTVSPropertyOp27
 70
     1
102
RTVSPropertyOp28
 70
     1
102
RTVSPropertyOp29
 70
     1
102
RTVSPropertyOp30
 70
     1
102
RTVSPropertyOp31
 70
     1
102
RTVSPropertyOp32
 70
     1
  0
XRECORD
  5
12D3
102
{ACAD_REACTORS
330
12D2
102
}
330
12D2
100
AcDbXrecord
280
     1
102
RTVSPropertyOp0
 70
     1
102
RTVSPropertyOp1
 70
     1
102
RTVSPropertyOp2
 70
     1
102
RTVSPropertyOp3
 70
     1
102
RTVSPropertyOp4
 70
     1
102
RTVSPropertyOp5
 70
     1
102
RTVSPropertyOp6
 70
     1
102
RTVSPropertyOp7
 70
     1
102
RTVSPropertyOp8
 70
     1
102
RTVSPropertyOp9
 70
     1
102
RTVSPropertyOp10
 70
     1
102
RTVSPropertyOp11
 70
     1
102
RTVSPropertyOp12
 70
     1
102
RTVSPropertyOp13
 70
     1
102
RTVSPropertyOp14
 70
     1
102
RTVSPropertyOp15
 70
     1
102
RTVSPropertyOp16
 70
     1
102
RTVSPropertyOp17
 70
     1
102
RTVSPropertyOp18
 70
     1
102
RTVSPropertyOp19
 70
     1
102
RTVSPropertyOp20
 70
     1
102
RTVSPropertyOp21
 70
     1
102
RTVSPropertyOp22
 70
     1
102
RTVSPropertyOp23
 70
     1
102
RTVSPropertyOp24
 70
     1
102
RTVSPropertyOp25
 70
     1
102
RTVSPropertyOp26
 70
     1
102
RTVSPropertyOp27
 70
     1
102
RTVSPropertyOp28
 70
     1
102
RTVSPropertyOp29
 70
     1
102
RTVSPropertyOp30
 70
     1
102
RTVSPropertyOp31
 70
     1
102
RTVSPropertyOp32
 70
     1
  0
XRECORD
  5
12D7
102
{ACAD_REACTORS
330
12D6
102
}
330
12D6
100
AcDbXrecord
280
     1
102
RTVSPropertyOp0
 70
     1
102
RTVSPropertyOp1
 70
     1
102
RTVSPropertyOp2
 70
     1
102
RTVSPropertyOp3
 70
     1
102
RTVSPropertyOp4
 70
     1
102
RTVSPropertyOp5
 70
     1
102
RTVSPropertyOp6
 70
     1
102
RTVSPropertyOp7
 70
     1
102
RTVSPropertyOp8
 70
     1
102
RTVSPropertyOp9
 70
     1
102
RTVSPropertyOp10
 70
     1
102
RTVSPropertyOp11
 70
     1
102
RTVSPropertyOp12
 70
     1
102
RTVSPropertyOp13
 70
     1
102
RTVSPropertyOp14
 70
     1
102
RTVSPropertyOp15
 70
     1
102
RTVSPropertyOp16
 70
     1
102
RTVSPropertyOp17
 70
     1
102
RTVSPropertyOp18
 70
     1
102
RTVSPropertyOp19
 70
     1
102
RTVSPropertyOp20
 70
     1
102
RTVSPropertyOp21
 70
     1
102
RTVSPropertyOp22
 70
     1
102
RTVSPropertyOp23
 70
     1
102
RTVSPropertyOp24
 70
     1
102
RTVSPropertyOp25
 70
     1
102
RTVSPropertyOp26
 70
     1
102
RTVSPropertyOp27
 70
     1
102
RTVSPropertyOp28
 70
     1
102
RTVSPropertyOp29
 70
     1
102
RTVSPropertyOp30
 70
     1
102
RTVSPropertyOp31
 70
     1
102
RTVSPropertyOp32
 70
     1
  0
XRECORD
  5
1302
102
{ACAD_REACTORS
330
1301
102
}
330
1301
100
AcDbXrecord
280
     1
102
RTVSPropertyOp0
 70
     0
102
RTVSPropertyOp1
 70
     0
102
RTVSPropertyOp2
 70
     0
102
RTVSPropertyOp3
 70
     0
102
RTVSPropertyOp4
 70
     0
102
RTVSPropertyOp5
 70
     0
102
RTVSPropertyOp6
 70
     0
102
RTVSPropertyOp7
 70
     0
102
RTVSPropertyOp8
 70
     0
102
RTVSPropertyOp9
 70
     0
102
RTVSPropertyOp10
 70
     0
102
RTVSPropertyOp11
 70
     0
102
RTVSPropertyOp12
 70
     0
102
RTVSPropertyOp13
 70
     0
102
RTVSPropertyOp14
 70
     2
102
RTVSPropertyOp15
 70
     0
102
RTVSPropertyOp16
 70
     0
102
RTVSPropertyOp17
 70
     0
102
RTVSPropertyOp18
 70
     0
102
RTVSPropertyOp19
 70
     0
102
RTVSPropertyOp20
 70
     0
102
RTVSPropertyOp21
 70
     0
102
RTVSPropertyOp22
 70
     0
102
RTVSPropertyOp23
 70
     0
102
RTVSPropertyOp24
 70
     0
102
RTVSPropertyOp25
 70
     0
102
RTVSPropertyOp26
 70
     0
102
RTVSPropertyOp27
 70
     0
102
RTVSPropertyOp28
 70
     0
102
RTVSPropertyOp29
 70
     0
102
RTVSPropertyOp30
 70
     0
102
RTVSPropertyOp31
 70
     0
102
RTVSPropertyOp32
 70
     0
  0
XRECORD
  5
12DF
102
{ACAD_REACTORS
330
12DE
102
}
330
12DE
100
AcDbXrecord
280
     1
102
RTVSPropertyOp0
 70
     1
102
RTVSPropertyOp1
 70
     1
102
RTVSPropertyOp2
 70
     1
102
RTVSPropertyOp3
 70
     1
102
RTVSPropertyOp4
 70
     1
102
RTVSPropertyOp5
 70
     1
102
RTVSPropertyOp6
 70
     1
102
RTVSPropertyOp7
 70
     1
102
RTVSPropertyOp8
 70
     1
102
RTVSPropertyOp9
 70
     1
102
RTVSPropertyOp10
 70
     1
102
RTVSPropertyOp11
 70
     1
102
RTVSPropertyOp12
 70
     1
102
RTVSPropertyOp13
 70
     1
102
RTVSPropertyOp14
 70
     1
102
RTVSPropertyOp15
 70
     1
102
RTVSPropertyOp16
 70
     1
102
RTVSPropertyOp17
 70
     1
102
RTVSPropertyOp18
 70
     1
102
RTVSPropertyOp19
 70
     1
102
RTVSPropertyOp20
 70
     1
102
RTVSPropertyOp21
 70
     1
102
RTVSPropertyOp22
 70
     1
102
RTVSPropertyOp23
 70
     1
102
RTVSPropertyOp24
 70
     1
102
RTVSPropertyOp25
 70
     1
102
RTVSPropertyOp26
 70
     1
102
RTVSPropertyOp27
 70
     1
102
RTVSPropertyOp28
 70
     1
102
RTVSPropertyOp29
 70
     1
102
RTVSPropertyOp30
 70
     1
102
RTVSPropertyOp31
 70
     1
102
RTVSPropertyOp32
 70
     1
  0
XRECORD
  5
12C3
102
{ACAD_REACTORS
330
12C2
102
}
330
12C2
100
AcDbXrecord
280
     1
102
RTVSPropertyOp0
 70
     1
102
RTVSPropertyOp1
 70
     1
102
RTVSPropertyOp2
 70
     1
102
RTVSPropertyOp3
 70
     1
102
RTVSPropertyOp4
 70
     1
102
RTVSPropertyOp5
 70
     1
102
RTVSPropertyOp6
 70
     1
102
RTVSPropertyOp7
 70
     1
102
RTVSPropertyOp8
 70
     1
102
RTVSPropertyOp9
 70
     1
102
RTVSPropertyOp10
 70
     1
102
RTVSPropertyOp11
 70
     1
102
RTVSPropertyOp12
 70
     1
102
RTVSPropertyOp13
 70
     1
102
RTVSPropertyOp14
 70
     1
102
RTVSPropertyOp15
 70
     1
102
RTVSPropertyOp16
 70
     1
102
RTVSPropertyOp17
 70
     1
102
RTVSPropertyOp18
 70
     1
102
RTVSPropertyOp19
 70
     1
102
RTVSPropertyOp20
 70
     1
102
RTVSPropertyOp21
 70
     1
102
RTVSPropertyOp22
 70
     1
102
RTVSPropertyOp23
 70
     1
102
RTVSPropertyOp24
 70
     1
102
RTVSPropertyOp25
 70
     1
102
RTVSPropertyOp26
 70
     1
102
RTVSPropertyOp27
 70
     1
102
RTVSPropertyOp28
 70
     1
102
RTVSPropertyOp29
 70
     1
102
RTVSPropertyOp30
 70
     1
102
RTVSPropertyOp31
 70
     1
102
RTVSPropertyOp32
 70
     1
  0
XRECORD
  5
12C5
102
{ACAD_REACTORS
330
12C4
102
}
330
12C4
100
AcDbXrecord
280
     1
102
RTVSPropertyOp0
 70
     1
102
RTVSPropertyOp1
 70
     1
102
RTVSPropertyOp2
 70
     1
102
RTVSPropertyOp3
 70
     1
102
RTVSPropertyOp4
 70
     1
102
RTVSPropertyOp5
 70
     1
102
RTVSPropertyOp6
 70
     1
102
RTVSPropertyOp7
 70
     1
102
RTVSPropertyOp8
 70
     1
102
RTVSPropertyOp9
 70
     1
102
RTVSPropertyOp10
 70
     1
102
RTVSPropertyOp11
 70
     1
102
RTVSPropertyOp12
 70
     1
102
RTVSPropertyOp13
 70
     1
102
RTVSPropertyOp14
 70
     1
102
RTVSPropertyOp15
 70
     1
102
RTVSPropertyOp16
 70
     1
102
RTVSPropertyOp17
 70
     1
102
RTVSPropertyOp18
 70
     1
102
RTVSPropertyOp19
 70
     1
102
RTVSPropertyOp20
 70
     1
102
RTVSPropertyOp21
 70
     1
102
RTVSPropertyOp22
 70
     1
102
RTVSPropertyOp23
 70
     1
102
RTVSPropertyOp24
 70
     1
102
RTVSPropertyOp25
 70
     1
102
RTVSPropertyOp26
 70
     1
102
RTVSPropertyOp27
 70
     1
102
RTVSPropertyOp28
 70
     1
102
RTVSPropertyOp29
 70
     1
102
RTVSPropertyOp30
 70
     1
102
RTVSPropertyOp31
 70
     1
102
RTVSPropertyOp32
 70
     1
  0
XRECORD
  5
12C7
102
{ACAD_REACTORS
330
12C6
102
}
330
12C6
100
AcDbXrecord
280
     1
102
RTVSPropertyOp0
 70
     1
102
RTVSPropertyOp1
 70
     1
102
RTVSPropertyOp2
 70
     1
102
RTVSPropertyOp3
 70
     1
102
RTVSPropertyOp4
 70
     1
102
RTVSPropertyOp5
 70
     1
102
RTVSPropertyOp6
 70
     1
102
RTVSPropertyOp7
 70
     1
102
RTVSPropertyOp8
 70
     1
102
RTVSPropertyOp9
 70
     1
102
RTVSPropertyOp10
 70
     1
102
RTVSPropertyOp11
 70
     1
102
RTVSPropertyOp12
 70
     1
102
RTVSPropertyOp13
 70
     1
102
RTVSPropertyOp14
 70
     1
102
RTVSPropertyOp15
 70
     1
102
RTVSPropertyOp16
 70
     1
102
RTVSPropertyOp17
 70
     1
102
RTVSPropertyOp18
 70
     1
102
RTVSPropertyOp19
 70
     1
102
RTVSPropertyOp20
 70
     1
102
RTVSPropertyOp21
 70
     1
102
RTVSPropertyOp22
 70
     1
102
RTVSPropertyOp23
 70
     1
102
RTVSPropertyOp24
 70
     1
102
RTVSPropertyOp25
 70
     1
102
RTVSPropertyOp26
 70
     1
102
RTVSPropertyOp27
 70
     1
102
RTVSPropertyOp28
 70
     1
102
RTVSPropertyOp29
 70
     1
102
RTVSPropertyOp30
 70
     1
102
RTVSPropertyOp31
 70
     1
102
RTVSPropertyOp32
 70
     1
  0
XRECORD
  5
12C9
102
{ACAD_REACTORS
330
12C8
102
}
330
12C8
100
AcDbXrecord
280
     1
102
RTVSPropertyOp0
 70
     1
102
RTVSPropertyOp1
 70
     1
102
RTVSPropertyOp2
 70
     1
102
RTVSPropertyOp3
 70
     1
102
RTVSPropertyOp4
 70
     1
102
RTVSPropertyOp5
 70
     1
102
RTVSPropertyOp6
 70
     1
102
RTVSPropertyOp7
 70
     1
102
RTVSPropertyOp8
 70
     1
102
RTVSPropertyOp9
 70
     1
102
RTVSPropertyOp10
 70
     1
102
RTVSPropertyOp11
 70
     1
102
RTVSPropertyOp12
 70
     1
102
RTVSPropertyOp13
 70
     1
102
RTVSPropertyOp14
 70
     1
102
RTVSPropertyOp15
 70
     1
102
RTVSPropertyOp16
 70
     1
102
RTVSPropertyOp17
 70
     1
102
RTVSPropertyOp18
 70
     1
102
RTVSPropertyOp19
 70
     1
102
RTVSPropertyOp20
 70
     1
102
RTVSPropertyOp21
 70
     1
102
RTVSPropertyOp22
 70
     1
102
RTVSPropertyOp23
 70
     1
102
RTVSPropertyOp24
 70
     1
102
RTVSPropertyOp25
 70
     1
102
RTVSPropertyOp26
 70
     1
102
RTVSPropertyOp27
 70
     1
102
RTVSPropertyOp28
 70
     1
102
RTVSPropertyOp29
 70
     1
102
RTVSPropertyOp30
 70
     1
102
RTVSPropertyOp31
 70
     1
102
RTVSPropertyOp32
 70
     1
  0
XRECORD
  5
12F2
102
{ACAD_REACTORS
330
12F1
102
}
330
12F1
100
AcDbXrecord
280
     1
102
RTVSPropertyOp0
 70
     1
102
RTVSPropertyOp1
 70
     1
102
RTVSPropertyOp2
 70
     1
102
RTVSPropertyOp3
 70
     1
102
RTVSPropertyOp4
 70
     1
102
RTVSPropertyOp5
 70
     1
102
RTVSPropertyOp6
 70
     1
102
RTVSPropertyOp7
 70
     1
102
RTVSPropertyOp8
 70
     1
102
RTVSPropertyOp9
 70
     1
102
RTVSPropertyOp10
 70
     1
102
RTVSPropertyOp11
 70
     1
102
RTVSPropertyOp12
 70
     1
102
RTVSPropertyOp13
 70
     1
102
RTVSPropertyOp14
 70
     1
102
RTVSPropertyOp15
 70
     1
102
RTVSPropertyOp16
 70
     1
102
RTVSPropertyOp17
 70
     1
102
RTVSPropertyOp18
 70
     1
102
RTVSPropertyOp19
 70
     1
102
RTVSPropertyOp20
 70
     1
102
RTVSPropertyOp21
 70
     1
102
RTVSPropertyOp22
 70
     1
102
RTVSPropertyOp23
 70
     1
102
RTVSPropertyOp24
 70
     1
102
RTVSPropertyOp25
 70
     1
102
RTVSPropertyOp26
 70
     1
102
RTVSPropertyOp27
 70
     1
102
RTVSPropertyOp28
 70
     1
102
RTVSPropertyOp29
 70
     1
102
RTVSPropertyOp30
 70
     1
102
RTVSPropertyOp31
 70
     1
102
RTVSPropertyOp32
 70
     1
  0
XRECORD
  5
12FE
102
{ACAD_REACTORS
330
12FD
102
}
330
12FD
100
AcDbXrecord
280
     1
102
RTVSPropertyOp0
 70
     0
102
RTVSPropertyOp1
 70
     0
102
RTVSPropertyOp2
 70
     0
102
RTVSPropertyOp3
 70
     0
102
RTVSPropertyOp4
 70
     0
102
RTVSPropertyOp5
 70
     0
102
RTVSPropertyOp6
 70
     0
102
RTVSPropertyOp7
 70
     0
102
RTVSPropertyOp8
 70
     0
102
RTVSPropertyOp9
 70
     0
102
RTVSPropertyOp10
 70
     0
102
RTVSPropertyOp11
 70
     0
102
RTVSPropertyOp12
 70
     0
102
RTVSPropertyOp13
 70
     0
102
RTVSPropertyOp14
 70
     2
102
RTVSPropertyOp15
 70
     0
102
RTVSPropertyOp16
 70
     0
102
RTVSPropertyOp17
 70
     0
102
RTVSPropertyOp18
 70
     0
102
RTVSPropertyOp19
 70
     0
102
RTVSPropertyOp20
 70
     0
102
RTVSPropertyOp21
 70
     0
102
RTVSPropertyOp22
 70
     0
102
RTVSPropertyOp23
 70
     0
102
RTVSPropertyOp24
 70
     0
102
RTVSPropertyOp25
 70
     0
102
RTVSPropertyOp26
 70
     0
102
RTVSPropertyOp27
 70
     0
102
RTVSPropertyOp28
 70
     0
102
RTVSPropertyOp29
 70
     0
102
RTVSPropertyOp30
 70
     0
102
RTVSPropertyOp31
 70
     0
102
RTVSPropertyOp32
 70
     0
  0
XRECORD
  5
12DD
102
{ACAD_REACTORS
330
12DC
102
}
330
12DC
100
AcDbXrecord
280
     1
102
RTVSPropertyOp0
 70
     1
102
RTVSPropertyOp1
 70
     1
102
RTVSPropertyOp2
 70
     1
102
RTVSPropertyOp3
 70
     1
102
RTVSPropertyOp4
 70
     1
102
RTVSPropertyOp5
 70
     1
102
RTVSPropertyOp6
 70
     1
102
RTVSPropertyOp7
 70
     1
102
RTVSPropertyOp8
 70
     1
102
RTVSPropertyOp9
 70
     1
102
RTVSPropertyOp10
 70
     1
102
RTVSPropertyOp11
 70
     1
102
RTVSPropertyOp12
 70
     1
102
RTVSPropertyOp13
 70
     1
102
RTVSPropertyOp14
 70
     1
102
RTVSPropertyOp15
 70
     1
102
RTVSPropertyOp16
 70
     1
102
RTVSPropertyOp17
 70
     1
102
RTVSPropertyOp18
 70
     1
102
RTVSPropertyOp19
 70
     1
102
RTVSPropertyOp20
 70
     1
102
RTVSPropertyOp21
 70
     1
102
RTVSPropertyOp22
 70
     1
102
RTVSPropertyOp23
 70
     1
102
RTVSPropertyOp24
 70
     1
102
RTVSPropertyOp25
 70
     1
102
RTVSPropertyOp26
 70
     1
102
RTVSPropertyOp27
 70
     1
102
RTVSPropertyOp28
 70
     1
102
RTVSPropertyOp29
 70
     1
102
RTVSPropertyOp30
 70
     1
102
RTVSPropertyOp31
 70
     1
102
RTVSPropertyOp32
 70
     1
  0
XRECORD
  5
1300
102
{ACAD_REACTORS
330
12FF
102
}
330
12FF
100
AcDbXrecord
280
     1
102
RTVSPropertyOp0
 70
     0
102
RTVSPropertyOp1
 70
     0
102
RTVSPropertyOp2
 70
     0
102
RTVSPropertyOp3
 70
     0
102
RTVSPropertyOp4
 70
     0
102
RTVSPropertyOp5
 70
     0
102
RTVSPropertyOp6
 70
     0
102
RTVSPropertyOp7
 70
     0
102
RTVSPropertyOp8
 70
     0
102
RTVSPropertyOp9
 70
     0
102
RTVSPropertyOp10
 70
     0
102
RTVSPropertyOp11
 70
     0
102
RTVSPropertyOp12
 70
     0
102
RTVSPropertyOp13
 70
     0
102
RTVSPropertyOp14
 70
     2
102
RTVSPropertyOp15
 70
     0
102
RTVSPropertyOp16
 70
     0
102
RTVSPropertyOp17
 70
     0
102
RTVSPropertyOp18
 70
     0
102
RTVSPropertyOp19
 70
     0
102
RTVSPropertyOp20
 70
     0
102
RTVSPropertyOp21
 70
     0
102
RTVSPropertyOp22
 70
     0
102
RTVSPropertyOp23
 70
     0
102
RTVSPropertyOp24
 70
     0
102
RTVSPropertyOp25
 70
     0
102
RTVSPropertyOp26
 70
     0
102
RTVSPropertyOp27
 70
     0
102
RTVSPropertyOp28
 70
     0
102
RTVSPropertyOp29
 70
     0
102
RTVSPropertyOp30
 70
     0
102
RTVSPropertyOp31
 70
     0
102
RTVSPropertyOp32
 70
     0
  0
XRECORD
  5
12D5
102
{ACAD_REACTORS
330
12D4
102
}
330
12D4
100
AcDbXrecord
280
     1
102
RTVSPropertyOp0
 70
     1
102
RTVSPropertyOp1
 70
     1
102
RTVSPropertyOp2
 70
     1
102
RTVSPropertyOp3
 70
     1
102
RTVSPropertyOp4
 70
     1
102
RTVSPropertyOp5
 70
     1
102
RTVSPropertyOp6
 70
     1
102
RTVSPropertyOp7
 70
     1
102
RTVSPropertyOp8
 70
     1
102
RTVSPropertyOp9
 70
     1
102
RTVSPropertyOp10
 70
     1
102
RTVSPropertyOp11
 70
     1
102
RTVSPropertyOp12
 70
     1
102
RTVSPropertyOp13
 70
     1
102
RTVSPropertyOp14
 70
     1
102
RTVSPropertyOp15
 70
     1
102
RTVSPropertyOp16
 70
     1
102
RTVSPropertyOp17
 70
     1
102
RTVSPropertyOp18
 70
     1
102
RTVSPropertyOp19
 70
     1
102
RTVSPropertyOp20
 70
     1
102
RTVSPropertyOp21
 70
     1
102
RTVSPropertyOp22
 70
     1
102
RTVSPropertyOp23
 70
     1
102
RTVSPropertyOp24
 70
     1
102
RTVSPropertyOp25
 70
     1
102
RTVSPropertyOp26
 70
     1
102
RTVSPropertyOp27
 70
     1
102
RTVSPropertyOp28
 70
     1
102
RTVSPropertyOp29
 70
     1
102
RTVSPropertyOp30
 70
     1
102
RTVSPropertyOp31
 70
     1
102
RTVSPropertyOp32
 70
     1
  0
XRECORD
  5
12FC
102
{ACAD_REACTORS
330
12FB
102
}
330
12FB
100
AcDbXrecord
280
     1
102
RTVSPropertyOp0
 70
     1
102
RTVSPropertyOp1
 70
     1
102
RTVSPropertyOp2
 70
     1
102
RTVSPropertyOp3
 70
     1
102
RTVSPropertyOp4
 70
     1
102
RTVSPropertyOp5
 70
     1
102
RTVSPropertyOp6
 70
     1
102
RTVSPropertyOp7
 70
     1
102
RTVSPropertyOp8
 70
     1
102
RTVSPropertyOp9
 70
     1
102
RTVSPropertyOp10
 70
     1
102
RTVSPropertyOp11
 70
     1
102
RTVSPropertyOp12
 70
     1
102
RTVSPropertyOp13
 70
     1
102
RTVSPropertyOp14
 70
     1
102
RTVSPropertyOp15
 70
     1
102
RTVSPropertyOp16
 70
     1
102
RTVSPropertyOp17
 70
     1
102
RTVSPropertyOp18
 70
     1
102
RTVSPropertyOp19
 70
     1
102
RTVSPropertyOp20
 70
     1
102
RTVSPropertyOp21
 70
     1
102
RTVSPropertyOp22
 70
     1
102
RTVSPropertyOp23
 70
     1
102
RTVSPropertyOp24
 70
     1
102
RTVSPropertyOp25
 70
     1
102
RTVSPropertyOp26
 70
     1
102
RTVSPropertyOp27
 70
     1
102
RTVSPropertyOp28
 70
     1
102
RTVSPropertyOp29
 70
     1
102
RTVSPropertyOp30
 70
     1
102
RTVSPropertyOp31
 70
     1
102
RTVSPropertyOp32
 70
     1
  0
XRECORD
  5
12FA
102
{ACAD_REACTORS
330
12F9
102
}
330
12F9
100
AcDbXrecord
280
     1
102
RTVSPropertyOp0
 70
     1
102
RTVSPropertyOp1
 70
     1
102
RTVSPropertyOp2
 70
     1
102
RTVSPropertyOp3
 70
     1
102
RTVSPropertyOp4
 70
     1
102
RTVSPropertyOp5
 70
     1
102
RTVSPropertyOp6
 70
     1
102
RTVSPropertyOp7
 70
     1
102
RTVSPropertyOp8
 70
     1
102
RTVSPropertyOp9
 70
     1
102
RTVSPropertyOp10
 70
     1
102
RTVSPropertyOp11
 70
     1
102
RTVSPropertyOp12
 70
     1
102
RTVSPropertyOp13
 70
     1
102
RTVSPropertyOp14
 70
     1
102
RTVSPropertyOp15
 70
     1
102
RTVSPropertyOp16
 70
     1
102
RTVSPropertyOp17
 70
     1
102
RTVSPropertyOp18
 70
     1
102
RTVSPropertyOp19
 70
     1
102
RTVSPropertyOp20
 70
     1
102
RTVSPropertyOp21
 70
     1
102
RTVSPropertyOp22
 70
     1
102
RTVSPropertyOp23
 70
     1
102
RTVSPropertyOp24
 70
     1
102
RTVSPropertyOp25
 70
     1
102
RTVSPropertyOp26
 70
     1
102
RTVSPropertyOp27
 70
     1
102
RTVSPropertyOp28
 70
     1
102
RTVSPropertyOp29
 70
     1
102
RTVSPropertyOp30
 70
     1
102
RTVSPropertyOp31
 70
     1
102
RTVSPropertyOp32
 70
     1
  0
XRECORD
  5
12F4
102
{ACAD_REACTORS
330
12F3
102
}
330
12F3
100
AcDbXrecord
280
     1
102
RTVSPropertyOp0
 70
     1
102
RTVSPropertyOp1
 70
     1
102
RTVSPropertyOp2
 70
     1
102
RTVSPropertyOp3
 70
     1
102
RTVSPropertyOp4
 70
     1
102
RTVSPropertyOp5
 70
     1
102
RTVSPropertyOp6
 70
     1
102
RTVSPropertyOp7
 70
     1
102
RTVSPropertyOp8
 70
     1
102
RTVSPropertyOp9
 70
     1
102
RTVSPropertyOp10
 70
     1
102
RTVSPropertyOp11
 70
     1
102
RTVSPropertyOp12
 70
     1
102
RTVSPropertyOp13
 70
     1
102
RTVSPropertyOp14
 70
     1
102
RTVSPropertyOp15
 70
     1
102
RTVSPropertyOp16
 70
     1
102
RTVSPropertyOp17
 70
     1
102
RTVSPropertyOp18
 70
     1
102
RTVSPropertyOp19
 70
     1
102
RTVSPropertyOp20
 70
     1
102
RTVSPropertyOp21
 70
     1
102
RTVSPropertyOp22
 70
     1
102
RTVSPropertyOp23
 70
     1
102
RTVSPropertyOp24
 70
     1
102
RTVSPropertyOp25
 70
     1
102
RTVSPropertyOp26
 70
     1
102
RTVSPropertyOp27
 70
     1
102
RTVSPropertyOp28
 70
     1
102
RTVSPropertyOp29
 70
     1
102
RTVSPropertyOp30
 70
     1
102
RTVSPropertyOp31
 70
     1
102
RTVSPropertyOp32
 70
     1
  0
XRECORD
  5
12F6
102
{ACAD_REACTORS
330
12F5
102
}
330
12F5
100
AcDbXrecord
280
     1
102
RTVSPropertyOp0
 70
     1
102
RTVSPropertyOp1
 70
     1
102
RTVSPropertyOp2
 70
     1
102
RTVSPropertyOp3
 70
     1
102
RTVSPropertyOp4
 70
     1
102
RTVSPropertyOp5
 70
     1
102
RTVSPropertyOp6
 70
     1
102
RTVSPropertyOp7
 70
     1
102
RTVSPropertyOp8
 70
     1
102
RTVSPropertyOp9
 70
     1
102
RTVSPropertyOp10
 70
     1
102
RTVSPropertyOp11
 70
     1
102
RTVSPropertyOp12
 70
     1
102
RTVSPropertyOp13
 70
     1
102
RTVSPropertyOp14
 70
     1
102
RTVSPropertyOp15
 70
     1
102
RTVSPropertyOp16
 70
     1
102
RTVSPropertyOp17
 70
     1
102
RTVSPropertyOp18
 70
     1
102
RTVSPropertyOp19
 70
     1
102
RTVSPropertyOp20
 70
     1
102
RTVSPropertyOp21
 70
     1
102
RTVSPropertyOp22
 70
     1
102
RTVSPropertyOp23
 70
     1
102
RTVSPropertyOp24
 70
     1
102
RTVSPropertyOp25
 70
     1
102
RTVSPropertyOp26
 70
     1
102
RTVSPropertyOp27
 70
     1
102
RTVSPropertyOp28
 70
     1
102
RTVSPropertyOp29
 70
     1
102
RTVSPropertyOp30
 70
     1
102
RTVSPropertyOp31
 70
     1
102
RTVSPropertyOp32
 70
     1
  0
XRECORD
  5
12DB
102
{ACAD_REACTORS
330
12DA
102
}
330
12DA
100
AcDbXrecord
280
     1
102
RTVSPropertyOp0
 70
     1
102
RTVSPropertyOp1
 70
     1
102
RTVSPropertyOp2
 70
     1
102
RTVSPropertyOp3
 70
     1
102
RTVSPropertyOp4
 70
     1
102
RTVSPropertyOp5
 70
     1
102
RTVSPropertyOp6
 70
     1
102
RTVSPropertyOp7
 70
     1
102
RTVSPropertyOp8
 70
     1
102
RTVSPropertyOp9
 70
     1
102
RTVSPropertyOp10
 70
     1
102
RTVSPropertyOp11
 70
     1
102
RTVSPropertyOp12
 70
     1
102
RTVSPropertyOp13
 70
     1
102
RTVSPropertyOp14
 70
     1
102
RTVSPropertyOp15
 70
     1
102
RTVSPropertyOp16
 70
     1
102
RTVSPropertyOp17
 70
     1
102
RTVSPropertyOp18
 70
     1
102
RTVSPropertyOp19
 70
     1
102
RTVSPropertyOp20
 70
     1
102
RTVSPropertyOp21
 70
     1
102
RTVSPropertyOp22
 70
     1
102
RTVSPropertyOp23
 70
     1
102
RTVSPropertyOp24
 70
     1
102
RTVSPropertyOp25
 70
     1
102
RTVSPropertyOp26
 70
     1
102
RTVSPropertyOp27
 70
     1
102
RTVSPropertyOp28
 70
     1
102
RTVSPropertyOp29
 70
     1
102
RTVSPropertyOp30
 70
     1
102
RTVSPropertyOp31
 70
     1
102
RTVSPropertyOp32
 70
     1
  0
XRECORD
  5
12F0
102
{ACAD_REACTORS
330
12EF
102
}
330
12EF
100
AcDbXrecord
280
     1
102
RTVSPropertyOp0
 70
     1
102
RTVSPropertyOp1
 70
     1
102
RTVSPropertyOp2
 70
     1
102
RTVSPropertyOp3
 70
     1
102
RTVSPropertyOp4
 70
     1
102
RTVSPropertyOp5
 70
     1
102
RTVSPropertyOp6
 70
     1
102
RTVSPropertyOp7
 70
     1
102
RTVSPropertyOp8
 70
     1
102
RTVSPropertyOp9
 70
     1
102
RTVSPropertyOp10
 70
     1
102
RTVSPropertyOp11
 70
     1
102
RTVSPropertyOp12
 70
     1
102
RTVSPropertyOp13
 70
     1
102
RTVSPropertyOp14
 70
     1
102
RTVSPropertyOp15
 70
     1
102
RTVSPropertyOp16
 70
     1
102
RTVSPropertyOp17
 70
     1
102
RTVSPropertyOp18
 70
     1
102
RTVSPropertyOp19
 70
     1
102
RTVSPropertyOp20
 70
     1
102
RTVSPropertyOp21
 70
     1
102
RTVSPropertyOp22
 70
     1
102
RTVSPropertyOp23
 70
     1
102
RTVSPropertyOp24
 70
     1
102
RTVSPropertyOp25
 70
     1
102
RTVSPropertyOp26
 70
     1
102
RTVSPropertyOp27
 70
     1
102
RTVSPropertyOp28
 70
     1
102
RTVSPropertyOp29
 70
     1
102
RTVSPropertyOp30
 70
     1
102
RTVSPropertyOp31
 70
     1
102
RTVSPropertyOp32
 70
     1
  0
XRECORD
  5
12F8
102
{ACAD_REACTORS
330
12F7
102
}
330
12F7
100
AcDbXrecord
280
     1
102
RTVSPropertyOp0
 70
     1
102
RTVSPropertyOp1
 70
     1
102
RTVSPropertyOp2
 70
     1
102
RTVSPropertyOp3
 70
     1
102
RTVSPropertyOp4
 70
     1
102
RTVSPropertyOp5
 70
     1
102
RTVSPropertyOp6
 70
     1
102
RTVSPropertyOp7
 70
     1
102
RTVSPropertyOp8
 70
     1
102
RTVSPropertyOp9
 70
     1
102
RTVSPropertyOp10
 70
     1
102
RTVSPropertyOp11
 70
     1
102
RTVSPropertyOp12
 70
     1
102
RTVSPropertyOp13
 70
     1
102
RTVSPropertyOp14
 70
     1
102
RTVSPropertyOp15
 70
     1
102
RTVSPropertyOp16
 70
     1
102
RTVSPropertyOp17
 70
     1
102
RTVSPropertyOp18
 70
     1
102
RTVSPropertyOp19
 70
     1
102
RTVSPropertyOp20
 70
     1
102
RTVSPropertyOp21
 70
     1
102
RTVSPropertyOp22
 70
     1
102
RTVSPropertyOp23
 70
     1
102
RTVSPropertyOp24
 70
     1
102
RTVSPropertyOp25
 70
     1
102
RTVSPropertyOp26
 70
     1
102
RTVSPropertyOp27
 70
     1
102
RTVSPropertyOp28
 70
     1
102
RTVSPropertyOp29
 70
     1
102
RTVSPropertyOp30
 70
     1
102
RTVSPropertyOp31
 70
     1
102
RTVSPropertyOp32
 70
     1
  0
ENDSEC
  0
EOF
