  0
SECTION
  2
HEADER
  9
$ACADVER
  1
AC1015
  9
$ACADMAINTVER
 70
    20
  9
$DWGCODEPAGE
  3
ANSI_1252
  9
$INSBASE
 10
0.0
 20
0.0
 30
0.0
  9
$EXTMIN
 10
-219.6707146098729
 20
-251.8445430587099
 30
-0.0015258207003583
  9
$EXTMAX
 10
435.9063730667187
 20
321.4131324337948
 30
0.0000000349246037
  9
$LIMMIN
 10
0.0
 20
0.0
  9
$LIMMAX
 10
420.0
 20
297.0
  9
$ORTHOMODE
 70
     1
  9
$REGENMODE
 70
     1
  9
$FILLMODE
 70
     1
  9
$QTEXTMODE
 70
     0
  9
$MIRRTEXT
 70
     0
  9
$LTSCALE
 40
1.0
  9
$ATTMODE
 70
     1
  9
$TEXTSIZE
 40
3.0
  9
$TRACEWID
 40
1.0
  9
$TEXTSTYLE
  7
ROMAND
  9
$CLAYER
  8
CONTORNO
  9
$CELTYPE
  6
BYLAYER
  9
$CECOLOR
 62
   256
  9
$CELTSCALE
 40
1.0
  9
$DISPSILH
 70
     0
  9
$DIMSCALE
 40
1.0
  9
$DIMASZ
 40
2.5
  9
$DIMEXO
 40
0.1
  9
$DIMDLI
 40
10.0
  9
$DIMRND
 40
0.0
  9
$DIMDLE
 40
0.0
  9
$DIMEXE
 40
0.5
  9
$DIMTP
 40
0.0025
  9
$DIMTM
 40
0.0045
  9
$DIMTXT
 40
3.0
  9
$DIMCEN
 40
1.5
  9
$DIMTSZ
 40
0.0
  9
$DIMTOL
 70
     0
  9
$DIMLIM
 70
     0
  9
$DIMTIH
 70
     0
  9
$DIMTOH
 70
     0
  9
$DIMSE1
 70
     0
  9
$DIMSE2
 70
     0
  9
$DIMTAD
 70
     1
  9
$DIMZIN
 70
     8
  9
$DIMBLK
  1

  9
$DIMASO
 70
     1
  9
$DIMSHO
 70
     1
  9
$DIMPOST
  1

  9
$DIMAPOST
  1
dsd
  9
$DIMALT
 70
     0
  9
$DIMALTD
 70
     2
  9
$DIMALTF
 40
25.4
  9
$DIMLFAC
 40
1.0
  9
$DIMTOFL
 70
     1
  9
$DIMTVP
 40
0.0
  9
$DIMTIX
 70
     0
  9
$DIMSOXD
 70
     0
  9
$DIMSAH
 70
     0
  9
$DIMBLK1
  1

  9
$DIMBLK2
  1

  9
$DIMSTYLE
  2
ISO8-SC025
  9
$DIMCLRD
 70
     1
  9
$DIMCLRE
 70
     1
  9
$DIMCLRT
 70
     2
  9
$DIMTFAC
 40
0.6270000000000003
  9
$DIMGAP
 40
1.0
  9
$DIMJUST
 70
     0
  9
$DIMSD1
 70
     0
  9
$DIMSD2
 70
     0
  9
$DIMTOLJ
 70
     0
  9
$DIMTZIN
 70
     8
  9
$DIMALTZ
 70
     8
  9
$DIMALTTZ
 70
     8
  9
$DIMUPT
 70
     0
  9
$DIMDEC
 70
     2
  9
$DIMTDEC
 70
     2
  9
$DIMALTU
 70
     2
  9
$DIMALTTD
 70
     2
  9
$DIMTXSTY
  7
QUOTE
  9
$DIMAUNIT
 70
     0
  9
$DIMADEC
 70
     0
  9
$DIMALTRND
 40
0.0
  9
$DIMAZIN
 70
     0
  9
$DIMDSEP
 70
    46
  9
$DIMATFIT
 70
     0
  9
$DIMFRAC
 70
     0
  9
$DIMLDRBLK
  1

  9
$DIMLUNIT
 70
     2
  9
$DIMLWD
 70
    -2
  9
$DIMLWE
 70
    -2
  9
$DIMTMOVE
 70
     0
  9
$LUNITS
 70
     2
  9
$LUPREC
 70
     4
  9
$SKETCHINC
 40
1.0
  9
$FILLETRAD
 40
15.0
  9
$AUNITS
 70
     0
  9
$AUPREC
 70
     0
  9
$MENU
  1
acad
  9
$ELEVATION
 40
0.0
  9
$PELEVATION
 40
0.0
  9
$THICKNESS
 40
0.0
  9
$LIMCHECK
 70
     0
  9
$CHAMFERA
 40
0.0
  9
$CHAMFERB
 40
0.0
  9
$CHAMFERC
 40
20.0
  9
$CHAMFERD
 40
0.0
  9
$SKPOLY
 70
     0
  9
$TDCREATE
 40
2452804.714726158
  9
$TDUCREATE
 40
2452804.631392824
  9
$TDUPDATE
 40
2455684.727394444
  9
$TDUUPDATE
 40
2455684.644061111
  9
$TDINDWG
 40
0.0018824769
  9
$TDUSRTIMER
 40
0.0018824769
  9
$USRTIMER
 70
     1
  9
$ANGBASE
 50
0.0
  9
$ANGDIR
 70
     0
  9
$PDMODE
 70
     0
  9
$PDSIZE
 40
0.0
  9
$PLINEWID
 40
0.0
  9
$SPLFRAME
 70
     0
  9
$SPLINETYPE
 70
     6
  9
$SPLINESEGS
 70
     8
  9
$HANDSEED
  5
22D
  9
$SURFTAB1
 70
     6
  9
$SURFTAB2
 70
     6
  9
$SURFTYPE
 70
     6
  9
$SURFU
 70
     6
  9
$SURFV
 70
     6
  9
$UCSBASE
  2

  9
$UCSNAME
  2

  9
$UCSORG
 10
0.0
 20
0.0
 30
0.0
  9
$UCSXDIR
 10
1.0
 20
0.0
 30
0.0
  9
$UCSYDIR
 10
0.0
 20
1.0
 30
0.0
  9
$UCSORTHOREF
  2

  9
$UCSORTHOVIEW
 70
     0
  9
$UCSORGTOP
 10
0.0
 20
0.0
 30
0.0
  9
$UCSORGBOTTOM
 10
0.0
 20
0.0
 30
0.0
  9
$UCSORGLEFT
 10
0.0
 20
0.0
 30
0.0
  9
$UCSORGRIGHT
 10
0.0
 20
0.0
 30
0.0
  9
$UCSORGFRONT
 10
0.0
 20
0.0
 30
0.0
  9
$UCSORGBACK
 10
0.0
 20
0.0
 30
0.0
  9
$PUCSBASE
  2

  9
$PUCSNAME
  2

  9
$PUCSORG
 10
0.0
 20
0.0
 30
0.0
  9
$PUCSXDIR
 10
1.0
 20
0.0
 30
0.0
  9
$PUCSYDIR
 10
0.0
 20
1.0
 30
0.0
  9
$PUCSORTHOREF
  2

  9
$PUCSORTHOVIEW
 70
     0
  9
$PUCSORGTOP
 10
0.0
 20
0.0
 30
0.0
  9
$PUCSORGBOTTOM
 10
0.0
 20
0.0
 30
0.0
  9
$PUCSORGLEFT
 10
0.0
 20
0.0
 30
0.0
  9
$PUCSORGRIGHT
 10
0.0
 20
0.0
 30
0.0
  9
$PUCSORGFRONT
 10
0.0
 20
0.0
 30
0.0
  9
$PUCSORGBACK
 10
0.0
 20
0.0
 30
0.0
  9
$USERI1
 70
     0
  9
$USERI2
 70
     0
  9
$USERI3
 70
     0
  9
$USERI4
 70
     0
  9
$USERI5
 70
     0
  9
$USERR1
 40
0.0
  9
$USERR2
 40
0.0
  9
$USERR3
 40
0.0
  9
$USERR4
 40
0.0
  9
$USERR5
 40
0.0
  9
$WORLDVIEW
 70
     1
  9
$SHADEDGE
 70
     3
  9
$SHADEDIF
 70
    70
  9
$TILEMODE
 70
     1
  9
$MAXACTVP
 70
    48
  9
$PINSBASE
 10
0.0
 20
0.0
 30
0.0
  9
$PLIMCHECK
 70
     0
  9
$PEXTMIN
 10
1.000000000000000E+20
 20
1.000000000000000E+20
 30
1.000000000000000E+20
  9
$PEXTMAX
 10
-1.000000000000000E+20
 20
-1.000000000000000E+20
 30
-1.000000000000000E+20
  9
$PLIMMIN
 10
0.0
 20
0.0
  9
$PLIMMAX
 10
420.0
 20
297.0
  9
$UNITMODE
 70
     0
  9
$VISRETAIN
 70
     1
  9
$PLINEGEN
 70
     0
  9
$PSLTSCALE
 70
     1
  9
$TREEDEPTH
 70
  3020
  9
$CMLSTYLE
  2
STANDARD
  9
$CMLJUST
 70
     0
  9
$CMLSCALE
 40
20.0
  9
$PROXYGRAPHICS
 70
     1
  9
$MEASUREMENT
 70
     1
  9
$CELWEIGHT
370
    -1
  9
$ENDCAPS
280
     0
  9
$JOINSTYLE
280
     0
  9
$LWDISPLAY
290
     0
  9
$INSUNITS
 70
     0
  9
$HYPERLINKBASE
  1

  9
$STYLESHEET
  1

  9
$XEDIT
290
     1
  9
$CEPSNTYPE
380
     0
  9
$PSTYLEMODE
290
     1
  9
$FINGERPRINTGUID
  2
{65A28690-CF5B-11D3-856C-444553540000}
  9
$VERSIONGUID
  2
{08FD4168-56C2-4373-BF26-BB3E2F6258BD}
  9
$EXTNAMES
290
     1
  9
$PSVPSCALE
 40
0.0
  9
$OLESTARTUP
290
     0
  0
ENDSEC
  0
SECTION
  2
CLASSES
  0
CLASS
  1
DICTIONARYVAR
  2
AcDbDictionaryVar
  3
ObjectDBX Classes
 90
        0
280
     0
281
     0
  0
CLASS
  1
ACDBDICTIONARYWDFLT
  2
AcDbDictionaryWithDefault
  3
ObjectDBX Classes
 90
        0
280
     0
281
     0
  0
CLASS
  1
ACDBPLACEHOLDER
  2
AcDbPlaceHolder
  3
ObjectDBX Classes
 90
        0
280
     0
281
     0
  0
CLASS
  1
LAYOUT
  2
AcDbLayout
  3
ObjectDBX Classes
 90
        0
280
     0
281
     0
  0
CLASS
  1
MATERIAL
  2
AcDbMaterial
  3
ObjectDBX Classes
 90
     1153
280
     0
281
     0
  0
CLASS
  1
VISUALSTYLE
  2
AcDbVisualStyle
  3
ObjectDBX Classes
 90
     4095
280
     0
281
     0
  0
CLASS
  1
TABLESTYLE
  2
AcDbTableStyle
  3
ObjectDBX Classes
 90
     4095
280
     0
281
     0
  0
CLASS
  1
SCALE
  2
AcDbScale
  3
ObjectDBX Classes
 90
     1153
280
     0
281
     0
  0
CLASS
  1
MLEADERSTYLE
  2
AcDbMLeaderStyle
  3
ACDB_MLEADERSTYLE_CLASS
 90
     4095
280
     0
281
     0
  0
CLASS
  1
CELLSTYLEMAP
  2
AcDbCellStyleMap
  3
ObjectDBX Classes
 90
     1152
280
     0
281
     0
  0
ENDSEC
  0
SECTION
  2
TABLES
  0
TABLE
  2
VPORT
  5
19
330
0
100
AcDbSymbolTable
 70
     1
  0
VPORT
  5
1A
330
19
100
AcDbSymbolTableRecord
100
AcDbViewportTableRecord
  2
*Active
 70
     0
 10
0.0
 20
0.0
 11
1.0
 21
1.0
 12
86.47775068538692
 22
15.8942324993618
 13
0.0
 23
0.0
 14
10.0
 24
10.0
 15
10.0
 25
10.0
 16
0.0
 26
0.0
 36
1.0
 17
0.0
 27
0.0
 37
0.0
 40
647.4677018416286
 41
2.292383292383292
 42
50.0
 43
0.0
 44
0.0
 50
0.0
 51
0.0
 71
     0
 72
   100
 73
     1
 74
     0
 75
     0
 76
     0
 77
     0
 78
     0
281
     0
 65
     1
110
0.0
120
0.0
130
0.0
111
1.0
121
0.0
131
0.0
112
0.0
122
1.0
132
0.0
 79
     0
146
0.0
  0
ENDTAB
  0
TABLE
  2
LTYPE
  5
14
330
0
100
AcDbSymbolTable
 70
     2
  0
LTYPE
  5
15
330
14
100
AcDbSymbolTableRecord
100
AcDbLinetypeTableRecord
  2
BYBLOCK
 70
     0
  3

 72
    65
 73
     0
 40
0.0
  0
LTYPE
  5
16
330
14
100
AcDbSymbolTableRecord
100
AcDbLinetypeTableRecord
  2
BYLAYER
 70
     0
  3

 72
    65
 73
     0
 40
0.0
  0
LTYPE
  5
8
330
14
100
AcDbSymbolTableRecord
100
AcDbLinetypeTableRecord
  2
CONTINUOUS
 70
     0
  3
Solid line
 72
    65
 73
     0
 40
0.0
  0
LTYPE
  5
29
330
14
100
AcDbSymbolTableRecord
100
AcDbLinetypeTableRecord
  2
ACAD_ISO10W100
 70
     0
  3
Tratto ISO Punto __ . __ . __ . __ . __ . __ . 
 72
    65
 73
     4
 40
18.0
 49
12.0
 74
     0
 49
-3.0
 74
     0
 49
0.0
 74
     0
 49
-3.0
 74
     0
  0
ENDTAB
  0
TABLE
  2
LAYER
  5
10
330
0
100
AcDbSymbolTable
 70
     5
  0
LAYER
  5
4
102
{ACAD_XDICTIONARY
360
1E0
102
}
330
10
100
AcDbSymbolTableRecord
100
AcDbLayerTableRecord
  2
0
 70
     0
 62
     7
  6
CONTINUOUS
370
    -3
390
5
  0
LAYER
  5
28
102
{ACAD_XDICTIONARY
360
1E2
102
}
330
10
100
AcDbSymbolTableRecord
100
AcDbLayerTableRecord
  2
ASSE
 70
     0
 62
     2
  6
ACAD_ISO10W100
370
    -3
390
5
  0
LAYER
  5
24
102
{ACAD_XDICTIONARY
360
1E4
102
}
330
10
100
AcDbSymbolTableRecord
100
AcDbLayerTableRecord
  2
CONTORNO
 70
     0
 62
     7
  6
CONTINUOUS
370
    -3
390
5
  0
LAYER
  5
7F
102
{ACAD_XDICTIONARY
360
1E6
102
}
330
10
100
AcDbSymbolTableRecord
100
AcDbLayerTableRecord
  2
14
 70
     0
 62
     9
  6
CONTINUOUS
370
    -3
390
5
  0
LAYER
  5
3B
102
{ACAD_XDICTIONARY
360
1E8
102
}
330
10
100
AcDbSymbolTableRecord
100
AcDbLayerTableRecord
  2
7
 70
     0
 62
     5
  6
CONTINUOUS
370
    -3
390
5
  0
ENDTAB
  0
TABLE
  2
STYLE
  5
11
330
0
100
AcDbSymbolTable
 70
     3
  0
STYLE
  5
12
330
11
100
AcDbSymbolTableRecord
100
AcDbTextStyleTableRecord
  2
STANDARD
 70
     0
 40
0.0
 41
1.0
 50
0.0
 71
     0
 42
2.5
  3
txt
  4

  0
STYLE
  5
25
330
11
100
AcDbSymbolTableRecord
100
AcDbTextStyleTableRecord
  2
ROMAND
 70
     0
 40
3.0
 41
1.0
 50
0.0
 71
     0
 42
3.0
  3
ROMAND.shx
  4

  0
STYLE
  5
1F
330
11
100
AcDbSymbolTableRecord
100
AcDbTextStyleTableRecord
  2
QUOTE
 70
     0
 40
0.0
 41
0.8
 50
0.0
 71
     0
 42
2.229999999999999
  3
ROMANS.shx
  4

  0
ENDTAB
  0
TABLE
  2
VIEW
  5
17
330
0
100
AcDbSymbolTable
 70
     0
  0
ENDTAB
  0
TABLE
  2
UCS
  5
18
330
0
100
AcDbSymbolTable
 70
     0
  0
ENDTAB
  0
TABLE
  2
APPID
  5
1B
330
0
100
AcDbSymbolTable
 70
     2
  0
APPID
  5
1C
330
1B
100
AcDbSymbolTableRecord
100
AcDbRegAppTableRecord
  2
ACAD
 70
     0
  0
APPID
  5
22C
330
1B
100
AcDbSymbolTableRecord
100
AcDbRegAppTableRecord
  2
ACAD_MLEADERVER
 70
     0
  0
ENDTAB
  0
TABLE
  2
DIMSTYLE
  5
1D
330
0
100
AcDbSymbolTable
 70
     1
100
AcDbDimStyleTable
 71
     1
340
1E
  0
DIMSTYLE
105
1E
330
1D
100
AcDbSymbolTableRecord
100
AcDbDimStyleTableRecord
  2
ISO8-SC025
 70
     0
  4
dsd
 41
2.5
 42
0.1
 43
10.0
 44
0.5
 47
0.0025
 48
0.0045
 73
     0
 74
     0
 77
     1
 78
     8
140
3.0
141
1.5
146
0.6270000000000003
147
1.0
172
     1
176
     1
177
     1
178
     2
271
     2
272
     2
283
     0
284
     8
285
     8
286
     8
289
     0
340
1F
  0
ENDTAB
  0
TABLE
  2
BLOCK_RECORD
  5
1
330
0
100
AcDbSymbolTable
 70
     0
  0
BLOCK_RECORD
  5
2
330
1
100
AcDbSymbolTableRecord
100
AcDbBlockTableRecord
  2
*MODEL_SPACE
340
A
  0
BLOCK_RECORD
  5
C
330
1
100
AcDbSymbolTableRecord
100
AcDbBlockTableRecord
  2
*PAPER_SPACE
340
F
  0
ENDTAB
  0
ENDSEC
  0
SECTION
  2
BLOCKS
  0
BLOCK
  5
3
330
2
100
AcDbEntity
  8
0
100
AcDbBlockBegin
  2
*MODEL_SPACE
 70
     2
 10
0.0
 20
0.0
 30
0.0
  3
*MODEL_SPACE
  1

  0
ENDBLK
  5
9
330
2
100
AcDbEntity
  8
0
100
AcDbBlockEnd
  0
BLOCK
  5
D
330
C
100
AcDbEntity
 67
     1
  8
0
100
AcDbBlockBegin
  2
*PAPER_SPACE
 70
     0
 10
0.0
 20
0.0
 30
0.0
  3
*PAPER_SPACE
  1

  0
ENDBLK
  5
E
330
C
100
AcDbEntity
 67
     1
  8
0
100
AcDbBlockEnd
  0
ENDSEC
  0
SECTION
  2
ENTITIES
  0
LINE
  5
27
330
2
100
AcDbEntity
  8
ASSE
100
AcDbLine
 10
-43.16098925990826
 20
-1.824997999659331
 30
0.0
 11
36.83901074009174
 21
-1.824997999659331
 31
0.0
  0
LINE
  5
2A
330
2
100
AcDbEntity
  8
ASSE
100
AcDbLine
 10
-3.160989259908262
 20
-1.824997999659331
 30
0.0
 11
-219.6673402599082
 21
123.1750020003406
 31
0.0
  0
LINE
  5
2B
330
2
100
AcDbEntity
  8
0
100
AcDbLine
 10
-60.11289425990828
 20
49.53140800034066
 30
0.0
 11
-26.91000525990825
 21
30.36171100034068
 31
0.0
  0
ARC
  5
2C
330
2
100
AcDbEntity
  8
0
100
AcDbCircle
 10
-3.160989259908262
 20
-1.824997999659331
 30
0.0
 40
40.0
100
AcDbArc
 50
272.1490959999992
 51
267.8509040000009
  0
ARC
  5
2D
330
2
100
AcDbEntity
  8
0
100
AcDbCircle
 10
-40.72784743179539
 20
318.4013348700702
 30
0.0
 40
2.0
100
AcDbArc
 50
90.0
 51
180.0
  0
LINE
  5
2E
330
2
100
AcDbEntity
  8
0
100
AcDbLine
 10
-65.67975243179541
 20
235.4013348700702
 30
0.0
 11
-18.7278474317954
 21
235.4013348700702
 31
0.0
  0
LINE
  5
2F
330
2
100
AcDbEntity
  8
ASSE
100
AcDbLine
 10
-202.7747594317954
 20
174.4013348700701
 30
0.0
 11
-202.7747594317954
 21
241.4013348700702
 31
0.0
  0
LINE
  5
30
330
2
100
AcDbEntity
  8
0
100
AcDbLine
 10
-216.7804824317954
 20
240.4013348700702
 30
0.0
 11
-216.7804824317954
 21
175.4013348700701
 31
0.0
  0
LINE
  5
31
330
2
100
AcDbEntity
  8
0
100
AcDbLine
 10
-65.67975243179541
 20
235.4013348700702
 30
0.0
 11
-182.4712284317954
 21
192.4013348700702
 31
0.0
  0
LINE
  5
32
330
2
100
AcDbEntity
  8
0
100
AcDbLine
 10
-65.67975243179541
 20
235.4013348700702
 30
0.0
 11
-173.6580754317954
 21
189.4013348700702
 31
0.0
  0
LINE
  5
33
330
2
100
AcDbEntity
  8
0
100
AcDbLine
 10
-59.67975243179541
 20
235.4013348700702
 30
0.0
 11
-171.3344874317954
 21
186.4013348700702
 31
0.0
  0
LINE
  5
34
330
2
100
AcDbEntity
  8
ASSE
100
AcDbLine
 10
-193.4936572599082
 20
130.0117090003407
 30
0.0
 11
-212.9198072599083
 21
97.33650800034068
 31
0.0
  0
LINE
  5
35
330
2
100
AcDbEntity
  8
0
100
AcDbLine
 10
-210.2107632599083
 20
101.5428290003407
 30
0.0
 11
-76.11289425990827
 21
21.81859600034067
 31
0.0
  0
LINE
  5
36
330
2
100
AcDbEntity
  8
0
100
AcDbLine
 10
-172.4962814317954
 20
175.4013348700701
 30
0.0
 11
-216.7804824317954
 21
175.4013348700701
 31
0.0
  0
LINE
  5
37
330
2
100
AcDbEntity
  8
0
100
AcDbLine
 10
-196.4615502599082
 20
93.36860900034066
 30
0.0
 11
-195.7763242599082
 21
84.55545600034065
 31
0.0
  0
ARC
  5
38
330
2
100
AcDbEntity
  8
0
100
AcDbCircle
 10
-203.2079012599083
 20
113.6721410003406
 30
0.0
 40
14.005722
100
AcDbArc
 50
58.3620859999994
 51
241.6379139999977
  0
LINE
  5
39
330
2
100
AcDbEntity
  8
0
100
AcDbLine
 10
-196.4615502599082
 20
93.36860900034066
 30
0.0
 11
-182.2513522599082
 21
117.9813950003407
 31
0.0
  0
ARC
  5
3A
330
2
100
AcDbEntity
  8
7
100
AcDbCircle
 10
-203.2079012599083
 20
113.6721410003406
 30
0.0
 40
8.0
100
AcDbArc
 50
149.9999999999994
 51
59.26755400000118
  0
CIRCLE
  5
3C
330
2
100
AcDbEntity
  8
7
100
AcDbCircle
 10
-203.2079012599083
 20
113.6721410003406
 30
0.0
 40
7.0
  0
LINE
  5
3D
330
2
100
AcDbEntity
  8
7
100
AcDbLine
 10
-209.7747594317954
 20
175.4013348700701
 30
0.0
 11
-209.7747594317954
 21
205.4013348700702
 31
0.0
  0
LINE
  5
3E
330
2
100
AcDbEntity
  8
7
100
AcDbLine
 10
-210.7747594317954
 20
175.4013348700701
 30
0.0
 11
-210.7747594317954
 21
205.4013348700702
 31
0.0
  0
LINE
  5
3F
330
2
100
AcDbEntity
  8
0
100
AcDbLine
 10
-195.7763242599082
 20
84.55545600034065
 30
0.0
 11
-76.11289425990827
 21
21.81859600034067
 31
0.0
  0
LINE
  5
40
330
2
100
AcDbEntity
  8
0
100
AcDbLine
 10
-196.2050402599082
 20
125.8014520003406
 30
0.0
 11
-60.11289425990828
 21
49.53140800034066
 31
0.0
  0
LINE
  5
41
330
2
100
AcDbEntity
  8
0
100
AcDbLine
 10
-174.2763242599083
 20
121.7945480003407
 30
0.0
 11
-60.11289425990828
 21
49.53140800034066
 31
0.0
  0
LINE
  5
42
330
2
100
AcDbEntity
  8
0
100
AcDbLine
 10
-182.2513522599082
 20
117.9813950003407
 30
0.0
 11
-174.2763242599083
 21
121.7945480003407
 31
0.0
  0
LINE
  5
43
330
2
100
AcDbEntity
  8
0
100
AcDbLine
 10
-173.6580754317954
 20
189.4013348700702
 30
0.0
 11
-182.4712284317954
 21
192.4013348700702
 31
0.0
  0
LINE
  5
44
330
2
100
AcDbEntity
  8
7
100
AcDbLine
 10
-194.7747594317954
 20
175.4013348700701
 30
0.0
 11
-194.7747594317954
 21
205.4013348700702
 31
0.0
  0
LINE
  5
45
330
2
100
AcDbEntity
  8
7
100
AcDbLine
 10
-195.7747594317954
 20
175.4013348700701
 30
0.0
 11
-195.7747594317954
 21
205.4013348700702
 31
0.0
  0
LINE
  5
46
330
2
100
AcDbEntity
  8
0
100
AcDbLine
 10
-182.4712284317954
 20
192.4013348700702
 30
0.0
 11
-182.4712284317954
 21
175.4013348700701
 31
0.0
  0
LINE
  5
47
330
2
100
AcDbEntity
  8
0
100
AcDbLine
 10
-173.6580754317954
 20
189.4013348700702
 30
0.0
 11
-173.6580754317954
 21
175.4013348700701
 31
0.0
  0
LINE
  5
48
330
2
100
AcDbEntity
  8
0
100
AcDbLine
 10
-171.3344874317954
 20
186.4013348700702
 30
0.0
 11
-172.4962814317954
 21
175.4013348700701
 31
0.0
  0
LINE
  5
49
330
2
100
AcDbEntity
  8
0
100
AcDbLine
 10
-84.77314825990825
 20
26.81859600034068
 30
0.0
 11
-42.91000525990824
 21
2.648898000340693
 31
0.0
  0
LINE
  5
4A
330
2
100
AcDbEntity
  8
0
100
AcDbLine
 10
-58.38084325990826
 20
48.53140800034066
 30
0.0
 11
-74.38084325990826
 21
20.81859600034068
 31
0.0
  0
LINE
  5
4B
330
2
100
AcDbEntity
  8
0
100
AcDbLine
 10
-182.4712284317954
 20
240.4013348700702
 30
0.0
 11
-216.7804824317954
 21
240.4013348700702
 31
0.0
  0
LINE
  5
4C
330
2
100
AcDbEntity
  8
0
100
AcDbLine
 10
-59.67975243179541
 20
308.4013348700702
 30
0.0
 11
-182.4712284317954
 21
240.4013348700702
 31
0.0
  0
LINE
  5
4D
330
2
100
AcDbEntity
  8
0
100
AcDbLine
 10
-42.72784743179539
 20
318.4013348700702
 30
0.0
 11
-42.72784743179539
 21
235.4013348700702
 31
0.0
  0
LINE
  5
4E
330
2
100
AcDbEntity
  8
0
100
AcDbLine
 10
-42.72784743179539
 20
308.4013348700702
 30
0.0
 11
-59.67975243179541
 21
308.4013348700702
 31
0.0
  0
LINE
  5
4F
330
2
100
AcDbEntity
  8
ASSE
100
AcDbLine
 10
197.3190645682046
 20
174.4013348700701
 30
0.0
 11
197.3190645682046
 21
241.4013348700702
 31
0.0
  0
LINE
  5
50
330
2
100
AcDbEntity
  8
ASSE
100
AcDbLine
 10
-2.727847431795396
 20
321.4013348700702
 30
0.0
 11
-2.727847431795396
 21
174.4013348700701
 31
0.0
  0
LINE
  5
51
330
2
100
AcDbEntity
  8
0
100
AcDbLine
 10
18.7721525682046
 20
190.4013348700702
 30
0.0
 11
13.2721525682046
 21
235.4013348700702
 31
0.0
  0
LINE
  5
52
330
2
100
AcDbEntity
  8
0
100
AcDbLine
 10
-24.2278474317954
 20
190.4013348700702
 30
0.0
 11
-18.7278474317954
 21
235.4013348700702
 31
0.0
  0
LINE
  5
53
330
2
100
AcDbEntity
  8
0
100
AcDbLine
 10
-18.7278474317954
 20
175.4013348700701
 30
0.0
 11
-18.7278474317954
 21
308.4013348700702
 31
0.0
  0
LINE
  5
54
330
2
100
AcDbEntity
  8
0
100
AcDbLine
 10
13.2721525682046
 20
175.4013348700701
 30
0.0
 11
13.2721525682046
 21
308.4013348700702
 31
0.0
  0
LINE
  5
55
330
2
100
AcDbEntity
  8
0
100
AcDbLine
 10
211.3247875682046
 20
240.4013348700702
 30
0.0
 11
211.3247875682046
 21
175.4013348700701
 31
0.0
  0
LINE
  5
56
330
2
100
AcDbEntity
  8
0
100
AcDbLine
 10
60.22405756820461
 20
235.4013348700702
 30
0.0
 11
177.0155335682046
 21
192.4013348700702
 31
0.0
  0
LINE
  5
57
330
2
100
AcDbEntity
  8
0
100
AcDbLine
 10
60.22405756820461
 20
235.4013348700702
 30
0.0
 11
168.2023805682046
 21
189.4013348700702
 31
0.0
  0
LINE
  5
58
330
2
100
AcDbEntity
  8
0
100
AcDbLine
 10
54.22405756820461
 20
235.4013348700702
 30
0.0
 11
165.8787925682045
 21
186.4013348700702
 31
0.0
  0
LINE
  5
59
330
2
100
AcDbEntity
  8
ASSE
100
AcDbLine
 10
-3.160989259908262
 20
-1.824997999659331
 30
0.0
 11
213.3453617400917
 21
123.1750020003406
 31
0.0
  0
LINE
  5
5A
330
2
100
AcDbEntity
  8
0
100
AcDbLine
 10
167.9543457400917
 20
121.7945480003407
 30
0.0
 11
53.79091574009175
 21
49.53140800034066
 31
0.0
  0
LINE
  5
5B
330
2
100
AcDbEntity
  8
0
100
AcDbLine
 10
189.8830617400917
 20
125.8014520003406
 30
0.0
 11
53.79091574009175
 21
49.53140800034066
 31
0.0
  0
LINE
  5
5C
330
2
100
AcDbEntity
  8
0
100
AcDbLine
 10
203.8887847400917
 20
101.5428290003407
 30
0.0
 11
69.79091574009174
 21
21.81859600034067
 31
0.0
  0
LINE
  5
5D
330
2
100
AcDbEntity
  8
0
100
AcDbLine
 10
189.4543457400917
 20
84.55545600034065
 30
0.0
 11
69.79091574009174
 21
21.81859600034067
 31
0.0
  0
LINE
  5
5E
330
2
100
AcDbEntity
  8
ASSE
100
AcDbLine
 10
-3.160989259908262
 20
-251.8249979996593
 30
0.0
 11
-3.160989259908262
 21
38.17500200034067
 31
0.0
  0
LINE
  5
5F
330
2
100
AcDbEntity
  8
0
100
AcDbLine
 10
-30.91098925990826
 20
-59.82499799965933
 30
0.0
 11
-30.91098925990826
 21
-49.82499799965933
 31
0.0
  0
LINE
  5
60
330
2
100
AcDbEntity
  8
0
100
AcDbLine
 10
-31.66098925990826
 20
-59.07499799965933
 30
0.0
 11
-31.66098925990826
 21
-50.57499799965933
 31
0.0
  0
ARC
  5
61
330
2
100
AcDbEntity
  8
0
100
AcDbCircle
 10
-34.16098925990826
 20
-54.82499799965933
 30
0.0
 40
13.0
100
AcDbArc
 50
337.3801349999997
 51
22.61986500000031
  0
ARC
  5
62
330
2
100
AcDbEntity
  8
0
100
AcDbCircle
 10
-15.66098925990826
 20
-54.82499799965933
 30
0.0
 40
13.0
100
AcDbArc
 50
157.3801349999996
 51
202.6198650000003
  0
LINE
  5
63
330
2
100
AcDbEntity
  8
0
100
AcDbLine
 10
-28.66098925990826
 20
-62.12499799965934
 30
0.0
 11
-28.66098925990826
 21
-47.52499799965931
 31
0.0
  0
LINE
  5
64
330
2
100
AcDbEntity
  8
0
100
AcDbLine
 10
-21.16098925990826
 20
-64.57499799965933
 30
0.0
 11
-21.16098925990826
 21
-45.07499799965933
 31
0.0
  0
LINE
  5
65
330
2
100
AcDbEntity
  8
0
100
AcDbLine
 10
12.83901074009174
 20
-76.82499799965933
 30
0.0
 11
12.83901074009174
 21
-38.48560399965936
 31
0.0
  0
LINE
  5
66
330
2
100
AcDbEntity
  8
0
100
AcDbLine
 10
-19.16098925990826
 20
-76.82499799965933
 30
0.0
 11
-19.16098925990826
 21
-38.48560399965936
 31
0.0
  0
LINE
  5
67
330
2
100
AcDbEntity
  8
0
100
AcDbLine
 10
-1.660989259908262
 20
-32.10923699965935
 30
0.0
 11
-1.660989259908262
 21
-69.22692199965934
 31
0.0
  0
LINE
  5
68
330
2
100
AcDbEntity
  8
0
100
AcDbLine
 10
-4.660989259908262
 20
-32.10923699965935
 30
0.0
 11
-4.660989259908262
 21
-69.22692199965934
 31
0.0
  0
ARC
  5
69
330
2
100
AcDbEntity
  8
0
100
AcDbCircle
 10
9.339010740091737
 20
-54.82499799965933
 30
0.0
 40
13.0
100
AcDbArc
 50
337.3801349999997
 51
22.61986500000031
  0
LINE
  5
6A
330
2
100
AcDbEntity
  8
0
100
AcDbLine
 10
22.33901074009174
 20
-62.12499799965934
 30
0.0
 11
22.33901074009174
 21
-47.52499799965931
 31
0.0
  0
LINE
  5
6B
330
2
100
AcDbEntity
  8
0
100
AcDbLine
 10
14.83901074009174
 20
-64.57499799965933
 30
0.0
 11
14.83901074009174
 21
-45.07499799965933
 31
0.0
  0
LINE
  5
6C
330
2
100
AcDbEntity
  8
0
100
AcDbLine
 10
10.84473274009173
 20
-232.8192759996593
 30
0.0
 11
12.83901074009174
 21
-76.82499799965933
 31
0.0
  0
LINE
  5
6D
330
2
100
AcDbEntity
  8
0
100
AcDbLine
 10
18.33901074009174
 20
-211.8249979996593
 30
0.0
 11
12.83901074009174
 21
-76.82499799965933
 31
0.0
  0
LINE
  5
6E
330
2
100
AcDbEntity
  8
0
100
AcDbLine
 10
-24.66098925990826
 20
-211.8249979996593
 30
0.0
 11
-19.16098925990826
 21
-76.82499799965933
 31
0.0
  0
LINE
  5
6F
330
2
100
AcDbEntity
  8
0
100
AcDbLine
 10
-17.16671125990825
 20
-232.8192759996593
 30
0.0
 11
-19.16098925990826
 21
-76.82499799965933
 31
0.0
  0
LINE
  5
70
330
2
100
AcDbEntity
  8
ASSE
100
AcDbLine
 10
-20.53417825990829
 20
-232.8192759996593
 30
0.0
 11
13.84556674009173
 21
-232.8192759996593
 31
0.0
  0
LINE
  5
71
330
2
100
AcDbEntity
  8
0
100
AcDbLine
 10
11.04920874009173
 20
-216.8249979996593
 30
0.0
 11
-17.37118725990825
 21
-216.8249979996593
 31
0.0
  0
CIRCLE
  5
72
330
2
100
AcDbEntity
  8
7
100
AcDbCircle
 10
-3.160989259908262
 20
-232.8192759996593
 30
0.0
 40
7.0
  0
ARC
  5
73
330
2
100
AcDbEntity
  8
7
100
AcDbCircle
 10
-3.160989259908262
 20
-232.8192759996593
 30
0.0
 40
8.0
100
AcDbArc
 50
180.0
 51
90.0
  0
ARC
  5
74
330
2
100
AcDbEntity
  8
0
100
AcDbCircle
 10
-3.160989259908262
 20
-232.8192759996593
 30
0.0
 40
14.005722
100
AcDbArc
 50
178.3620860000008
 51
1.6379139999992
  0
LINE
  5
75
330
2
100
AcDbEntity
  8
0
100
AcDbLine
 10
-17.37118725990825
 20
-216.8249979996593
 30
0.0
 11
-24.66098925990826
 21
-211.8249979996593
 31
0.0
  0
LINE
  5
76
330
2
100
AcDbEntity
  8
0
100
AcDbLine
 10
11.04920874009173
 20
-216.8249979996593
 30
0.0
 11
18.33901074009174
 21
-211.8249979996593
 31
0.0
  0
LINE
  5
77
330
2
100
AcDbEntity
  8
0
100
AcDbLine
 10
12.83901074009174
 20
-74.82499799965933
 30
0.0
 11
-19.16098925990826
 21
-74.82499799965933
 31
0.0
  0
ARC
  5
78
330
2
100
AcDbEntity
  8
0
100
AcDbCircle
 10
-3.160989259908262
 20
-71.82499799965933
 30
0.0
 40
3.0
100
AcDbArc
 50
120.0000000000005
 51
59.99999999999946
  0
LINE
  5
79
330
2
100
AcDbEntity
  8
0
100
AcDbLine
 10
-1.660989259908262
 20
-61.82499799965933
 30
0.0
 11
-4.660989259908262
 21
-61.82499799965933
 31
0.0
  0
LINE
  5
7A
330
2
100
AcDbEntity
  8
0
100
AcDbLine
 10
-22.16098925990826
 20
-59.82499799965933
 30
0.0
 11
-27.66098925990827
 21
-59.82499799965933
 31
0.0
  0
LINE
  5
7B
330
2
100
AcDbEntity
  8
0
100
AcDbLine
 10
-22.16098925990826
 20
-64.42499799965935
 30
0.0
 11
-27.66098925990827
 21
-64.42499799965935
 31
0.0
  0
ARC
  5
7C
330
2
100
AcDbEntity
  8
0
100
AcDbCircle
 10
-25.51598925990828
 20
-62.12499799965934
 30
0.0
 40
3.145
100
AcDbArc
 50
133.0028689999997
 51
226.9971310000003
  0
LINE
  5
7D
330
2
100
AcDbEntity
  8
0
100
AcDbLine
 10
-30.91098925990826
 20
-59.82499799965933
 30
0.0
 11
-31.66098925990826
 21
-59.07499799965933
 31
0.0
  0
LINE
  5
7E
330
2
100
AcDbEntity
  8
14
100
AcDbLine
 10
-28.66098925990826
 20
-59.07499799965933
 30
0.0
 11
-31.66098925990826
 21
-59.07499799965933
 31
0.0
  0
LINE
  5
80
330
2
100
AcDbEntity
  8
0
100
AcDbLine
 10
-28.66098925990826
 20
-59.82499799965933
 30
0.0
 11
-30.91098925990826
 21
-59.82499799965933
 31
0.0
  0
LINE
  5
81
330
2
100
AcDbEntity
  8
0
100
AcDbLine
 10
-19.16098925990826
 20
-64.57499799965933
 30
0.0
 11
-21.16098925990826
 21
-64.57499799965933
 31
0.0
  0
ARC
  5
82
330
2
100
AcDbEntity
  8
0
100
AcDbCircle
 10
-24.30598925990825
 20
-62.12499799965934
 30
0.0
 40
3.145
100
AcDbArc
 50
313.0028689999997
 51
46.9971310000003
  0
LINE
  5
83
330
2
100
AcDbEntity
  8
0
100
AcDbLine
 10
14.83901074009174
 20
-64.42499799965935
 30
0.0
 11
21.33901074009174
 21
-64.42499799965935
 31
0.0
  0
LINE
  5
84
330
2
100
AcDbEntity
  8
0
100
AcDbLine
 10
14.83901074009174
 20
-59.82499799965933
 30
0.0
 11
21.33901074009174
 21
-59.82499799965933
 31
0.0
  0
LINE
  5
85
330
2
100
AcDbEntity
  8
0
100
AcDbLine
 10
12.83901074009174
 20
-64.57499799965933
 30
0.0
 11
14.83901074009174
 21
-64.57499799965933
 31
0.0
  0
ARC
  5
86
330
2
100
AcDbEntity
  8
0
100
AcDbCircle
 10
19.19401074009175
 20
-62.12499799965934
 30
0.0
 40
3.145
100
AcDbArc
 50
313.0028689999997
 51
46.9971310000003
  0
LINE
  5
87
330
2
100
AcDbEntity
  8
0
100
AcDbLine
 10
53.79091574009175
 20
49.53140800034066
 30
0.0
 11
20.58802674009172
 21
30.36171100034068
 31
0.0
  0
LINE
  5
88
330
2
100
AcDbEntity
  8
ASSE
100
AcDbLine
 10
-36.66098925990826
 20
-54.82499799965933
 30
0.0
 11
27.33901074009174
 21
-54.82499799965933
 31
0.0
  0
ARC
  5
89
330
2
100
AcDbEntity
  8
14
100
AcDbCircle
 10
-3.160989259908262
 20
26.03498100034068
 30
0.0
 40
0.999999
100
AcDbArc
 50
45.0
 51
135.0
  0
ARC
  5
8A
330
2
100
AcDbEntity
  8
0
100
AcDbCircle
 10
-3.160989259908262
 20
26.45924100034068
 30
0.0
 40
2.5
100
AcDbArc
 50
45.0
 51
135.0
  0
LINE
  5
8B
330
2
100
AcDbEntity
  8
14
100
AcDbLine
 10
-4.787335259908275
 20
11.96357200034066
 30
0.0
 11
-1.53464325990825
 21
11.96357200034066
 31
0.0
  0
LINE
  5
8C
330
2
100
AcDbEntity
  8
14
100
AcDbLine
 10
-1.53464325990825
 20
-15.61356799965932
 30
0.0
 11
-4.787335259908275
 21
-15.61356799965932
 31
0.0
  0
CIRCLE
  5
8D
330
2
100
AcDbEntity
  8
14
100
AcDbCircle
 10
-3.160989259908262
 20
-1.824997999659331
 30
0.0
 40
3.649995999999999
  0
ARC
  5
8E
330
2
100
AcDbEntity
  8
14
100
AcDbCircle
 10
-3.160989259908262
 20
-29.68497699965934
 30
0.0
 40
0.999999
100
AcDbArc
 50
225.0
 51
315.0
  0
ARC
  5
8F
330
2
100
AcDbEntity
  8
0
100
AcDbCircle
 10
-3.160989259908262
 20
-30.10923699965935
 30
0.0
 40
2.5
100
AcDbArc
 50
225.0
 51
315.0
  0
LINE
  5
90
330
2
100
AcDbEntity
  8
0
100
AcDbLine
 10
-1.660989259908262
 20
-47.82499799965933
 30
0.0
 11
-4.660989259908262
 21
-47.82499799965933
 31
0.0
  0
ARC
  5
91
330
2
100
AcDbEntity
  8
14
100
AcDbCircle
 10
-8.020366259908257
 20
8.145983000340663
 30
0.0
 40
3.286685999999999
100
AcDbArc
 50
314.7480339999992
 51
43.48915599999966
  0
LINE
  5
92
330
2
100
AcDbEntity
  8
14
100
AcDbLine
 10
-22.00536625990827
 20
11.15039800034065
 30
0.0
 11
-18.96481025990823
 21
8.109842000340677
 31
0.0
  0
LINE
  5
93
330
2
100
AcDbEntity
  8
0
100
AcDbLine
 10
-33.21299525990827
 20
-0.057230999659339
 30
0.0
 11
-4.928756259908254
 21
28.22700800034068
 31
0.0
  0
LINE
  5
94
330
2
100
AcDbEntity
  8
0
100
AcDbLine
 10
-33.21299525990827
 20
-3.592764999659323
 30
0.0
 11
-4.928756259908254
 21
-31.87700399965934
 31
0.0
  0
LINE
  5
95
330
2
100
AcDbEntity
  8
14
100
AcDbLine
 10
-23.17209125990826
 20
-9.673874999659346
 30
0.0
 11
-16.94955925990825
 21
-3.451343999659343
 31
0.0
  0
LINE
  5
96
330
2
100
AcDbEntity
  8
14
100
AcDbLine
 10
-23.17209125990826
 20
6.023879000340684
 30
0.0
 11
-16.94955925990825
 21
-0.1986519996593188
 31
0.0
  0
LINE
  5
97
330
2
100
AcDbEntity
  8
0
100
AcDbLine
 10
-22.16098925990826
 20
-49.82499799965933
 30
0.0
 11
-27.66098925990827
 21
-49.82499799965933
 31
0.0
  0
LINE
  5
98
330
2
100
AcDbEntity
  8
0
100
AcDbLine
 10
-22.16098925990826
 20
-45.2249979996593
 30
0.0
 11
-27.66098925990827
 21
-45.2249979996593
 31
0.0
  0
ARC
  5
99
330
2
100
AcDbEntity
  8
0
100
AcDbCircle
 10
-25.51598925990828
 20
-47.52499799965931
 30
0.0
 40
3.145
100
AcDbArc
 50
133.0028689999997
 51
226.9971310000003
  0
LINE
  5
9A
330
2
100
AcDbEntity
  8
0
100
AcDbLine
 10
-30.91098925990826
 20
-49.82499799965933
 30
0.0
 11
-31.66098925990826
 21
-50.57499799965933
 31
0.0
  0
LINE
  5
9B
330
2
100
AcDbEntity
  8
14
100
AcDbLine
 10
-28.66098925990826
 20
-50.57499799965933
 30
0.0
 11
-31.66098925990826
 21
-50.57499799965933
 31
0.0
  0
LINE
  5
9C
330
2
100
AcDbEntity
  8
0
100
AcDbLine
 10
-28.66098925990826
 20
-49.82499799965933
 30
0.0
 11
-30.91098925990826
 21
-49.82499799965933
 31
0.0
  0
ARC
  5
9D
330
2
100
AcDbEntity
  8
0
100
AcDbCircle
 10
-31.44522825990828
 20
-1.824997999659331
 30
0.0
 40
2.5
100
AcDbArc
 50
135.0
 51
225.0
  0
LINE
  5
9E
330
2
100
AcDbEntity
  8
14
100
AcDbLine
 10
-31.72807425990828
 20
-2.532103999659341
 30
0.0
 11
-24.58630325990828
 21
-9.673874999659346
 31
0.0
  0
ARC
  5
9F
330
2
100
AcDbEntity
  8
14
100
AcDbCircle
 10
-23.87919725990827
 20
-8.966768999659336
 30
0.0
 40
0.999999
100
AcDbArc
 50
225.0
 51
315.0
  0
LINE
  5
A0
330
2
100
AcDbEntity
  8
14
100
AcDbLine
 10
-31.72807425990828
 20
-1.11789199965932
 30
0.0
 11
-24.58630325990828
 21
6.023879000340684
 31
0.0
  0
ARC
  5
A1
330
2
100
AcDbEntity
  8
14
100
AcDbCircle
 10
-31.02096825990827
 20
-1.824997999659331
 30
0.0
 40
0.999999
100
AcDbArc
 50
135.0
 51
225.0
  0
ARC
  5
A2
330
2
100
AcDbEntity
  8
14
100
AcDbCircle
 10
-23.87919725990827
 20
5.316773000340674
 30
0.0
 40
0.999999
100
AcDbArc
 50
45.0
 51
135.0
  0
LINE
  5
A3
330
2
100
AcDbEntity
  8
14
100
AcDbLine
 10
-3.868095259908272
 20
-30.39208299965935
 30
0.0
 11
-11.00986625990828
 21
-23.25031199965934
 31
0.0
  0
LINE
  5
A4
330
2
100
AcDbEntity
  8
0
100
AcDbLine
 10
-19.16098925990826
 20
-45.07499799965933
 30
0.0
 11
-21.16098925990826
 21
-45.07499799965933
 31
0.0
  0
ARC
  5
A5
330
2
100
AcDbEntity
  8
0
100
AcDbCircle
 10
-24.30598925990825
 20
-47.52499799965931
 30
0.0
 40
3.145
100
AcDbArc
 50
313.0028689999997
 51
46.9971310000003
  0
ARC
  5
A6
330
2
100
AcDbEntity
  8
14
100
AcDbCircle
 10
-13.13197025990826
 20
-6.684374999659326
 30
0.0
 40
3.286685999999999
100
AcDbArc
 50
44.74803399999919
 51
133.4891559999996
  0
ARC
  5
A7
330
2
100
AcDbEntity
  8
14
100
AcDbCircle
 10
-13.13197025990826
 20
3.034379000340663
 30
0.0
 40
3.286685999999999
100
AcDbArc
 50
226.5108440000003
 51
315.2519660000008
  0
LINE
  5
A8
330
2
100
AcDbEntity
  8
14
100
AcDbLine
 10
-16.13638525990825
 20
-20.66937499965934
 30
0.0
 11
-13.09582925990827
 21
-17.6288189996593
 31
0.0
  0
LINE
  5
A9
330
2
100
AcDbEntity
  8
14
100
AcDbLine
 10
-20.90935225990825
 20
-9.815296999659324
 30
0.0
 11
-15.39392425990826
 21
-4.299868999659338
 31
0.0
  0
LINE
  5
AA
330
2
100
AcDbEntity
  8
14
100
AcDbLine
 10
-20.90935225990825
 20
-9.815296999659324
 30
0.0
 11
-18.96481025990823
 21
-11.75983799965934
 31
0.0
  0
LINE
  5
AB
330
2
100
AcDbEntity
  8
14
100
AcDbLine
 10
-22.00536625990827
 20
-14.80039399965932
 30
0.0
 11
-18.96481025990823
 21
-11.75983799965934
 31
0.0
  0
LINE
  5
AC
330
2
100
AcDbEntity
  8
14
100
AcDbLine
 10
-20.90935225990825
 20
6.165301000340662
 30
0.0
 11
-15.39392425990826
 21
0.6498730003406763
 31
0.0
  0
LINE
  5
AD
330
2
100
AcDbEntity
  8
14
100
AcDbLine
 10
-20.90935225990825
 20
6.165301000340662
 30
0.0
 11
-18.96481025990823
 21
8.109842000340677
 31
0.0
  0
LINE
  5
AE
330
2
100
AcDbEntity
  8
14
100
AcDbLine
 10
-16.94955925990825
 20
-0.1986519996593188
 30
0.0
 11
-16.94955925990825
 21
-3.451343999659343
 31
0.0
  0
LINE
  5
AF
330
2
100
AcDbEntity
  8
14
100
AcDbLine
 10
-10.79773525990828
 20
-4.370579999659355
 30
0.0
 11
-5.706571259908287
 21
-9.461743999659347
 31
0.0
  0
LINE
  5
B0
330
2
100
AcDbEntity
  8
14
100
AcDbLine
 10
-11.00986625990828
 20
-21.83609999965932
 30
0.0
 11
-4.787335259908275
 21
-15.61356799965932
 31
0.0
  0
LINE
  5
B1
330
2
100
AcDbEntity
  8
14
100
AcDbLine
 10
-11.15128825990825
 20
-19.57336099965931
 30
0.0
 11
-5.63586025990827
 21
-14.05793299965933
 31
0.0
  0
ARC
  5
B2
330
2
100
AcDbEntity
  8
14
100
AcDbCircle
 10
-10.30276025990827
 20
-22.54320599965934
 30
0.0
 40
0.999999
100
AcDbArc
 50
135.0
 51
225.0
  0
LINE
  5
B3
330
2
100
AcDbEntity
  8
14
100
AcDbLine
 10
-13.09582925990827
 20
-17.6288189996593
 30
0.0
 11
-11.15128825990825
 21
-19.57336099965931
 31
0.0
  0
ARC
  5
B4
330
2
100
AcDbEntity
  8
14
100
AcDbCircle
 10
-8.020366259908257
 20
-11.79597899965932
 30
0.0
 40
3.286685999999999
100
AcDbArc
 50
316.5108440000004
 51
45.2519660000008
  0
LINE
  5
B5
330
2
100
AcDbEntity
  8
14
100
AcDbLine
 10
-5.706571259908287
 20
5.811748000340685
 30
0.0
 11
-10.79773525990828
 21
0.7205840003406934
 31
0.0
  0
LINE
  5
B6
330
2
100
AcDbEntity
  8
14
100
AcDbLine
 10
-16.13638525990825
 20
17.01937900034067
 30
0.0
 11
-13.09582925990827
 21
13.97882300034064
 31
0.0
  0
LINE
  5
B7
330
2
100
AcDbEntity
  8
14
100
AcDbLine
 10
-3.868095259908272
 20
26.74208700034069
 30
0.0
 11
-11.00986625990828
 21
19.60031600034068
 31
0.0
  0
LINE
  5
B8
330
2
100
AcDbEntity
  8
14
100
AcDbLine
 10
-11.00986625990828
 20
18.18610400034066
 30
0.0
 11
-4.787335259908275
 21
11.96357200034066
 31
0.0
  0
LINE
  5
B9
330
2
100
AcDbEntity
  8
14
100
AcDbLine
 10
-11.15128825990825
 20
15.92336500034065
 30
0.0
 11
-5.63586025990827
 21
10.40793700034067
 31
0.0
  0
ARC
  5
BA
330
2
100
AcDbEntity
  8
14
100
AcDbCircle
 10
-10.30276025990827
 20
18.89321000034067
 30
0.0
 40
0.999999
100
AcDbArc
 50
135.0
 51
225.0
  0
LINE
  5
BB
330
2
100
AcDbEntity
  8
14
100
AcDbLine
 10
-11.15128825990825
 20
15.92336500034065
 30
0.0
 11
-13.09582925990827
 21
13.97882300034064
 31
0.0
  0
LINE
  5
BC
330
2
100
AcDbEntity
  8
0
100
AcDbLine
 10
-1.39322225990827
 20
28.22700800034068
 30
0.0
 11
26.89101674009175
 21
-0.057230999659339
 31
0.0
  0
LINE
  5
BD
330
2
100
AcDbEntity
  8
14
100
AcDbLine
 10
15.68338774009174
 20
11.15039800034065
 30
0.0
 11
12.64283174009171
 21
8.109842000340677
 31
0.0
  0
ARC
  5
BE
330
2
100
AcDbEntity
  8
14
100
AcDbCircle
 10
1.698387740091732
 20
8.145983000340663
 30
0.0
 40
3.286685999999999
100
AcDbArc
 50
136.5108440000003
 51
225.2519660000008
  0
LINE
  5
BF
330
2
100
AcDbEntity
  8
0
100
AcDbLine
 10
14.83901074009174
 20
-45.2249979996593
 30
0.0
 11
21.33901074009174
 21
-45.2249979996593
 31
0.0
  0
LINE
  5
C0
330
2
100
AcDbEntity
  8
0
100
AcDbLine
 10
14.83901074009174
 20
-49.82499799965933
 30
0.0
 11
21.33901074009174
 21
-49.82499799965933
 31
0.0
  0
LINE
  5
C1
330
2
100
AcDbEntity
  8
0
100
AcDbLine
 10
26.89101674009175
 20
-3.592764999659323
 30
0.0
 11
-1.39322225990827
 21
-31.87700399965934
 31
0.0
  0
LINE
  5
C2
330
2
100
AcDbEntity
  8
14
100
AcDbLine
 10
16.85011274009173
 20
-9.673874999659346
 30
0.0
 11
10.62758074009173
 21
-3.451343999659343
 31
0.0
  0
LINE
  5
C3
330
2
100
AcDbEntity
  8
14
100
AcDbLine
 10
16.85011274009173
 20
6.023879000340684
 30
0.0
 11
10.62758074009173
 21
-0.1986519996593188
 31
0.0
  0
LINE
  5
C4
330
2
100
AcDbEntity
  8
14
100
AcDbLine
 10
-2.453883259908252
 20
-30.39208299965935
 30
0.0
 11
4.687887740091753
 21
-23.25031199965934
 31
0.0
  0
LINE
  5
C5
330
2
100
AcDbEntity
  8
0
100
AcDbLine
 10
12.83901074009174
 20
-45.07499799965933
 30
0.0
 11
14.83901074009174
 21
-45.07499799965933
 31
0.0
  0
ARC
  5
C6
330
2
100
AcDbEntity
  8
14
100
AcDbCircle
 10
6.809991740091732
 20
-6.684374999659326
 30
0.0
 40
3.286685999999999
100
AcDbArc
 50
46.51084400000033
 51
135.2519660000008
  0
ARC
  5
C7
330
2
100
AcDbEntity
  8
14
100
AcDbCircle
 10
6.809991740091732
 20
3.034379000340663
 30
0.0
 40
3.286685999999999
100
AcDbArc
 50
224.7480339999992
 51
313.4891559999996
  0
LINE
  5
C8
330
2
100
AcDbEntity
  8
14
100
AcDbLine
 10
4.82930974009173
 20
-19.57336099965931
 30
0.0
 11
6.773850740091745
 21
-17.6288189996593
 31
0.0
  0
LINE
  5
C9
330
2
100
AcDbEntity
  8
14
100
AcDbLine
 10
4.475756740091753
 20
-4.370579999659355
 30
0.0
 11
-0.6154072599082383
 21
-9.461743999659347
 31
0.0
  0
LINE
  5
CA
330
2
100
AcDbEntity
  8
14
100
AcDbLine
 10
4.687887740091753
 20
-21.83609999965932
 30
0.0
 11
-1.53464325990825
 21
-15.61356799965932
 31
0.0
  0
LINE
  5
CB
330
2
100
AcDbEntity
  8
14
100
AcDbLine
 10
4.82930974009173
 20
-19.57336099965931
 30
0.0
 11
-0.6861182599082554
 21
-14.05793299965933
 31
0.0
  0
ARC
  5
CC
330
2
100
AcDbEntity
  8
14
100
AcDbCircle
 10
1.698387740091732
 20
-11.79597899965932
 30
0.0
 40
3.286685999999999
100
AcDbArc
 50
134.7480339999992
 51
223.4891559999997
  0
ARC
  5
CD
330
2
100
AcDbEntity
  8
14
100
AcDbCircle
 10
3.980781740091742
 20
-22.54320599965934
 30
0.0
 40
0.999999
100
AcDbArc
 50
315.0
 51
45.0
  0
LINE
  5
CE
330
2
100
AcDbEntity
  8
14
100
AcDbLine
 10
-0.6154072599082383
 20
5.811748000340685
 30
0.0
 11
4.475756740091753
 21
0.7205840003406934
 31
0.0
  0
LINE
  5
CF
330
2
100
AcDbEntity
  8
14
100
AcDbLine
 10
14.58737374009172
 20
-9.815296999659324
 30
0.0
 11
9.071945740091734
 21
-4.299868999659338
 31
0.0
  0
LINE
  5
D0
330
2
100
AcDbEntity
  8
14
100
AcDbLine
 10
9.814406740091726
 20
-20.66937499965934
 30
0.0
 11
6.773850740091745
 21
-17.6288189996593
 31
0.0
  0
LINE
  5
D1
330
2
100
AcDbEntity
  8
14
100
AcDbLine
 10
14.58737374009172
 20
-9.815296999659324
 30
0.0
 11
12.64283174009171
 21
-11.75983799965934
 31
0.0
  0
LINE
  5
D2
330
2
100
AcDbEntity
  8
14
100
AcDbLine
 10
15.68338774009174
 20
-14.80039399965932
 30
0.0
 11
12.64283174009171
 21
-11.75983799965934
 31
0.0
  0
LINE
  5
D3
330
2
100
AcDbEntity
  8
14
100
AcDbLine
 10
14.58737374009172
 20
6.165301000340662
 30
0.0
 11
9.071945740091734
 21
0.6498730003406763
 31
0.0
  0
LINE
  5
D4
330
2
100
AcDbEntity
  8
14
100
AcDbLine
 10
10.62758074009173
 20
-3.451343999659343
 30
0.0
 11
10.62758074009173
 21
-0.1986519996593188
 31
0.0
  0
LINE
  5
D5
330
2
100
AcDbEntity
  8
14
100
AcDbLine
 10
12.64283174009171
 20
8.109842000340677
 30
0.0
 11
14.58737374009172
 21
6.165301000340662
 31
0.0
  0
ARC
  5
D6
330
2
100
AcDbEntity
  8
0
100
AcDbCircle
 10
19.19401074009175
 20
-47.52499799965931
 30
0.0
 40
3.145
100
AcDbArc
 50
313.0028689999997
 51
46.9971310000003
  0
LINE
  5
D7
330
2
100
AcDbEntity
  8
14
100
AcDbLine
 10
25.40609574009176
 20
-2.532103999659341
 30
0.0
 11
18.26432474009175
 21
-9.673874999659346
 31
0.0
  0
LINE
  5
D8
330
2
100
AcDbEntity
  8
14
100
AcDbLine
 10
25.40609574009176
 20
-1.11789199965932
 30
0.0
 11
18.26432474009175
 21
6.023879000340684
 31
0.0
  0
ARC
  5
D9
330
2
100
AcDbEntity
  8
14
100
AcDbCircle
 10
17.55721874009174
 20
-8.966768999659336
 30
0.0
 40
0.999999
100
AcDbArc
 50
225.0
 51
315.0
  0
ARC
  5
DA
330
2
100
AcDbEntity
  8
14
100
AcDbCircle
 10
17.55721874009174
 20
5.316773000340674
 30
0.0
 40
0.999999
100
AcDbArc
 50
45.0
 51
135.0
  0
ARC
  5
DB
330
2
100
AcDbEntity
  8
14
100
AcDbCircle
 10
24.69898974009175
 20
-1.824997999659331
 30
0.0
 40
0.999999
100
AcDbArc
 50
315.0
 51
45.0
  0
ARC
  5
DC
330
2
100
AcDbEntity
  8
0
100
AcDbCircle
 10
25.12324974009175
 20
-1.824997999659331
 30
0.0
 40
2.5
100
AcDbArc
 50
315.0
 51
45.0
  0
LINE
  5
DD
330
2
100
AcDbEntity
  8
14
100
AcDbLine
 10
4.82930974009173
 20
15.92336500034065
 30
0.0
 11
6.773850740091745
 21
13.97882300034064
 31
0.0
  0
LINE
  5
DE
330
2
100
AcDbEntity
  8
14
100
AcDbLine
 10
-2.453883259908252
 20
26.74208700034069
 30
0.0
 11
4.687887740091753
 21
19.60031600034068
 31
0.0
  0
LINE
  5
DF
330
2
100
AcDbEntity
  8
14
100
AcDbLine
 10
4.82930974009173
 20
15.92336500034065
 30
0.0
 11
-0.6861182599082554
 21
10.40793700034067
 31
0.0
  0
LINE
  5
E0
330
2
100
AcDbEntity
  8
14
100
AcDbLine
 10
4.687887740091753
 20
18.18610400034066
 30
0.0
 11
-1.53464325990825
 21
11.96357200034066
 31
0.0
  0
ARC
  5
E1
330
2
100
AcDbEntity
  8
14
100
AcDbCircle
 10
3.980781740091742
 20
18.89321000034067
 30
0.0
 40
0.999999
100
AcDbArc
 50
315.0
 51
45.0
  0
LINE
  5
E2
330
2
100
AcDbEntity
  8
14
100
AcDbLine
 10
9.814406740091726
 20
17.01937900034067
 30
0.0
 11
6.773850740091745
 21
13.97882300034064
 31
0.0
  0
LINE
  5
E3
330
2
100
AcDbEntity
  8
0
100
AcDbLine
 10
-2.727847431795396
 20
175.4013348700701
 30
0.0
 11
-24.2278474317954
 21
175.4013348700701
 31
0.0
  0
LINE
  5
E4
330
2
100
AcDbEntity
  8
0
100
AcDbLine
 10
-24.2278474317954
 20
190.4013348700702
 30
0.0
 11
-18.7278474317954
 21
195.9013348700701
 31
0.0
  0
LINE
  5
E5
330
2
100
AcDbEntity
  8
0
100
AcDbLine
 10
-24.2278474317954
 20
190.4013348700702
 30
0.0
 11
-24.2278474317954
 21
175.4013348700701
 31
0.0
  0
LINE
  5
E6
330
2
100
AcDbEntity
  8
7
100
AcDbLine
 10
-10.72784743179539
 20
175.4013348700701
 30
0.0
 11
-10.72784743179539
 21
205.4013348700702
 31
0.0
  0
LINE
  5
E7
330
2
100
AcDbEntity
  8
7
100
AcDbLine
 10
-9.727847431795396
 20
175.4013348700701
 30
0.0
 11
-9.727847431795396
 21
205.4013348700702
 31
0.0
  0
LINE
  5
E8
330
2
100
AcDbEntity
  8
0
100
AcDbLine
 10
18.7721525682046
 20
190.4013348700702
 30
0.0
 11
13.2721525682046
 21
195.9013348700701
 31
0.0
  0
LINE
  5
E9
330
2
100
AcDbEntity
  8
0
100
AcDbLine
 10
-2.727847431795396
 20
175.4013348700701
 30
0.0
 11
18.7721525682046
 21
175.4013348700701
 31
0.0
  0
LINE
  5
EA
330
2
100
AcDbEntity
  8
7
100
AcDbLine
 10
4.272152568204603
 20
175.4013348700701
 30
0.0
 11
4.272152568204603
 21
205.4013348700702
 31
0.0
  0
LINE
  5
EB
330
2
100
AcDbEntity
  8
7
100
AcDbLine
 10
5.272152568204603
 20
175.4013348700701
 30
0.0
 11
5.272152568204603
 21
205.4013348700702
 31
0.0
  0
LINE
  5
EC
330
2
100
AcDbEntity
  8
0
100
AcDbLine
 10
18.7721525682046
 20
190.4013348700702
 30
0.0
 11
18.7721525682046
 21
175.4013348700701
 31
0.0
  0
LINE
  5
ED
330
2
100
AcDbEntity
  8
0
100
AcDbLine
 10
69.79091574009174
 20
21.81859600034067
 30
0.0
 11
36.58802674009172
 21
2.648898000340693
 31
0.0
  0
LINE
  5
EE
330
2
100
AcDbEntity
  8
0
100
AcDbLine
 10
52.05886474009173
 20
48.53140800034066
 30
0.0
 11
68.05886474009174
 21
20.81859600034068
 31
0.0
  0
LINE
  5
EF
330
2
100
AcDbEntity
  8
ASSE
100
AcDbLine
 10
206.1792817400918
 20
97.08957400034066
 30
0.0
 11
187.5948027400917
 21
130.2507140003406
 31
0.0
  0
LINE
  5
F0
330
2
100
AcDbEntity
  8
0
100
AcDbLine
 10
167.0405865682046
 20
175.4013348700701
 30
0.0
 11
211.3247875682046
 21
175.4013348700701
 31
0.0
  0
ARC
  5
F1
330
2
100
AcDbEntity
  8
0
100
AcDbCircle
 10
196.8859227400917
 20
113.6721410003406
 30
0.0
 40
14.005722
100
AcDbArc
 50
298.3620859999979
 51
121.6379140000006
  0
ARC
  5
F2
330
2
100
AcDbEntity
  8
7
100
AcDbCircle
 10
196.8859227400917
 20
113.6721410003406
 30
0.0
 40
8.0
100
AcDbArc
 50
119.267553999999
 51
30.00000000000055
  0
LINE
  5
F3
330
2
100
AcDbEntity
  8
0
100
AcDbLine
 10
190.1395717400917
 20
93.36860900034066
 30
0.0
 11
175.9293737400917
 21
117.9813950003407
 31
0.0
  0
LINE
  5
F4
330
2
100
AcDbEntity
  8
0
100
AcDbLine
 10
175.9293737400917
 20
117.9813950003407
 30
0.0
 11
167.9543457400917
 21
121.7945480003407
 31
0.0
  0
LINE
  5
F5
330
2
100
AcDbEntity
  8
0
100
AcDbLine
 10
168.2023805682046
 20
189.4013348700702
 30
0.0
 11
177.0155335682046
 21
192.4013348700702
 31
0.0
  0
LINE
  5
F6
330
2
100
AcDbEntity
  8
0
100
AcDbLine
 10
168.2023805682046
 20
189.4013348700702
 30
0.0
 11
168.2023805682046
 21
175.4013348700701
 31
0.0
  0
LINE
  5
F7
330
2
100
AcDbEntity
  8
0
100
AcDbLine
 10
165.8787925682045
 20
186.4013348700702
 30
0.0
 11
167.0405865682046
 21
175.4013348700701
 31
0.0
  0
LINE
  5
F8
330
2
100
AcDbEntity
  8
0
100
AcDbLine
 10
177.0155335682046
 20
192.4013348700702
 30
0.0
 11
177.0155335682046
 21
175.4013348700701
 31
0.0
  0
CIRCLE
  5
F9
330
2
100
AcDbEntity
  8
7
100
AcDbCircle
 10
196.8859227400917
 20
113.6721410003406
 30
0.0
 40
7.0
  0
LINE
  5
FA
330
2
100
AcDbEntity
  8
0
100
AcDbLine
 10
190.1395717400917
 20
93.36860900034066
 30
0.0
 11
189.4543457400917
 21
84.55545600034065
 31
0.0
  0
LINE
  5
FB
330
2
100
AcDbEntity
  8
7
100
AcDbLine
 10
190.3190645682046
 20
175.4013348700701
 30
0.0
 11
190.3190645682046
 21
205.4013348700702
 31
0.0
  0
LINE
  5
FC
330
2
100
AcDbEntity
  8
7
100
AcDbLine
 10
189.3190645682046
 20
175.4013348700701
 30
0.0
 11
189.3190645682046
 21
205.4013348700702
 31
0.0
  0
LINE
  5
FD
330
2
100
AcDbEntity
  8
7
100
AcDbLine
 10
205.3190645682046
 20
175.4013348700701
 30
0.0
 11
205.3190645682046
 21
205.4013348700702
 31
0.0
  0
LINE
  5
FE
330
2
100
AcDbEntity
  8
7
100
AcDbLine
 10
204.3190645682046
 20
175.4013348700701
 30
0.0
 11
204.3190645682046
 21
205.4013348700702
 31
0.0
  0
LINE
  5
FF
330
2
100
AcDbEntity
  8
ASSE
100
AcDbLine
 10
435.9030383188799
 20
-2.403402626397223
 30
0.0
 11
340.90303831888
 21
-2.403402626397223
 31
0.0
  0
LINE
  5
100
330
2
100
AcDbEntity
  8
0
100
AcDbLine
 10
428.90303831888
 20
37.59659737360278
 30
0.0
 11
418.9030383188799
 21
37.59659737360278
 31
0.0
  0
LINE
  5
101
330
2
100
AcDbEntity
  8
7
100
AcDbLine
 10
430.9030383188799
 20
-32.40340262639723
 30
0.0
 11
345.90303831888
 21
-32.40340262639723
 31
0.0
  0
LINE
  5
102
330
2
100
AcDbEntity
  8
7
100
AcDbLine
 10
430.9030383188799
 20
27.59659737360278
 30
0.0
 11
345.90303831888
 21
27.59659737360278
 31
0.0
  0
LINE
  5
103
330
2
100
AcDbEntity
  8
0
100
AcDbLine
 10
428.90303831888
 20
-42.40340262639722
 30
0.0
 11
418.9030383188799
 21
-42.40340262639722
 31
0.0
  0
LINE
  5
104
330
2
100
AcDbEntity
  8
ASSE
100
AcDbLine
 10
362.40303831888
 20
-69.1290516263972
 30
0.0
 11
362.40303831888
 21
-41.46961662639722
 31
0.0
  0
LINE
  5
105
330
2
100
AcDbEntity
  8
ASSE
100
AcDbLine
 10
402.4030383188799
 20
-42.21716762639721
 30
0.0
 11
402.4030383188799
 21
-68.94216662639724
 31
0.0
  0
CIRCLE
  5
106
330
2
100
AcDbEntity
  8
0
100
AcDbCircle
 10
402.4030383188799
 20
-55.40340262639722
 30
0.0
 40
8.5
  0
LINE
  5
107
330
2
100
AcDbEntity
  8
0
100
AcDbLine
 10
418.9030383188799
 20
-75.40340262639722
 30
0.0
 11
418.9030383188799
 21
-39.06400862639726
 31
0.0
  0
CIRCLE
  5
108
330
2
100
AcDbEntity
  8
0
100
AcDbCircle
 10
362.40303831888
 20
-55.40340262639722
 30
0.0
 40
8.5
  0
LINE
  5
109
330
2
100
AcDbEntity
  8
0
100
AcDbLine
 10
345.90303831888
 20
-87.40340262639723
 30
0.0
 11
345.90303831888
 21
26.24019137360278
 31
0.0
  0
LINE
  5
10A
330
2
100
AcDbEntity
  8
0
100
AcDbLine
 10
393.90303831888
 20
-60.3108796263972
 30
0.0
 11
393.90303831888
 21
-50.49592562639725
 31
0.0
  0
LINE
  5
10B
330
2
100
AcDbEntity
  8
0
100
AcDbLine
 10
410.9030383188799
 20
-50.49592562639725
 30
0.0
 11
410.9030383188799
 21
-60.3108796263972
 31
0.0
  0
LINE
  5
10C
330
2
100
AcDbEntity
  8
0
100
AcDbLine
 10
353.90303831888
 20
-60.3108796263972
 30
0.0
 11
353.90303831888
 21
-50.49592562639725
 31
0.0
  0
LINE
  5
10D
330
2
100
AcDbEntity
  8
0
100
AcDbLine
 10
370.90303831888
 20
-50.49592562639725
 30
0.0
 11
370.90303831888
 21
-60.3108796263972
 31
0.0
  0
LINE
  5
10E
330
2
100
AcDbEntity
  8
ASSE
100
AcDbLine
 10
280.90303831888
 20
-233.3976806263972
 30
0.0
 11
355.90303831888
 21
-233.3976806263972
 31
0.0
  0
LINE
  5
10F
330
2
100
AcDbEntity
  8
0
100
AcDbLine
 10
302.90303831888
 20
-218.4034026263972
 30
0.0
 11
345.90303831888
 21
-87.40340262639723
 31
0.0
  0
LINE
  5
110
330
2
100
AcDbEntity
  8
0
100
AcDbLine
 10
345.90303831888
 20
-87.40340262639723
 30
0.0
 11
299.90303831888
 21
-212.4034026263972
 31
0.0
  0
LINE
  5
111
330
2
100
AcDbEntity
  8
0
100
AcDbLine
 10
296.90303831888
 20
-207.4034026263972
 30
0.0
 11
345.90303831888
 21
-75.40340262639722
 31
0.0
  0
LINE
  5
112
330
2
100
AcDbEntity
  8
0
100
AcDbLine
 10
350.90303831888
 20
-247.4034026263972
 30
0.0
 11
285.90303831888
 21
-247.4034026263972
 31
0.0
  0
LINE
  5
113
330
2
100
AcDbEntity
  8
7
100
AcDbLine
 10
285.90303831888
 20
-226.3976806263972
 30
0.0
 11
315.90303831888
 21
-226.3976806263972
 31
0.0
  0
LINE
  5
114
330
2
100
AcDbEntity
  8
7
100
AcDbLine
 10
285.90303831888
 20
-240.3976806263973
 30
0.0
 11
315.90303831888
 21
-240.3976806263973
 31
0.0
  0
LINE
  5
115
330
2
100
AcDbEntity
  8
7
100
AcDbLine
 10
285.90303831888
 20
-225.3976806263972
 30
0.0
 11
315.90303831888
 21
-225.3976806263972
 31
0.0
  0
LINE
  5
116
330
2
100
AcDbEntity
  8
7
100
AcDbLine
 10
285.90303831888
 20
-241.3976806263972
 30
0.0
 11
315.90303831888
 21
-241.3976806263972
 31
0.0
  0
LINE
  5
117
330
2
100
AcDbEntity
  8
0
100
AcDbLine
 10
285.90303831888
 20
-247.4034026263972
 30
0.0
 11
285.90303831888
 21
-209.9034026263972
 31
0.0
  0
LINE
  5
118
330
2
100
AcDbEntity
  8
0
100
AcDbLine
 10
285.90303831888
 20
-209.9034026263972
 30
0.0
 11
296.90303831888
 21
-207.4034026263972
 31
0.0
  0
LINE
  5
119
330
2
100
AcDbEntity
  8
0
100
AcDbLine
 10
302.90303831888
 20
-218.4034026263972
 30
0.0
 11
285.90303831888
 21
-218.4034026263972
 31
0.0
  0
LINE
  5
11A
330
2
100
AcDbEntity
  8
0
100
AcDbLine
 10
299.90303831888
 20
-212.4034026263972
 30
0.0
 11
285.90303831888
 21
-212.4034026263972
 31
0.0
  0
LINE
  5
11B
330
2
100
AcDbEntity
  8
0
100
AcDbLine
 10
302.90303831888
 20
-218.4034026263972
 30
0.0
 11
299.90303831888
 21
-212.4034026263972
 31
0.0
  0
LINE
  5
11C
330
2
100
AcDbEntity
  8
0
100
AcDbLine
 10
350.90303831888
 20
-217.4034026263972
 30
0.0
 11
418.9030383188799
 21
-75.40340262639722
 31
0.0
  0
LINE
  5
11D
330
2
100
AcDbEntity
  8
0
100
AcDbLine
 10
350.90303831888
 20
-247.4034026263972
 30
0.0
 11
350.90303831888
 21
-217.4034026263972
 31
0.0
  0
LINE
  5
11E
330
2
100
AcDbEntity
  8
0
100
AcDbLine
 10
370.90303831888
 20
-60.3108796263972
 30
0.0
 11
362.40303831888
 21
-65.21835762639722
 31
0.0
  0
LINE
  5
11F
330
2
100
AcDbEntity
  8
0
100
AcDbLine
 10
362.40303831888
 20
-65.21835762639722
 30
0.0
 11
353.90303831888
 21
-60.3108796263972
 31
0.0
  0
LINE
  5
120
330
2
100
AcDbEntity
  8
0
100
AcDbLine
 10
402.4030383188799
 20
-65.21835762639722
 30
0.0
 11
393.90303831888
 21
-60.3108796263972
 31
0.0
  0
LINE
  5
121
330
2
100
AcDbEntity
  8
0
100
AcDbLine
 10
410.9030383188799
 20
-60.3108796263972
 30
0.0
 11
402.4030383188799
 21
-65.21835762639722
 31
0.0
  0
LINE
  5
122
330
2
100
AcDbEntity
  8
ASSE
100
AcDbLine
 10
280.90303831888
 20
113.0937363736028
 30
0.0
 11
360.12232331888
 21
113.0937363736028
 31
0.0
  0
LINE
  5
123
330
2
100
AcDbEntity
  8
0
100
AcDbLine
 10
345.90303831888
 20
20.24019137360278
 30
0.0
 11
296.90303831888
 21
81.65346337360279
 31
0.0
  0
LINE
  5
124
330
2
100
AcDbEntity
  8
0
100
AcDbLine
 10
345.90303831888
 20
26.24019137360278
 30
0.0
 11
299.90303831888
 21
83.97705137360276
 31
0.0
  0
LINE
  5
125
330
2
100
AcDbEntity
  8
0
100
AcDbLine
 10
345.90303831888
 20
26.24019137360278
 30
0.0
 11
302.90303831888
 21
92.79020437360276
 31
0.0
  0
LINE
  5
126
330
2
100
AcDbEntity
  8
0
100
AcDbLine
 10
350.90303831888
 20
127.0994583736028
 30
0.0
 11
285.90303831888
 21
127.0994583736028
 31
0.0
  0
LINE
  5
127
330
2
100
AcDbEntity
  8
7
100
AcDbLine
 10
285.90303831888
 20
120.0937363736028
 30
0.0
 11
315.90303831888
 21
120.0937363736028
 31
0.0
  0
LINE
  5
128
330
2
100
AcDbEntity
  8
7
100
AcDbLine
 10
285.90303831888
 20
121.0937363736028
 30
0.0
 11
315.90303831888
 21
121.0937363736028
 31
0.0
  0
LINE
  5
129
330
2
100
AcDbEntity
  8
7
100
AcDbLine
 10
285.90303831888
 20
105.0937363736027
 30
0.0
 11
315.90303831888
 21
105.0937363736027
 31
0.0
  0
LINE
  5
12A
330
2
100
AcDbEntity
  8
7
100
AcDbLine
 10
285.90303831888
 20
106.0937363736027
 30
0.0
 11
315.90303831888
 21
106.0937363736027
 31
0.0
  0
LINE
  5
12B
330
2
100
AcDbEntity
  8
0
100
AcDbLine
 10
285.90303831888
 20
82.81525737360277
 30
0.0
 11
285.90303831888
 21
127.0994583736028
 31
0.0
  0
LINE
  5
12C
330
2
100
AcDbEntity
  8
0
100
AcDbLine
 10
296.90303831888
 20
81.65346337360279
 30
0.0
 11
285.90303831888
 21
82.81525737360277
 31
0.0
  0
LINE
  5
12D
330
2
100
AcDbEntity
  8
0
100
AcDbLine
 10
299.90303831888
 20
83.97705137360276
 30
0.0
 11
285.90303831888
 21
83.97705137360276
 31
0.0
  0
LINE
  5
12E
330
2
100
AcDbEntity
  8
0
100
AcDbLine
 10
302.90303831888
 20
92.79020437360276
 30
0.0
 11
285.90303831888
 21
92.79020437360276
 31
0.0
  0
LINE
  5
12F
330
2
100
AcDbEntity
  8
0
100
AcDbLine
 10
299.90303831888
 20
83.97705137360276
 30
0.0
 11
302.90303831888
 21
92.79020437360276
 31
0.0
  0
LINE
  5
130
330
2
100
AcDbEntity
  8
0
100
AcDbLine
 10
418.9030383188799
 20
47.95300337360276
 30
0.0
 11
350.90303831888
 21
117.4029903736028
 31
0.0
  0
LINE
  5
131
330
2
100
AcDbEntity
  8
0
100
AcDbLine
 10
418.9030383188799
 20
20.24019137360278
 30
0.0
 11
350.90303831888
 21
92.79020437360276
 31
0.0
  0
LINE
  5
132
330
2
100
AcDbEntity
  8
ASSE
100
AcDbLine
 10
417.22728431888
 20
-55.40340262639722
 30
0.0
 11
348.94059131888
 21
-55.40340262639722
 31
0.0
  0
LINE
  5
133
330
2
100
AcDbEntity
  8
0
100
AcDbLine
 10
418.9030383188799
 20
2.070493373602801
 30
0.0
 11
345.90303831888
 21
2.070493373602801
 31
0.0
  0
LINE
  5
134
330
2
100
AcDbEntity
  8
0
100
AcDbLine
 10
418.9030383188799
 20
-39.06400862639726
 30
0.0
 11
345.90303831888
 21
-39.06400862639726
 31
0.0
  0
LINE
  5
135
330
2
100
AcDbEntity
  8
0
100
AcDbLine
 10
362.40303831888
 20
-45.58844762639722
 30
0.0
 11
370.90303831888
 21
-50.49592562639725
 31
0.0
  0
LINE
  5
136
330
2
100
AcDbEntity
  8
0
100
AcDbLine
 10
353.90303831888
 20
-50.49592562639725
 30
0.0
 11
362.40303831888
 21
-45.58844762639722
 31
0.0
  0
LINE
  5
137
330
2
100
AcDbEntity
  8
0
100
AcDbLine
 10
418.9030383188799
 20
2.070493373602801
 30
0.0
 11
418.9030383188799
 21
47.95300337360276
 31
0.0
  0
LINE
  5
138
330
2
100
AcDbEntity
  8
0
100
AcDbLine
 10
393.90303831888
 20
-50.49592562639725
 30
0.0
 11
402.4030383188799
 21
-45.58844762639722
 31
0.0
  0
LINE
  5
139
330
2
100
AcDbEntity
  8
0
100
AcDbLine
 10
402.4030383188799
 20
-45.58844762639722
 30
0.0
 11
410.9030383188799
 21
-50.49592562639725
 31
0.0
  0
LINE
  5
13A
330
2
100
AcDbEntity
  8
0
100
AcDbLine
 10
350.90303831888
 20
92.79020437360276
 30
0.0
 11
350.90303831888
 21
127.0994583736028
 31
0.0
  0
LINE
  5
13B
330
2
100
AcDbEntity
  8
0
100
AcDbLine
 10
430.9030383188799
 20
-40.40340262639722
 30
0.0
 11
430.9030383188799
 21
35.59659737360278
 31
0.0
  0
ARC
  5
13C
330
2
100
AcDbEntity
  8
0
100
AcDbCircle
 10
428.90303831888
 20
-40.40340262639722
 30
0.0
 40
2.0
100
AcDbArc
 50
270.0
 51
0.0
  0
ARC
  5
13D
330
2
100
AcDbEntity
  8
0
100
AcDbCircle
 10
428.90303831888
 20
35.59659737360278
 30
0.0
 40
2.0
100
AcDbArc
 50
0.0
 51
90.0
  0
LINE
  5
13E
330
2
100
AcDbEntity
  8
0
100
AcDbLine
 10
54.22405756820461
 20
308.4013348700702
 30
0.0
 11
177.0155335682046
 21
240.4013348700702
 31
0.0
  0
LINE
  5
13F
330
2
100
AcDbEntity
  8
0
100
AcDbLine
 10
13.2721525682046
 20
235.4013348700702
 30
0.0
 11
60.22405756820461
 21
235.4013348700702
 31
0.0
  0
LINE
  5
140
330
2
100
AcDbEntity
  8
0
100
AcDbLine
 10
-40.72784743179539
 20
320.4013348700702
 30
0.0
 11
35.2721525682046
 21
320.4013348700702
 31
0.0
  0
LINE
  5
141
330
2
100
AcDbEntity
  8
ASSE
100
AcDbLine
 10
-32.2278474317954
 20
251.9013348700702
 30
0.0
 11
23.7721525682046
 21
251.9013348700702
 31
0.0
  0
LINE
  5
142
330
2
100
AcDbEntity
  8
ASSE
100
AcDbLine
 10
-32.2278474317954
 20
291.9013348700702
 30
0.0
 11
23.7721525682046
 21
291.9013348700702
 31
0.0
  0
LINE
  5
143
330
2
100
AcDbEntity
  8
0
100
AcDbLine
 10
13.2721525682046
 20
240.4013348700702
 30
0.0
 11
-18.7278474317954
 21
240.4013348700702
 31
0.0
  0
LINE
  5
144
330
2
100
AcDbEntity
  8
0
100
AcDbLine
 10
13.2721525682046
 20
308.4013348700702
 30
0.0
 11
-18.7278474317954
 21
308.4013348700702
 31
0.0
  0
LINE
  5
145
330
2
100
AcDbEntity
  8
7
100
AcDbLine
 10
-32.7278474317954
 20
320.4013348700702
 30
0.0
 11
-32.7278474317954
 21
235.4013348700702
 31
0.0
  0
LINE
  5
146
330
2
100
AcDbEntity
  8
0
100
AcDbLine
 10
-21.7278474317954
 20
261.5013348700702
 30
0.0
 11
-27.2278474317954
 21
261.5013348700702
 31
0.0
  0
LINE
  5
147
330
2
100
AcDbEntity
  8
0
100
AcDbLine
 10
-21.7278474317954
 20
256.9013348700702
 30
0.0
 11
-27.2278474317954
 21
256.9013348700702
 31
0.0
  0
LINE
  5
148
330
2
100
AcDbEntity
  8
0
100
AcDbLine
 10
-21.7278474317954
 20
242.3013348700702
 30
0.0
 11
-27.2278474317954
 21
242.3013348700702
 31
0.0
  0
LINE
  5
149
330
2
100
AcDbEntity
  8
0
100
AcDbLine
 10
-21.7278474317954
 20
246.9013348700702
 30
0.0
 11
-27.2278474317954
 21
246.9013348700702
 31
0.0
  0
LINE
  5
14A
330
2
100
AcDbEntity
  8
0
100
AcDbLine
 10
-28.2278474317954
 20
244.6013348700702
 30
0.0
 11
-28.2278474317954
 21
259.2013348700702
 31
0.0
  0
ARC
  5
14B
330
2
100
AcDbEntity
  8
0
100
AcDbCircle
 10
-15.2278474317954
 20
251.9013348700702
 30
0.0
 40
13.0
100
AcDbArc
 50
157.3801349999996
 51
202.6198650000003
  0
LINE
  5
14C
330
2
100
AcDbEntity
  8
0
100
AcDbLine
 10
-31.2278474317954
 20
247.6513348700702
 30
0.0
 11
-31.2278474317954
 21
256.1513348700702
 31
0.0
  0
LINE
  5
14D
330
2
100
AcDbEntity
  8
0
100
AcDbLine
 10
-30.4778474317954
 20
246.9013348700702
 30
0.0
 11
-30.4778474317954
 21
256.9013348700702
 31
0.0
  0
ARC
  5
14E
330
2
100
AcDbEntity
  8
0
100
AcDbCircle
 10
-25.08284743179542
 20
244.6013348700702
 30
0.0
 40
3.145
100
AcDbArc
 50
133.0028689999997
 51
226.9971310000003
  0
LINE
  5
14F
330
2
100
AcDbEntity
  8
0
100
AcDbLine
 10
-30.4778474317954
 20
246.9013348700702
 30
0.0
 11
-31.2278474317954
 21
247.6513348700702
 31
0.0
  0
LINE
  5
150
330
2
100
AcDbEntity
  8
0
100
AcDbLine
 10
-28.2278474317954
 20
246.9013348700702
 30
0.0
 11
-30.4778474317954
 21
246.9013348700702
 31
0.0
  0
LINE
  5
151
330
2
100
AcDbEntity
  8
14
100
AcDbLine
 10
-28.2278474317954
 20
247.6513348700702
 30
0.0
 11
-31.2278474317954
 21
247.6513348700702
 31
0.0
  0
ARC
  5
152
330
2
100
AcDbEntity
  8
0
100
AcDbCircle
 10
-25.08284743179542
 20
259.2013348700702
 30
0.0
 40
3.145
100
AcDbArc
 50
133.0028689999997
 51
226.9971310000003
  0
LINE
  5
153
330
2
100
AcDbEntity
  8
0
100
AcDbLine
 10
-30.4778474317954
 20
256.9013348700702
 30
0.0
 11
-31.2278474317954
 21
256.1513348700702
 31
0.0
  0
LINE
  5
154
330
2
100
AcDbEntity
  8
0
100
AcDbLine
 10
-28.2278474317954
 20
256.9013348700702
 30
0.0
 11
-30.4778474317954
 21
256.9013348700702
 31
0.0
  0
LINE
  5
155
330
2
100
AcDbEntity
  8
14
100
AcDbLine
 10
-28.2278474317954
 20
256.1513348700702
 30
0.0
 11
-31.2278474317954
 21
256.1513348700702
 31
0.0
  0
LINE
  5
156
330
2
100
AcDbEntity
  8
0
100
AcDbLine
 10
-20.7278474317954
 20
242.1513348700702
 30
0.0
 11
-20.7278474317954
 21
261.6513348700702
 31
0.0
  0
ARC
  5
157
330
2
100
AcDbEntity
  8
0
100
AcDbCircle
 10
-33.7278474317954
 20
251.9013348700702
 30
0.0
 40
13.0
100
AcDbArc
 50
337.3801349999997
 51
22.61986500000031
  0
ARC
  5
158
330
2
100
AcDbEntity
  8
0
100
AcDbCircle
 10
-23.87284743179538
 20
244.6013348700702
 30
0.0
 40
3.145
100
AcDbArc
 50
313.0028689999997
 51
46.9971310000003
  0
LINE
  5
159
330
2
100
AcDbEntity
  8
0
100
AcDbLine
 10
-18.7278474317954
 20
242.1513348700702
 30
0.0
 11
-20.7278474317954
 21
242.1513348700702
 31
0.0
  0
LINE
  5
15A
330
2
100
AcDbEntity
  8
0
100
AcDbLine
 10
-18.7278474317954
 20
261.6513348700702
 30
0.0
 11
-20.7278474317954
 21
261.6513348700702
 31
0.0
  0
ARC
  5
15B
330
2
100
AcDbEntity
  8
0
100
AcDbCircle
 10
-23.87284743179538
 20
259.2013348700702
 30
0.0
 40
3.145
100
AcDbArc
 50
313.0028689999997
 51
46.9971310000003
  0
LINE
  5
15C
330
2
100
AcDbEntity
  8
0
100
AcDbLine
 10
-21.7278474317954
 20
301.5013348700702
 30
0.0
 11
-27.2278474317954
 21
301.5013348700702
 31
0.0
  0
LINE
  5
15D
330
2
100
AcDbEntity
  8
0
100
AcDbLine
 10
-21.7278474317954
 20
296.9013348700702
 30
0.0
 11
-27.2278474317954
 21
296.9013348700702
 31
0.0
  0
LINE
  5
15E
330
2
100
AcDbEntity
  8
0
100
AcDbLine
 10
-21.7278474317954
 20
286.9013348700702
 30
0.0
 11
-27.2278474317954
 21
286.9013348700702
 31
0.0
  0
LINE
  5
15F
330
2
100
AcDbEntity
  8
0
100
AcDbLine
 10
-21.7278474317954
 20
282.3013348700701
 30
0.0
 11
-27.2278474317954
 21
282.3013348700701
 31
0.0
  0
LINE
  5
160
330
2
100
AcDbEntity
  8
0
100
AcDbLine
 10
-30.4778474317954
 20
286.9013348700702
 30
0.0
 11
-31.2278474317954
 21
287.6513348700702
 31
0.0
  0
LINE
  5
161
330
2
100
AcDbEntity
  8
0
100
AcDbLine
 10
-30.4778474317954
 20
286.9013348700702
 30
0.0
 11
-30.4778474317954
 21
296.9013348700702
 31
0.0
  0
ARC
  5
162
330
2
100
AcDbEntity
  8
0
100
AcDbCircle
 10
-15.2278474317954
 20
291.9013348700702
 30
0.0
 40
13.0
100
AcDbArc
 50
157.3801349999996
 51
202.6198650000003
  0
LINE
  5
163
330
2
100
AcDbEntity
  8
0
100
AcDbLine
 10
-28.2278474317954
 20
284.6013348700702
 30
0.0
 11
-28.2278474317954
 21
299.2013348700702
 31
0.0
  0
ARC
  5
164
330
2
100
AcDbEntity
  8
0
100
AcDbCircle
 10
-25.08284743179542
 20
284.6013348700702
 30
0.0
 40
3.145
100
AcDbArc
 50
133.0028689999997
 51
226.9971310000003
  0
LINE
  5
165
330
2
100
AcDbEntity
  8
0
100
AcDbLine
 10
-28.2278474317954
 20
286.9013348700702
 30
0.0
 11
-30.4778474317954
 21
286.9013348700702
 31
0.0
  0
ARC
  5
166
330
2
100
AcDbEntity
  8
0
100
AcDbCircle
 10
-25.08284743179542
 20
299.2013348700702
 30
0.0
 40
3.145
100
AcDbArc
 50
133.0028689999997
 51
226.9971310000003
  0
LINE
  5
167
330
2
100
AcDbEntity
  8
14
100
AcDbLine
 10
-28.2278474317954
 20
296.1513348700702
 30
0.0
 11
-31.2278474317954
 21
296.1513348700702
 31
0.0
  0
LINE
  5
168
330
2
100
AcDbEntity
  8
0
100
AcDbLine
 10
-28.2278474317954
 20
296.9013348700702
 30
0.0
 11
-30.4778474317954
 21
296.9013348700702
 31
0.0
  0
LINE
  5
169
330
2
100
AcDbEntity
  8
0
100
AcDbLine
 10
-30.4778474317954
 20
296.9013348700702
 30
0.0
 11
-31.2278474317954
 21
296.1513348700702
 31
0.0
  0
LINE
  5
16A
330
2
100
AcDbEntity
  8
14
100
AcDbLine
 10
-28.2278474317954
 20
287.6513348700702
 30
0.0
 11
-31.2278474317954
 21
287.6513348700702
 31
0.0
  0
LINE
  5
16B
330
2
100
AcDbEntity
  8
0
100
AcDbLine
 10
-31.2278474317954
 20
287.6513348700702
 30
0.0
 11
-31.2278474317954
 21
296.1513348700702
 31
0.0
  0
ARC
  5
16C
330
2
100
AcDbEntity
  8
0
100
AcDbCircle
 10
-33.7278474317954
 20
291.9013348700702
 30
0.0
 40
13.0
100
AcDbArc
 50
337.3801349999997
 51
22.61986500000031
  0
LINE
  5
16D
330
2
100
AcDbEntity
  8
0
100
AcDbLine
 10
-20.7278474317954
 20
282.1513348700701
 30
0.0
 11
-20.7278474317954
 21
301.6513348700702
 31
0.0
  0
LINE
  5
16E
330
2
100
AcDbEntity
  8
0
100
AcDbLine
 10
-18.7278474317954
 20
282.1513348700701
 30
0.0
 11
-20.7278474317954
 21
282.1513348700701
 31
0.0
  0
ARC
  5
16F
330
2
100
AcDbEntity
  8
0
100
AcDbCircle
 10
-23.87284743179538
 20
284.6013348700702
 30
0.0
 40
3.145
100
AcDbArc
 50
313.0028689999997
 51
46.9971310000003
  0
LINE
  5
170
330
2
100
AcDbEntity
  8
0
100
AcDbLine
 10
-18.7278474317954
 20
301.6513348700702
 30
0.0
 11
-20.7278474317954
 21
301.6513348700702
 31
0.0
  0
ARC
  5
171
330
2
100
AcDbEntity
  8
0
100
AcDbCircle
 10
-23.87284743179538
 20
299.2013348700702
 30
0.0
 40
3.145
100
AcDbArc
 50
313.0028689999997
 51
46.9971310000003
  0
LINE
  5
172
330
2
100
AcDbEntity
  8
0
100
AcDbLine
 10
-4.227847431795396
 20
320.4013348700702
 30
0.0
 11
-4.227847431795396
 21
308.4013348700702
 31
0.0
  0
LINE
  5
173
330
2
100
AcDbEntity
  8
7
100
AcDbLine
 10
27.27215256820461
 20
320.4013348700702
 30
0.0
 11
27.27215256820461
 21
235.4013348700702
 31
0.0
  0
LINE
  5
174
330
2
100
AcDbEntity
  8
0
100
AcDbLine
 10
15.2721525682046
 20
261.5013348700702
 30
0.0
 11
21.7721525682046
 21
261.5013348700702
 31
0.0
  0
LINE
  5
175
330
2
100
AcDbEntity
  8
0
100
AcDbLine
 10
15.2721525682046
 20
256.9013348700702
 30
0.0
 11
21.7721525682046
 21
256.9013348700702
 31
0.0
  0
LINE
  5
176
330
2
100
AcDbEntity
  8
0
100
AcDbLine
 10
15.2721525682046
 20
246.9013348700702
 30
0.0
 11
21.7721525682046
 21
246.9013348700702
 31
0.0
  0
LINE
  5
177
330
2
100
AcDbEntity
  8
0
100
AcDbLine
 10
15.2721525682046
 20
242.3013348700702
 30
0.0
 11
21.7721525682046
 21
242.3013348700702
 31
0.0
  0
LINE
  5
178
330
2
100
AcDbEntity
  8
0
100
AcDbLine
 10
15.2721525682046
 20
242.1513348700702
 30
0.0
 11
15.2721525682046
 21
261.6513348700702
 31
0.0
  0
LINE
  5
179
330
2
100
AcDbEntity
  8
0
100
AcDbLine
 10
13.2721525682046
 20
242.1513348700702
 30
0.0
 11
15.2721525682046
 21
242.1513348700702
 31
0.0
  0
LINE
  5
17A
330
2
100
AcDbEntity
  8
0
100
AcDbLine
 10
13.2721525682046
 20
261.6513348700702
 30
0.0
 11
15.2721525682046
 21
261.6513348700702
 31
0.0
  0
LINE
  5
17B
330
2
100
AcDbEntity
  8
0
100
AcDbLine
 10
22.7721525682046
 20
244.6013348700702
 30
0.0
 11
22.7721525682046
 21
259.2013348700702
 31
0.0
  0
ARC
  5
17C
330
2
100
AcDbEntity
  8
0
100
AcDbCircle
 10
9.772152568204603
 20
251.9013348700702
 30
0.0
 40
13.0
100
AcDbArc
 50
337.3801349999997
 51
22.61986500000031
  0
ARC
  5
17D
330
2
100
AcDbEntity
  8
0
100
AcDbCircle
 10
19.62715256820462
 20
244.6013348700702
 30
0.0
 40
3.145
100
AcDbArc
 50
313.0028689999997
 51
46.9971310000003
  0
ARC
  5
17E
330
2
100
AcDbEntity
  8
0
100
AcDbCircle
 10
19.62715256820462
 20
259.2013348700702
 30
0.0
 40
3.145
100
AcDbArc
 50
313.0028689999997
 51
46.9971310000003
  0
LINE
  5
17F
330
2
100
AcDbEntity
  8
0
100
AcDbLine
 10
15.2721525682046
 20
301.5013348700702
 30
0.0
 11
21.7721525682046
 21
301.5013348700702
 31
0.0
  0
LINE
  5
180
330
2
100
AcDbEntity
  8
0
100
AcDbLine
 10
15.2721525682046
 20
296.9013348700702
 30
0.0
 11
21.7721525682046
 21
296.9013348700702
 31
0.0
  0
LINE
  5
181
330
2
100
AcDbEntity
  8
0
100
AcDbLine
 10
15.2721525682046
 20
282.3013348700701
 30
0.0
 11
21.7721525682046
 21
282.3013348700701
 31
0.0
  0
LINE
  5
182
330
2
100
AcDbEntity
  8
0
100
AcDbLine
 10
15.2721525682046
 20
286.9013348700702
 30
0.0
 11
21.7721525682046
 21
286.9013348700702
 31
0.0
  0
LINE
  5
183
330
2
100
AcDbEntity
  8
0
100
AcDbLine
 10
15.2721525682046
 20
282.1513348700701
 30
0.0
 11
15.2721525682046
 21
301.6513348700702
 31
0.0
  0
LINE
  5
184
330
2
100
AcDbEntity
  8
0
100
AcDbLine
 10
13.2721525682046
 20
282.1513348700701
 30
0.0
 11
15.2721525682046
 21
282.1513348700701
 31
0.0
  0
LINE
  5
185
330
2
100
AcDbEntity
  8
0
100
AcDbLine
 10
13.2721525682046
 20
301.6513348700702
 30
0.0
 11
15.2721525682046
 21
301.6513348700702
 31
0.0
  0
LINE
  5
186
330
2
100
AcDbEntity
  8
0
100
AcDbLine
 10
-1.227847431795396
 20
320.4013348700702
 30
0.0
 11
-1.227847431795396
 21
308.4013348700702
 31
0.0
  0
ARC
  5
187
330
2
100
AcDbEntity
  8
0
100
AcDbCircle
 10
9.772152568204603
 20
291.9013348700702
 30
0.0
 40
13.0
100
AcDbArc
 50
337.3801349999997
 51
22.61986500000031
  0
LINE
  5
188
330
2
100
AcDbEntity
  8
0
100
AcDbLine
 10
22.7721525682046
 20
284.6013348700702
 30
0.0
 11
22.7721525682046
 21
299.2013348700702
 31
0.0
  0
ARC
  5
189
330
2
100
AcDbEntity
  8
0
100
AcDbCircle
 10
19.62715256820462
 20
284.6013348700702
 30
0.0
 40
3.145
100
AcDbArc
 50
313.0028689999997
 51
46.9971310000003
  0
ARC
  5
18A
330
2
100
AcDbEntity
  8
0
100
AcDbCircle
 10
19.62715256820462
 20
299.2013348700702
 30
0.0
 40
3.145
100
AcDbArc
 50
313.0028689999997
 51
46.9971310000003
  0
LINE
  5
18B
330
2
100
AcDbEntity
  8
0
100
AcDbLine
 10
37.27215256820461
 20
318.4013348700702
 30
0.0
 11
37.27215256820461
 21
235.4013348700702
 31
0.0
  0
LINE
  5
18C
330
2
100
AcDbEntity
  8
0
100
AcDbLine
 10
37.27215256820461
 20
308.4013348700702
 30
0.0
 11
54.22405756820461
 21
308.4013348700702
 31
0.0
  0
ARC
  5
18D
330
2
100
AcDbEntity
  8
0
100
AcDbCircle
 10
35.2721525682046
 20
318.4013348700702
 30
0.0
 40
2.0
100
AcDbArc
 50
0.0
 51
90.0
  0
LINE
  5
18E
330
2
100
AcDbEntity
  8
0
100
AcDbLine
 10
177.0155335682046
 20
240.4013348700702
 30
0.0
 11
211.3247875682046
 21
240.4013348700702
 31
0.0
  0
ENDSEC
  0
SECTION
  2
OBJECTS
  0
DICTIONARY
  5
7
330
0
100
AcDbDictionary
281
     1
  3
ACAD_COLOR
350
1C5
  3
ACAD_GROUP
350
21
  3
ACAD_LAYOUT
350
B
  3
ACAD_MATERIAL
350
193
  3
ACAD_MLEADERSTYLE
350
1DA
  3
ACAD_MLINESTYLE
350
22
  3
ACAD_PLOTSETTINGS
350
23
  3
ACAD_PLOTSTYLENAME
350
6
  3
ACAD_SCALELIST
350
1C8
  3
ACAD_TABLESTYLE
350
1C6
  3
ACAD_VISUALSTYLE
350
1AC
  3
ACDB_RECOMPOSE_DATA
350
1F2
  3
AcDbVariableDictionary
350
18F
  3
DWGPROPS
350
1F3
  0
DICTIONARY
  5
1E0
330
4
100
AcDbDictionary
280
     1
281
     1
  3
ADSK_XREC_LAYER_RECONCILED
360
1E1
  0
DICTIONARY
  5
1E2
330
28
100
AcDbDictionary
280
     1
281
     1
  3
ADSK_XREC_LAYER_RECONCILED
360
1E3
  0
DICTIONARY
  5
1E4
330
24
100
AcDbDictionary
280
     1
281
     1
  3
ADSK_XREC_LAYER_RECONCILED
360
1E5
  0
DICTIONARY
  5
1E6
330
7F
100
AcDbDictionary
280
     1
281
     1
  3
ADSK_XREC_LAYER_RECONCILED
360
1E7
  0
DICTIONARY
  5
1E8
330
3B
100
AcDbDictionary
280
     1
281
     1
  3
ADSK_XREC_LAYER_RECONCILED
360
1E9
  0
DICTIONARY
  5
1C5
102
{ACAD_REACTORS
330
7
102
}
330
7
100
AcDbDictionary
281
     1
  0
DICTIONARY
  5
21
102
{ACAD_REACTORS
330
7
102
}
330
7
100
AcDbDictionary
281
     1
  0
DICTIONARY
  5
B
102
{ACAD_REACTORS
330
7
102
}
330
7
100
AcDbDictionary
281
     1
  3
Layout1
350
F
  3
Model
350
A
  0
DICTIONARY
  5
193
102
{ACAD_REACTORS
330
7
102
}
330
7
100
AcDbDictionary
281
     1
  3
ByBlock
350
19C
  3
ByLayer
350
194
  3
Global
350
1A4
  0
DICTIONARY
  5
1DA
102
{ACAD_REACTORS
330
7
102
}
330
7
100
AcDbDictionary
281
     1
  3
Standard
350
1DB
  0
DICTIONARY
  5
22
102
{ACAD_REACTORS
330
7
102
}
330
7
100
AcDbDictionary
281
     1
  3
STANDARD
350
26
  0
DICTIONARY
  5
23
102
{ACAD_REACTORS
330
7
102
}
330
7
100
AcDbDictionary
281
     1
  0
ACDBDICTIONARYWDFLT
  5
6
102
{ACAD_REACTORS
330
7
102
}
330
7
100
AcDbDictionary
281
     1
  3
Normal
350
5
100
AcDbDictionaryWithDefault
340
5
  0
DICTIONARY
  5
1C8
102
{ACAD_REACTORS
330
7
102
}
330
7
100
AcDbDictionary
281
     1
  3
A0
350
1C9
  3
A1
350
1CA
  3
A2
350
1CB
  3
A3
350
1CC
  3
A4
350
1CD
  3
A5
350
1CE
  3
A6
350
1CF
  3
A7
350
1D0
  3
A8
350
1D1
  3
A9
350
1D2
  3
B0
350
1D3
  3
B1
350
1D4
  3
B2
350
1D5
  3
B3
350
1D6
  3
B4
350
1D7
  3
B5
350
1D8
  3
B6
350
1D9
  0
DICTIONARY
  5
1C6
102
{ACAD_REACTORS
330
7
102
}
330
7
100
AcDbDictionary
281
     1
  3
Standard
350
1C7
  0
DICTIONARY
  5
1AC
102
{ACAD_REACTORS
330
7
102
}
330
7
100
AcDbDictionary
281
     1
  3
2dWireframe
350
1B2
  3
Basic
350
1B1
  3
Brighten
350
1B8
  3
ColorChange
350
1BC
  3
Conceptual
350
1B5
  3
Dim
350
1B7
  3
EdgeColorOff
350
1C4
  3
Facepattern
350
1BB
  3
Flat
350
1AD
  3
FlatWithEdges
350
1AE
  3
Gouraud
350
1AF
  3
GouraudWithEdges
350
1B0
  3
Hidden
350
1B4
  3
JitterOff
350
1C2
  3
Linepattern
350
1BA
  3
OverhangOff
350
1C3
  3
Realistic
350
1B6
  3
Shaded
350
1C1
  3
Shaded with edges
350
1C0
  3
Shades of Gray
350
1BD
  3
Sketchy
350
1BE
  3
Thicken
350
1B9
  3
Wireframe
350
1B3
  3
X-Ray
350
1BF
  0
XRECORD
  5
1F2
102
{ACAD_REACTORS
330
7
102
}
330
7
100
AcDbXrecord
280
     1
 90
        1
330
1C7
  0
DICTIONARY
  5
18F
102
{ACAD_REACTORS
330
7
102
}
330
7
100
AcDbDictionary
281
     1
  3
CANNOSCALE
350
1EC
  3
CMLEADERSTYLE
350
1EB
  3
CTABLESTYLE
350
1EA
  3
DIMASSOC
350
191
  3
HIDETEXT
350
190
  3
INDEXCTL
350
1EE
  3
SORTENTS
350
1ED
  3
XCLIPFRAME
350
1EF
  0
XRECORD
  5
1F3
102
{ACAD_REACTORS
330
7
102
}
330
7
100
AcDbXrecord
280
     1
  1
DWGPROPS COOKIE
  2

  3

  4

  6

  7

  8
mpistoia
  9

300
=
301
=
302
=
303
=
304
=
305
=
306
=
307
=
308
=
309
=
 40
0.0018821180555556
 41
2452804.714726158
 42
2455684.727394444
  1

 90
        0
  0
XRECORD
  5
1E1
102
{ACAD_REACTORS
330
1E0
102
}
330
1E0
100
AcDbXrecord
280
     1
290
     1
  0
XRECORD
  5
1E3
102
{ACAD_REACTORS
330
1E2
102
}
330
1E2
100
AcDbXrecord
280
     1
290
     1
  0
XRECORD
  5
1E5
102
{ACAD_REACTORS
330
1E4
102
}
330
1E4
100
AcDbXrecord
280
     1
290
     1
  0
XRECORD
  5
1E7
102
{ACAD_REACTORS
330
1E6
102
}
330
1E6
100
AcDbXrecord
280
     1
290
     1
  0
XRECORD
  5
1E9
102
{ACAD_REACTORS
330
1E8
102
}
330
1E8
100
AcDbXrecord
280
     1
290
     1
  0
LAYOUT
  5
F
102
{ACAD_XDICTIONARY
360
1F6
102
}
102
{ACAD_REACTORS
330
B
102
}
330
B
100
AcDbPlotSettings
  1

  2
Canon  BJC-5500
  4

  6

 40
0.0
 41
0.0
 42
0.0
 43
0.0
 44
0.0
 45
0.0
 46
0.0
 47
0.0
 48
0.0
 49
0.0
140
0.0
141
0.0
142
1.0
143
1.0
 70
   688
 72
     0
 73
     0
 74
     5
  7
monochrome.ctb
 75
    16
147
1.0
148
0.0
149
0.0
100
AcDbLayout
  1
Layout1
 70
     1
 71
     1
 10
0.0
 20
0.0
 11
420.0
 21
297.0
 12
0.0
 22
0.0
 32
0.0
 14
1.000000000000000E+20
 24
1.000000000000000E+20
 34
1.000000000000000E+20
 15
-1.000000000000000E+20
 25
-1.000000000000000E+20
 35
-1.000000000000000E+20
146
0.0
 13
0.0
 23
0.0
 33
0.0
 16
1.0
 26
0.0
 36
0.0
 17
0.0
 27
1.0
 37
0.0
 76
     0
330
C
  0
LAYOUT
  5
A
102
{ACAD_XDICTIONARY
360
1F4
102
}
102
{ACAD_REACTORS
330
B
102
}
330
B
100
AcDbPlotSettings
  1

  2
Canon  BJC-5500
  4
A4
  6

 40
4.180416584014892
 41
7.8493013381958
 42
4.180404663085937
 43
3.757080078125
 44
209.9733276367187
 45
296.9683227539062
 46
0.0
 47
0.0
 48
-64712.06144704871
 49
147421.4560395413
140
-64511.06077526961
141
147704.7475371294
142
1.0
143
1.0
 70
 11952
 72
     1
 73
     0
 74
     4
  7
monochrome.ctb
 75
    16
147
1.0
148
64712.06144704871
149
-147421.4560395413
100
AcDbLayout
  1
Model
 70
     1
 71
     0
 10
0.0
 20
0.0
 11
12.0
 21
9.0
 12
0.0
 22
0.0
 32
0.0
 14
0.0
 24
0.0
 34
0.0
 15
0.0
 25
0.0
 35
0.0
146
0.0
 13
0.0
 23
0.0
 33
0.0
 16
1.0
 26
0.0
 36
0.0
 17
0.0
 27
1.0
 37
0.0
 76
     0
330
2
331
1A
  0
MATERIAL
  5
19C
102
{ACAD_XDICTIONARY
360
19D
102
}
102
{ACAD_REACTORS
330
193
102
}
330
193
100
AcDbMaterial
  1
ByBlock
 72
     0
 43
0.0208333333333333
 43
0.0
 43
0.0
 43
0.0
 43
0.0
 43
0.0208333333333333
 43
0.0
 43
0.0
 43
0.0
 43
0.0
 43
1.0
 43
0.0
 43
0.0
 43
0.0
 43
0.0
 43
1.0
 77
     0
 47
0.0208333333333333
 47
0.0
 47
0.0
 47
0.0
 47
0.0
 47
0.0208333333333333
 47
0.0
 47
0.0
 47
0.0
 47
0.0
 47
1.0
 47
0.0
 47
0.0
 47
0.0
 47
0.0
 47
1.0
171
     0
 49
0.0208333333333333
 49
0.0
 49
0.0
 49
0.0
 49
0.0
 49
0.0208333333333333
 49
0.0
 49
0.0
 49
0.0
 49
0.0
 49
1.0
 49
0.0
 49
0.0
 49
0.0
 49
0.0
 49
1.0
175
     0
142
0.0208333333333333
142
0.0
142
0.0
142
0.0
142
0.0
142
0.0208333333333333
142
0.0
142
0.0
142
0.0
142
0.0
142
1.0
142
0.0
142
0.0
142
0.0
142
0.0
142
1.0
179
     0
144
0.0208333333333333
144
0.0
144
0.0
144
0.0
144
0.0
144
0.0208333333333333
144
0.0
144
0.0
144
0.0
144
0.0
144
1.0
144
0.0
144
0.0
144
0.0
144
0.0
144
1.0
147
0.0208333333333333
147
0.0
147
0.0
147
0.0
147
0.0
147
0.0208333333333333
147
0.0
147
0.0
147
0.0
147
0.0
147
1.0
147
0.0
147
0.0
147
0.0
147
0.0
147
1.0
  0
MATERIAL
  5
194
102
{ACAD_XDICTIONARY
360
195
102
}
102
{ACAD_REACTORS
330
193
102
}
330
193
100
AcDbMaterial
  1
ByLayer
 72
     0
 43
0.0208333333333333
 43
0.0
 43
0.0
 43
0.0
 43
0.0
 43
0.0208333333333333
 43
0.0
 43
0.0
 43
0.0
 43
0.0
 43
1.0
 43
0.0
 43
0.0
 43
0.0
 43
0.0
 43
1.0
 77
     0
 47
0.0208333333333333
 47
0.0
 47
0.0
 47
0.0
 47
0.0
 47
0.0208333333333333
 47
0.0
 47
0.0
 47
0.0
 47
0.0
 47
1.0
 47
0.0
 47
0.0
 47
0.0
 47
0.0
 47
1.0
171
     0
 49
0.0208333333333333
 49
0.0
 49
0.0
 49
0.0
 49
0.0
 49
0.0208333333333333
 49
0.0
 49
0.0
 49
0.0
 49
0.0
 49
1.0
 49
0.0
 49
0.0
 49
0.0
 49
0.0
 49
1.0
175
     0
142
0.0208333333333333
142
0.0
142
0.0
142
0.0
142
0.0
142
0.0208333333333333
142
0.0
142
0.0
142
0.0
142
0.0
142
1.0
142
0.0
142
0.0
142
0.0
142
0.0
142
1.0
179
     0
144
0.0208333333333333
144
0.0
144
0.0
144
0.0
144
0.0
144
0.0208333333333333
144
0.0
144
0.0
144
0.0
144
0.0
144
1.0
144
0.0
144
0.0
144
0.0
144
0.0
144
1.0
147
0.0208333333333333
147
0.0
147
0.0
147
0.0
147
0.0
147
0.0208333333333333
147
0.0
147
0.0
147
0.0
147
0.0
147
1.0
147
0.0
147
0.0
147
0.0
147
0.0
147
1.0
  0
MATERIAL
  5
1A4
102
{ACAD_XDICTIONARY
360
1A5
102
}
102
{ACAD_REACTORS
330
193
102
}
330
193
100
AcDbMaterial
  1
Global
 72
     0
 43
0.0208333333333333
 43
0.0
 43
0.0
 43
0.0
 43
0.0
 43
0.0208333333333333
 43
0.0
 43
0.0
 43
0.0
 43
0.0
 43
1.0
 43
0.0
 43
0.0
 43
0.0
 43
0.0
 43
1.0
 77
     0
 47
0.0208333333333333
 47
0.0
 47
0.0
 47
0.0
 47
0.0
 47
0.0208333333333333
 47
0.0
 47
0.0
 47
0.0
 47
0.0
 47
1.0
 47
0.0
 47
0.0
 47
0.0
 47
0.0
 47
1.0
171
     0
 49
0.0208333333333333
 49
0.0
 49
0.0
 49
0.0
 49
0.0
 49
0.0208333333333333
 49
0.0
 49
0.0
 49
0.0
 49
0.0
 49
1.0
 49
0.0
 49
0.0
 49
0.0
 49
0.0
 49
1.0
175
     0
142
0.0208333333333333
142
0.0
142
0.0
142
0.0
142
0.0
142
0.0208333333333333
142
0.0
142
0.0
142
0.0
142
0.0
142
1.0
142
0.0
142
0.0
142
0.0
142
0.0
142
1.0
179
     0
144
0.0208333333333333
144
0.0
144
0.0
144
0.0
144
0.0
144
0.0208333333333333
144
0.0
144
0.0
144
0.0
144
0.0
144
1.0
144
0.0
144
0.0
144
0.0
144
0.0
144
1.0
147
0.0208333333333333
147
0.0
147
0.0
147
0.0
147
0.0
147
0.0208333333333333
147
0.0
147
0.0
147
0.0
147
0.0
147
1.0
147
0.0
147
0.0
147
0.0
147
0.0
147
1.0
  0
MLEADERSTYLE
  5
1DB
102
{ACAD_REACTORS
330
1DA
102
}
330
1DA
100
AcDbMLeaderStyle
170
     2
171
     1
172
     0
 90
        2
 40
0.0
 41
0.0
173
     1
 91
-1056964608
340
15
 92
       -2
290
     1
 42
2.0
291
     1
 43
0.36
  3
Standard
 44
4.0
300

342
12
174
     1
178
     6
175
     1
176
     0
 93
-1056964608
 45
4.0
292
     0
297
     0
 46
4.0
 94
-1056964608
 47
1.0
 49
1.0
140
1.0
293
     1
141
0.0
294
     1
177
     0
142
1.0
295
     0
296
     0
143
0.125
1001
ACAD_MLEADERVER
1070
     2
  0
MLINESTYLE
  5
26
102
{ACAD_REACTORS
330
22
102
}
330
22
100
AcDbMlineStyle
  2
STANDARD
 70
     0
  3

 62
   256
 51
90.0
 52
90.0
 71
     2
 49
0.5
 62
   256
  6
BYLAYER
 49
-0.5
 62
   256
  6
BYLAYER
  0
ACDBPLACEHOLDER
  5
5
102
{ACAD_REACTORS
330
6
102
}
330
6
  0
SCALE
  5
1C9
102
{ACAD_REACTORS
330
1C8
102
}
330
1C8
100
AcDbScale
 70
     0
300
1:1
140
1.0
141
1.0
290
     1
  0
SCALE
  5
1CA
102
{ACAD_REACTORS
330
1C8
102
}
330
1C8
100
AcDbScale
 70
     0
300
1:2
140
1.0
141
2.0
290
     0
  0
SCALE
  5
1CB
102
{ACAD_REACTORS
330
1C8
102
}
330
1C8
100
AcDbScale
 70
     0
300
1:4
140
1.0
141
4.0
290
     0
  0
SCALE
  5
1CC
102
{ACAD_REACTORS
330
1C8
102
}
330
1C8
100
AcDbScale
 70
     0
300
1:5
140
1.0
141
5.0
290
     0
  0
SCALE
  5
1CD
102
{ACAD_REACTORS
330
1C8
102
}
330
1C8
100
AcDbScale
 70
     0
300
1:8
140
1.0
141
8.0
290
     0
  0
SCALE
  5
1CE
102
{ACAD_REACTORS
330
1C8
102
}
330
1C8
100
AcDbScale
 70
     0
300
1:10
140
1.0
141
10.0
290
     0
  0
SCALE
  5
1CF
102
{ACAD_REACTORS
330
1C8
102
}
330
1C8
100
AcDbScale
 70
     0
300
1:16
140
1.0
141
16.0
290
     0
  0
SCALE
  5
1D0
102
{ACAD_REACTORS
330
1C8
102
}
330
1C8
100
AcDbScale
 70
     0
300
1:20
140
1.0
141
20.0
290
     0
  0
SCALE
  5
1D1
102
{ACAD_REACTORS
330
1C8
102
}
330
1C8
100
AcDbScale
 70
     0
300
1:30
140
1.0
141
30.0
290
     0
  0
SCALE
  5
1D2
102
{ACAD_REACTORS
330
1C8
102
}
330
1C8
100
AcDbScale
 70
     0
300
1:40
140
1.0
141
40.0
290
     0
  0
SCALE
  5
1D3
102
{ACAD_REACTORS
330
1C8
102
}
330
1C8
100
AcDbScale
 70
     0
300
1:50
140
1.0
141
50.0
290
     0
  0
SCALE
  5
1D4
102
{ACAD_REACTORS
330
1C8
102
}
330
1C8
100
AcDbScale
 70
     0
300
1:100
140
1.0
141
100.0
290
     0
  0
SCALE
  5
1D5
102
{ACAD_REACTORS
330
1C8
102
}
330
1C8
100
AcDbScale
 70
     0
300
2:1
140
2.0
141
1.0
290
     0
  0
SCALE
  5
1D6
102
{ACAD_REACTORS
330
1C8
102
}
330
1C8
100
AcDbScale
 70
     0
300
4:1
140
4.0
141
1.0
290
     0
  0
SCALE
  5
1D7
102
{ACAD_REACTORS
330
1C8
102
}
330
1C8
100
AcDbScale
 70
     0
300
8:1
140
8.0
141
1.0
290
     0
  0
SCALE
  5
1D8
102
{ACAD_REACTORS
330
1C8
102
}
330
1C8
100
AcDbScale
 70
     0
300
10:1
140
10.0
141
1.0
290
     0
  0
SCALE
  5
1D9
102
{ACAD_REACTORS
330
1C8
102
}
330
1C8
100
AcDbScale
 70
     0
300
100:1
140
100.0
141
1.0
290
     0
  0
TABLESTYLE
  5
1C7
102
{ACAD_XDICTIONARY
360
1F0
102
}
102
{ACAD_REACTORS
330
1C6
102
}
330
1C6
100
AcDbTableStyle
  3
Standard
 70
     0
 71
     0
 40
1.5
 41
1.5
280
     0
281
     0
  7
STANDARD
140
4.5
170
     2
 62
     0
 63
     7
283
     0
274
    -2
284
     1
 64
     0
275
    -2
285
     1
 65
     0
276
    -2
286
     1
 66
     0
277
    -2
287
     1
 67
     0
278
    -2
288
     1
 68
     0
279
    -2
289
     1
 69
     0
  7
STANDARD
140
6.0
170
     5
 62
     0
 63
     7
283
     0
274
    -2
284
     1
 64
     0
275
    -2
285
     1
 65
     0
276
    -2
286
     1
 66
     0
277
    -2
287
     1
 67
     0
278
    -2
288
     1
 68
     0
279
    -2
289
     1
 69
     0
  7
STANDARD
140
4.5
170
     5
 62
     0
 63
     7
283
     0
274
    -2
284
     1
 64
     0
275
    -2
285
     1
 65
     0
276
    -2
286
     1
 66
     0
277
    -2
287
     1
 67
     0
278
    -2
288
     1
 68
     0
279
    -2
289
     1
 69
     0
  0
VISUALSTYLE
  5
1B2
102
{ACAD_XDICTIONARY
360
205
102
}
102
{ACAD_REACTORS
330
1AC
102
}
330
1AC
100
AcDbVisualStyle
  2
2dWireframe
 70
     4
 71
     0
 72
     2
 73
     0
 90
        0
 40
-0.6
 41
-30.0
 62
     5
 63
     7
 74
     1
 91
        4
 64
     7
 65
   257
 75
     1
175
     1
 42
1.0
 92
        0
 66
   257
 43
1.0
 76
     1
 77
     6
 78
     2
 67
     7
 79
     5
170
     0
171
     0
290
     0
174
     0
 93
        1
 44
0.0
173
     0
291
     0
 45
0.0
1001
ACAD
1000
AcDbSavedByObjectVersion
1070
     0
  0
VISUALSTYLE
  5
1B1
102
{ACAD_XDICTIONARY
360
203
102
}
102
{ACAD_REACTORS
330
1AC
102
}
330
1AC
100
AcDbVisualStyle
  2
Basic
 70
     7
 71
     1
 72
     0
 73
     1
 90
        0
 40
-0.6
 41
-30.0
 62
     5
 63
     7
 74
     0
 91
        4
 64
     7
 65
   257
 75
     1
175
     1
 42
1.0
 92
        8
 66
     7
 43
1.0
 76
     1
 77
     6
 78
     2
 67
     7
 79
     5
170
     0
171
     0
290
     0
174
     0
 93
        1
 44
0.0
173
     0
291
     1
 45
0.0
1001
ACAD
1000
AcDbSavedByObjectVersion
1070
     0
  0
VISUALSTYLE
  5
1B8
102
{ACAD_XDICTIONARY
360
211
102
}
102
{ACAD_REACTORS
330
1AC
102
}
330
1AC
100
AcDbVisualStyle
  2
Brighten
 70
    12
 71
     2
 72
     2
 73
     0
 90
        0
 40
-0.6
 41
-30.0
 62
     5
 63
     7
 74
     1
 91
        4
 64
     7
 65
   257
 75
     1
175
     1
 42
1.0
 92
        8
 66
     7
 43
1.0
 76
     1
 77
     6
 78
     2
 67
     7
 79
     5
170
     0
171
     0
290
     0
174
     0
 93
        1
 44
50.0
173
     0
291
     1
 45
0.0
1001
ACAD
1000
AcDbSavedByObjectVersion
1070
     0
  0
VISUALSTYLE
  5
1BC
102
{ACAD_XDICTIONARY
360
219
102
}
102
{ACAD_REACTORS
330
1AC
102
}
330
1AC
100
AcDbVisualStyle
  2
ColorChange
 70
    16
 71
     2
 72
     2
 73
     3
 90
        0
 40
-0.6
 41
-30.0
 62
     5
 63
     8
 74
     1
 91
        4
 64
     7
 65
   257
 75
     1
175
     1
 42
1.0
 92
        8
 66
     8
 43
1.0
 76
     1
 77
     6
 78
     2
 67
     7
 79
     5
170
     0
171
     0
290
     0
174
     0
 93
        1
 44
0.0
173
     0
291
     1
 45
0.0
1001
ACAD
1000
AcDbSavedByObjectVersion
1070
     0
  0
VISUALSTYLE
  5
1B5
102
{ACAD_XDICTIONARY
360
20B
102
}
102
{ACAD_REACTORS
330
1AC
102
}
330
1AC
100
AcDbVisualStyle
  2
Conceptual
 70
     9
 71
     3
 72
     2
 73
     0
 90
        0
 40
-0.6
 41
-30.0
 62
     5
 63
     7
 74
     2
 91
        2
 64
     7
 65
   257
 75
     1
175
     1
 42
179.0
 92
        8
 66
     7
 43
1.0
 76
     1
 77
     6
 78
     2
 67
     7
 79
     3
170
     0
171
     0
290
     0
174
     0
 93
        1
 44
0.0
173
     0
291
     0
 45
0.0
1001
ACAD
1000
AcDbSavedByObjectVersion
1070
     0
  0
VISUALSTYLE
  5
1B7
102
{ACAD_XDICTIONARY
360
20F
102
}
102
{ACAD_REACTORS
330
1AC
102
}
330
1AC
100
AcDbVisualStyle
  2
Dim
 70
    11
 71
     2
 72
     2
 73
     0
 90
        0
 40
-0.6
 41
-30.0
 62
     5
 63
     7
 74
     1
 91
        4
 64
     7
 65
   257
 75
     1
175
     1
 42
1.0
 92
        8
 66
     7
 43
1.0
 76
     1
 77
     6
 78
     2
 67
     7
 79
     5
170
     0
171
     0
290
     0
174
     0
 93
        1
 44
-50.0
173
     0
291
     1
 45
0.0
1001
ACAD
1000
AcDbSavedByObjectVersion
1070
     0
  0
VISUALSTYLE
  5
1C4
102
{ACAD_XDICTIONARY
360
229
102
}
102
{ACAD_REACTORS
330
1AC
102
}
330
1AC
100
AcDbVisualStyle
  2
EdgeColorOff
 70
    22
 71
     2
 72
     2
 73
     0
 90
        0
 40
-0.6
 41
-30.0
 62
     5
 63
     7
 74
     1
 91
        4
 64
     7
 65
   257
 75
     1
175
     1
 42
1.0
 92
        8
 66
     7
 43
1.0
 76
     1
 77
     6
 78
     2
 67
     7
 79
     5
170
     0
171
     0
290
     0
174
     0
 93
        1
 44
0.0
173
     0
291
     1
 45
0.0
1001
ACAD
1000
AcDbSavedByObjectVersion
1070
     0
  0
VISUALSTYLE
  5
1BB
102
{ACAD_XDICTIONARY
360
217
102
}
102
{ACAD_REACTORS
330
1AC
102
}
330
1AC
100
AcDbVisualStyle
  2
Facepattern
 70
    15
 71
     2
 72
     2
 73
     0
 90
        0
 40
-0.6
 41
-30.0
 62
     5
 63
     7
 74
     1
 91
        4
 64
     7
 65
   257
 75
     1
175
     1
 42
1.0
 92
        8
 66
     7
 43
1.0
 76
     1
 77
     6
 78
     2
 67
     7
 79
     5
170
     0
171
     0
290
     0
174
     0
 93
        1
 44
0.0
173
     0
291
     1
 45
0.0
1001
ACAD
1000
AcDbSavedByObjectVersion
1070
     0
  0
VISUALSTYLE
  5
1AD
102
{ACAD_XDICTIONARY
360
1FB
102
}
102
{ACAD_REACTORS
330
1AC
102
}
330
1AC
100
AcDbVisualStyle
  2
Flat
 70
     0
 71
     2
 72
     1
 73
     1
 90
        2
 40
-0.6
 41
30.0
 62
     5
 63
     7
 74
     0
 91
        0
 64
     7
 65
   257
 75
     1
175
     1
 42
1.0
 92
        8
 66
     7
 43
1.0
 76
     1
 77
     6
 78
     2
 67
     7
 79
     5
170
     0
171
     0
290
     0
174
     0
 93
       13
 44
0.0
173
     0
291
     1
 45
0.0
1001
ACAD
1000
AcDbSavedByObjectVersion
1070
     0
  0
VISUALSTYLE
  5
1AE
102
{ACAD_XDICTIONARY
360
1FD
102
}
102
{ACAD_REACTORS
330
1AC
102
}
330
1AC
100
AcDbVisualStyle
  2
FlatWithEdges
 70
     1
 71
     2
 72
     1
 73
     1
 90
        2
 40
-0.6
 41
30.0
 62
     5
 63
     7
 74
     1
 91
        0
 64
     7
 65
   257
 75
     1
175
     1
 42
1.0
 92
        0
 66
   257
 43
1.0
 76
     1
 77
     6
 78
     2
 67
     7
 79
     5
170
     0
171
     0
290
     0
174
     0
 93
       13
 44
0.0
173
     0
291
     1
 45
0.0
1001
ACAD
1000
AcDbSavedByObjectVersion
1070
     0
  0
VISUALSTYLE
  5
1AF
102
{ACAD_XDICTIONARY
360
1FF
102
}
102
{ACAD_REACTORS
330
1AC
102
}
330
1AC
100
AcDbVisualStyle
  2
Gouraud
 70
     2
 71
     2
 72
     2
 73
     1
 90
        2
 40
-0.6
 41
30.0
 62
     5
 63
     7
 74
     0
 91
        0
 64
     7
 65
   257
 75
     1
175
     1
 42
1.0
 92
        0
 66
     7
 43
1.0
 76
     1
 77
     6
 78
     2
 67
     7
 79
     5
170
     0
171
     0
290
     0
174
     0
 93
       13
 44
0.0
173
     0
291
     1
 45
0.0
1001
ACAD
1000
AcDbSavedByObjectVersion
1070
     0
  0
VISUALSTYLE
  5
1B0
102
{ACAD_XDICTIONARY
360
201
102
}
102
{ACAD_REACTORS
330
1AC
102
}
330
1AC
100
AcDbVisualStyle
  2
GouraudWithEdges
 70
     3
 71
     2
 72
     2
 73
     1
 90
        2
 40
-0.6
 41
30.0
 62
     5
 63
     7
 74
     1
 91
        0
 64
     7
 65
   257
 75
     1
175
     1
 42
1.0
 92
        0
 66
   257
 43
1.0
 76
     1
 77
     6
 78
     2
 67
     7
 79
     5
170
     0
171
     0
290
     0
174
     0
 93
       13
 44
0.0
173
     0
291
     1
 45
0.0
1001
ACAD
1000
AcDbSavedByObjectVersion
1070
     0
  0
VISUALSTYLE
  5
1B4
102
{ACAD_XDICTIONARY
360
209
102
}
102
{ACAD_REACTORS
330
1AC
102
}
330
1AC
100
AcDbVisualStyle
  2
Hidden
 70
     6
 71
     1
 72
     2
 73
     2
 90
        0
 40
-0.6
 41
-30.0
 62
     5
 63
     7
 74
     2
 91
        2
 64
     7
 65
   257
 75
     2
175
     1
 42
40.0
 92
        0
 66
   257
 43
1.0
 76
     1
 77
     6
 78
     2
 67
     7
 79
     3
170
     0
171
     0
290
     0
174
     0
 93
        1
 44
0.0
173
     0
291
     0
 45
0.0
1001
ACAD
1000
AcDbSavedByObjectVersion
1070
     0
  0
VISUALSTYLE
  5
1C2
102
{ACAD_XDICTIONARY
360
225
102
}
102
{ACAD_REACTORS
330
1AC
102
}
330
1AC
100
AcDbVisualStyle
  2
JitterOff
 70
    20
 71
     2
 72
     2
 73
     0
 90
        0
 40
-0.6
 41
-30.0
 62
     5
 63
     7
 74
     1
 91
        4
 64
     7
 65
   257
 75
     1
175
     1
 42
1.0
 92
       10
 66
     7
 43
1.0
 76
     1
 77
     6
 78
     2
 67
     7
 79
     5
170
     0
171
     0
290
     0
174
     0
 93
        1
 44
0.0
173
     0
291
     1
 45
0.0
1001
ACAD
1000
AcDbSavedByObjectVersion
1070
     0
  0
VISUALSTYLE
  5
1BA
102
{ACAD_XDICTIONARY
360
215
102
}
102
{ACAD_REACTORS
330
1AC
102
}
330
1AC
100
AcDbVisualStyle
  2
Linepattern
 70
    14
 71
     2
 72
     2
 73
     0
 90
        0
 40
-0.6
 41
-30.0
 62
     5
 63
     7
 74
     1
 91
        4
 64
     7
 65
   257
 75
     7
175
     7
 42
1.0
 92
        8
 66
     7
 43
1.0
 76
     1
 77
     6
 78
     2
 67
     7
 79
     5
170
     0
171
     0
290
     0
174
     0
 93
        1
 44
0.0
173
     0
291
     1
 45
0.0
1001
ACAD
1000
AcDbSavedByObjectVersion
1070
     0
  0
VISUALSTYLE
  5
1C3
102
{ACAD_XDICTIONARY
360
227
102
}
102
{ACAD_REACTORS
330
1AC
102
}
330
1AC
100
AcDbVisualStyle
  2
OverhangOff
 70
    21
 71
     2
 72
     2
 73
     0
 90
        0
 40
-0.6
 41
-30.0
 62
     5
 63
     7
 74
     1
 91
        4
 64
     7
 65
   257
 75
     1
175
     1
 42
1.0
 92
        9
 66
     7
 43
1.0
 76
     1
 77
     6
 78
     2
 67
     7
 79
     5
170
     0
171
     0
290
     0
174
     0
 93
        1
 44
0.0
173
     0
291
     1
 45
0.0
1001
ACAD
1000
AcDbSavedByObjectVersion
1070
     0
  0
VISUALSTYLE
  5
1B6
102
{ACAD_XDICTIONARY
360
20D
102
}
102
{ACAD_REACTORS
330
1AC
102
}
330
1AC
100
AcDbVisualStyle
  2
Realistic
 70
     8
 71
     2
 72
     3
 73
     0
 90
        2
 40
-0.6
 41
30.0
 62
     5
 63
     7
 74
     0
 91
        0
 64
     7
 65
   257
 75
     1
175
     1
 42
1.0
 92
        8
 66
   257
 43
1.0
 76
     1
 77
     6
 78
     2
 67
     7
 79
     3
170
     0
171
     0
290
     0
174
     0
 93
       13
 44
0.0
173
     0
291
     0
 45
0.0
1001
ACAD
1000
AcDbSavedByObjectVersion
1070
     0
  0
VISUALSTYLE
  5
1C1
102
{ACAD_XDICTIONARY
360
223
102
}
102
{ACAD_REACTORS
330
1AC
102
}
330
1AC
100
AcDbVisualStyle
  2
Shaded
 70
    27
 71
     2
 72
     2
 73
     1
 90
        2
 40
-0.6
 41
30.0
 62
     5
 63
     7
 74
     0
 91
        4
 64
     7
 65
   257
 75
     1
175
     1
 42
1.0
 92
        8
 66
   257
 43
1.0
 76
     1
 77
     6
 78
     2
 67
     8
 79
     3
170
     0
171
     0
290
     0
174
     0
 93
        5
 44
0.0
173
     0
291
     0
 45
0.0
1001
ACAD
1000
AcDbSavedByObjectVersion
1070
     0
  0
VISUALSTYLE
  5
1C0
102
{ACAD_XDICTIONARY
360
221
102
}
102
{ACAD_REACTORS
330
1AC
102
}
330
1AC
100
AcDbVisualStyle
  2
Shaded with edges
 70
    26
 71
     2
 72
     2
 73
     1
 90
        2
 40
-0.6
 41
30.0
 62
     5
 63
     7
 74
     1
 91
       10
 64
     7
 65
   257
 75
     2
175
     1
 42
1.0
 92
        8
 66
   257
 43
1.0
 76
     1
 77
     6
 78
     2
 67
     7
 79
     3
170
     0
171
     0
290
     0
174
     0
 93
        5
 44
0.0
173
     0
291
     0
 45
0.0
1001
ACAD
1000
AcDbSavedByObjectVersion
1070
     0
  0
VISUALSTYLE
  5
1BD
102
{ACAD_XDICTIONARY
360
21B
102
}
102
{ACAD_REACTORS
330
1AC
102
}
330
1AC
100
AcDbVisualStyle
  2
Shades of Gray
 70
    23
 71
     2
 72
     2
 73
     3
 90
        0
 40
-0.6
 41
-30.0
 62
     5
 63
     7
 74
     2
 91
        2
 64
     7
 65
     7
 75
     1
175
     1
 42
40.0
 92
        8
 66
     7
 43
1.0
 76
     1
 77
     6
 78
     2
 67
     7
 79
     3
170
     0
171
     0
290
     0
174
     0
 93
        1
 44
0.0
173
     0
291
     0
 45
0.0
1001
ACAD
1000
AcDbSavedByObjectVersion
1070
     0
  0
VISUALSTYLE
  5
1BE
102
{ACAD_XDICTIONARY
360
21D
102
}
102
{ACAD_REACTORS
330
1AC
102
}
330
1AC
100
AcDbVisualStyle
  2
Sketchy
 70
    24
 71
     1
 72
     2
 73
     2
 90
        0
 40
-0.6
 41
-30.0
 62
     5
 63
     7
 74
     2
 91
        2
 64
     7
 65
     7
 75
     1
175
     1
 42
40.0
 92
       11
 66
     7
 43
1.0
 76
     1
 77
     6
 78
     2
 67
     7
 79
     6
170
     0
171
     0
290
     0
174
     0
 93
        1
 44
0.0
173
     0
291
     0
 45
0.0
1001
ACAD
1000
AcDbSavedByObjectVersion
1070
     0
  0
VISUALSTYLE
  5
1B9
102
{ACAD_XDICTIONARY
360
213
102
}
102
{ACAD_REACTORS
330
1AC
102
}
330
1AC
100
AcDbVisualStyle
  2
Thicken
 70
    13
 71
     2
 72
     2
 73
     0
 90
        0
 40
-0.6
 41
-30.0
 62
     5
 63
     7
 74
     1
 91
        4
 64
     7
 65
   257
 75
     1
175
     1
 42
1.0
 92
       12
 66
     7
 43
1.0
 76
     1
 77
     6
 78
     2
 67
     7
 79
     5
170
     0
171
     0
290
     0
174
     0
 93
        1
 44
0.0
173
     0
291
     1
 45
0.0
1001
ACAD
1000
AcDbSavedByObjectVersion
1070
     0
  0
VISUALSTYLE
  5
1B3
102
{ACAD_XDICTIONARY
360
207
102
}
102
{ACAD_REACTORS
330
1AC
102
}
330
1AC
100
AcDbVisualStyle
  2
Wireframe
 70
     5
 71
     0
 72
     2
 73
     0
 90
        0
 40
-0.6
 41
-30.0
 62
     5
 63
     7
 74
     1
 91
        4
 64
     7
 65
   257
 75
     1
175
     1
 42
1.0
 92
        0
 66
   257
 43
1.0
 76
     1
 77
     6
 78
     2
 67
     7
 79
     3
170
     0
171
     0
290
     0
174
     0
 93
        1
 44
0.0
173
     0
291
     0
 45
0.0
1001
ACAD
1000
AcDbSavedByObjectVersion
1070
     0
  0
VISUALSTYLE
  5
1BF
102
{ACAD_XDICTIONARY
360
21F
102
}
102
{ACAD_REACTORS
330
1AC
102
}
330
1AC
100
AcDbVisualStyle
  2
X-Ray
 70
    25
 71
     2
 72
     2
 73
     1
 90
        1
 40
0.5
 41
-30.0
 62
     5
 63
     7
 74
     1
 91
        0
 64
     7
 65
   257
 75
     1
175
     1
 42
1.0
 92
        8
 66
     7
 43
1.0
 76
     1
 77
     6
 78
     2
 67
     7
 79
     3
170
     0
171
     0
290
     0
174
     0
 93
       13
 44
0.0
173
     0
291
     0
 45
0.0
1001
ACAD
1000
AcDbSavedByObjectVersion
1070
     0
  0
DICTIONARYVAR
  5
1EC
102
{ACAD_REACTORS
330
18F
102
}
330
18F
100
DictionaryVariables
280
     0
  1
1:1
  0
DICTIONARYVAR
  5
1EB
102
{ACAD_REACTORS
330
18F
102
}
330
18F
100
DictionaryVariables
280
     0
  1
STANDARD
  0
DICTIONARYVAR
  5
1EA
102
{ACAD_REACTORS
330
18F
102
}
330
18F
100
DictionaryVariables
280
     0
  1
STANDARD
  0
DICTIONARYVAR
  5
191
102
{ACAD_REACTORS
330
18F
102
}
330
18F
100
DictionaryVariables
280
     0
  1
1
  0
DICTIONARYVAR
  5
190
102
{ACAD_REACTORS
330
18F
102
}
330
18F
100
DictionaryVariables
280
     0
  1
1
  0
DICTIONARYVAR
  5
1EE
102
{ACAD_REACTORS
330
18F
102
}
330
18F
100
DictionaryVariables
280
     0
  1
0
  0
DICTIONARYVAR
  5
1ED
102
{ACAD_REACTORS
330
18F
102
}
330
18F
100
DictionaryVariables
280
     0
  1
127
  0
DICTIONARYVAR
  5
1EF
102
{ACAD_REACTORS
330
18F
102
}
330
18F
100
DictionaryVariables
280
     0
  1
2
  0
DICTIONARY
  5
1F6
330
F
100
AcDbDictionary
280
     1
281
     1
  3
ACAD_XREC_ROUNDTRIP
360
1F7
  0
DICTIONARY
  5
1F4
330
A
100
AcDbDictionary
280
     1
281
     1
  3
ACAD_XREC_ROUNDTRIP
360
1F5
  0
DICTIONARY
  5
19D
330
19C
100
AcDbDictionary
280
     1
281
     1
  3
ACAD_XREC_ROUNDTRIP
360
1F9
  3
BUMPTILE
360
19F
  3
DIFFUSETILE
360
19E
  3
OPACITYTILE
360
1A2
  3
REFLECTIONTILE
360
1A1
  3
REFRACTIONTILE
360
1A3
  3
SPECULARTILE
360
1A0
  0
DICTIONARY
  5
195
330
194
100
AcDbDictionary
280
     1
281
     1
  3
ACAD_XREC_ROUNDTRIP
360
1F8
  3
BUMPTILE
360
197
  3
DIFFUSETILE
360
196
  3
OPACITYTILE
360
19A
  3
REFLECTIONTILE
360
199
  3
REFRACTIONTILE
360
19B
  3
SPECULARTILE
360
198
  0
DICTIONARY
  5
1A5
330
1A4
100
AcDbDictionary
280
     1
281
     1
  3
ACAD_XREC_ROUNDTRIP
360
1FA
  3
BUMPTILE
360
1A7
  3
DIFFUSETILE
360
1A6
  3
OPACITYTILE
360
1AA
  3
REFLECTIONTILE
360
1A9
  3
REFRACTIONTILE
360
1AB
  3
SPECULARTILE
360
1A8
  0
DICTIONARY
  5
1F0
330
1C7
100
AcDbDictionary
280
     1
281
     1
  3
ACAD_ROUNDTRIP_2008_TABLESTYLE_CELLSTYLEMAP
360
1F1
  3
ACAD_XREC_ROUNDTRIP
360
22B
  0
DICTIONARY
  5
205
330
1B2
100
AcDbDictionary
280
     1
281
     1
  3
ACAD_XREC_ROUNDTRIP
360
206
  0
DICTIONARY
  5
203
330
1B1
100
AcDbDictionary
280
     1
281
     1
  3
ACAD_XREC_ROUNDTRIP
360
204
  0
DICTIONARY
  5
211
330
1B8
100
AcDbDictionary
280
     1
281
     1
  3
ACAD_XREC_ROUNDTRIP
360
212
  0
DICTIONARY
  5
219
330
1BC
100
AcDbDictionary
280
     1
281
     1
  3
ACAD_XREC_ROUNDTRIP
360
21A
  0
DICTIONARY
  5
20B
330
1B5
100
AcDbDictionary
280
     1
281
     1
  3
ACAD_XREC_ROUNDTRIP
360
20C
  0
DICTIONARY
  5
20F
330
1B7
100
AcDbDictionary
280
     1
281
     1
  3
ACAD_XREC_ROUNDTRIP
360
210
  0
DICTIONARY
  5
229
330
1C4
100
AcDbDictionary
280
     1
281
     1
  3
ACAD_XREC_ROUNDTRIP
360
22A
  0
DICTIONARY
  5
217
330
1BB
100
AcDbDictionary
280
     1
281
     1
  3
ACAD_XREC_ROUNDTRIP
360
218
  0
DICTIONARY
  5
1FB
330
1AD
100
AcDbDictionary
280
     1
281
     1
  3
ACAD_XREC_ROUNDTRIP
360
1FC
  0
DICTIONARY
  5
1FD
330
1AE
100
AcDbDictionary
280
     1
281
     1
  3
ACAD_XREC_ROUNDTRIP
360
1FE
  0
DICTIONARY
  5
1FF
330
1AF
100
AcDbDictionary
280
     1
281
     1
  3
ACAD_XREC_ROUNDTRIP
360
200
  0
DICTIONARY
  5
201
330
1B0
100
AcDbDictionary
280
     1
281
     1
  3
ACAD_XREC_ROUNDTRIP
360
202
  0
DICTIONARY
  5
209
330
1B4
100
AcDbDictionary
280
     1
281
     1
  3
ACAD_XREC_ROUNDTRIP
360
20A
  0
DICTIONARY
  5
225
330
1C2
100
AcDbDictionary
280
     1
281
     1
  3
ACAD_XREC_ROUNDTRIP
360
226
  0
DICTIONARY
  5
215
330
1BA
100
AcDbDictionary
280
     1
281
     1
  3
ACAD_XREC_ROUNDTRIP
360
216
  0
DICTIONARY
  5
227
330
1C3
100
AcDbDictionary
280
     1
281
     1
  3
ACAD_XREC_ROUNDTRIP
360
228
  0
DICTIONARY
  5
20D
330
1B6
100
AcDbDictionary
280
     1
281
     1
  3
ACAD_XREC_ROUNDTRIP
360
20E
  0
DICTIONARY
  5
223
330
1C1
100
AcDbDictionary
280
     1
281
     1
  3
ACAD_XREC_ROUNDTRIP
360
224
  0
DICTIONARY
  5
221
330
1C0
100
AcDbDictionary
280
     1
281
     1
  3
ACAD_XREC_ROUNDTRIP
360
222
  0
DICTIONARY
  5
21B
330
1BD
100
AcDbDictionary
280
     1
281
     1
  3
ACAD_XREC_ROUNDTRIP
360
21C
  0
DICTIONARY
  5
21D
330
1BE
100
AcDbDictionary
280
     1
281
     1
  3
ACAD_XREC_ROUNDTRIP
360
21E
  0
DICTIONARY
  5
213
330
1B9
100
AcDbDictionary
280
     1
281
     1
  3
ACAD_XREC_ROUNDTRIP
360
214
  0
DICTIONARY
  5
207
330
1B3
100
AcDbDictionary
280
     1
281
     1
  3
ACAD_XREC_ROUNDTRIP
360
208
  0
DICTIONARY
  5
21F
330
1BF
100
AcDbDictionary
280
     1
281
     1
  3
ACAD_XREC_ROUNDTRIP
360
220
  0
XRECORD
  5
1F7
102
{ACAD_REACTORS
330
1F6
102
}
330
1F6
100
AcDbXrecord
280
     1
102
SHADEPLOT
 70
     0
102
SHADEPLOTRESLEVEL
 70
     2
102
SHADEPLOTCUSTOMDPI
 70
   300
  0
XRECORD
  5
1F5
102
{ACAD_REACTORS
330
1F4
102
}
330
1F4
100
AcDbXrecord
280
     1
102
SHADEPLOT
 70
     0
102
SHADEPLOTRESLEVEL
 70
     2
102
SHADEPLOTCUSTOMDPI
 70
   300
  0
XRECORD
  5
1F9
102
{ACAD_REACTORS
330
19D
102
}
330
19D
100
AcDbXrecord
280
     1
102
MATERIAL
148
0.0
149
0.0
149
0.0
 93
        0
 94
      127
282
     0
 72
     0
 77
     0
171
     0
175
     0
179
     0
273
     0
  0
XRECORD
  5
19F
102
{ACAD_REACTORS
330
19D
102
}
330
19D
100
AcDbXrecord
280
     1
270
     1
271
     1
  0
XRECORD
  5
19E
102
{ACAD_REACTORS
330
19D
102
}
330
19D
100
AcDbXrecord
280
     1
270
     1
271
     1
  0
XRECORD
  5
1A2
102
{ACAD_REACTORS
330
19D
102
}
330
19D
100
AcDbXrecord
280
     1
270
     1
271
     1
  0
XRECORD
  5
1A1
102
{ACAD_REACTORS
330
19D
102
}
330
19D
100
AcDbXrecord
280
     1
270
     1
271
     1
  0
XRECORD
  5
1A3
102
{ACAD_REACTORS
330
19D
102
}
330
19D
100
AcDbXrecord
280
     1
270
     1
271
     1
  0
XRECORD
  5
1A0
102
{ACAD_REACTORS
330
19D
102
}
330
19D
100
AcDbXrecord
280
     1
270
     1
271
     1
  0
XRECORD
  5
1F8
102
{ACAD_REACTORS
330
195
102
}
330
195
100
AcDbXrecord
280
     1
102
MATERIAL
148
0.0
149
0.0
149
0.0
 93
        0
 94
      127
282
     0
 72
     0
 77
     0
171
     0
175
     0
179
     0
273
     0
  0
XRECORD
  5
197
102
{ACAD_REACTORS
330
195
102
}
330
195
100
AcDbXrecord
280
     1
270
     1
271
     1
  0
XRECORD
  5
196
102
{ACAD_REACTORS
330
195
102
}
330
195
100
AcDbXrecord
280
     1
270
     1
271
     1
  0
XRECORD
  5
19A
102
{ACAD_REACTORS
330
195
102
}
330
195
100
AcDbXrecord
280
     1
270
     1
271
     1
  0
XRECORD
  5
199
102
{ACAD_REACTORS
330
195
102
}
330
195
100
AcDbXrecord
280
     1
270
     1
271
     1
  0
XRECORD
  5
19B
102
{ACAD_REACTORS
330
195
102
}
330
195
100
AcDbXrecord
280
     1
270
     1
271
     1
  0
XRECORD
  5
198
102
{ACAD_REACTORS
330
195
102
}
330
195
100
AcDbXrecord
280
     1
270
     1
271
     1
  0
XRECORD
  5
1FA
102
{ACAD_REACTORS
330
1A5
102
}
330
1A5
100
AcDbXrecord
280
     1
102
MATERIAL
148
0.0
149
0.0
149
0.0
 93
        0
 94
      127
282
     0
 72
     0
 77
     0
171
     0
175
     0
179
     0
273
     0
  0
XRECORD
  5
1A7
102
{ACAD_REACTORS
330
1A5
102
}
330
1A5
100
AcDbXrecord
280
     1
270
     1
271
     1
  0
XRECORD
  5
1A6
102
{ACAD_REACTORS
330
1A5
102
}
330
1A5
100
AcDbXrecord
280
     1
270
     1
271
     1
  0
XRECORD
  5
1AA
102
{ACAD_REACTORS
330
1A5
102
}
330
1A5
100
AcDbXrecord
280
     1
270
     1
271
     1
  0
XRECORD
  5
1A9
102
{ACAD_REACTORS
330
1A5
102
}
330
1A5
100
AcDbXrecord
280
     1
270
     1
271
     1
  0
XRECORD
  5
1AB
102
{ACAD_REACTORS
330
1A5
102
}
330
1A5
100
AcDbXrecord
280
     1
270
     1
271
     1
  0
XRECORD
  5
1A8
102
{ACAD_REACTORS
330
1A5
102
}
330
1A5
100
AcDbXrecord
280
     1
270
     1
271
     1
  0
CELLSTYLEMAP
  5
1F1
102
{ACAD_REACTORS
330
1F0
102
}
330
1F0
100
AcDbCellStyleMap
 90
        3
300
CELLSTYLE
  1
TABLEFORMAT_BEGIN
 90
        5
170
     1
 91
        0
 92
    32768
 62
   257
 93
        1
300
CONTENTFORMAT
  1
CONTENTFORMAT_BEGIN
 90
        0
 91
        0
 92
      512
 93
        0
300

 40
0.0
140
1.0
 94
        5
 62
     0
340
12
144
6.0
309
CONTENTFORMAT_END
171
     1
301
MARGIN
  1
CELLMARGIN_BEGIN
 40
1.5
 40
1.5
 40
1.5
 40
1.5
 40
4.5
 40
4.5
309
CELLMARGIN_END
 94
        6
 95
        1
302
GRIDFORMAT
  1
GRIDFORMAT_BEGIN
 90
        0
 91
        1
 62
     0
 92
       -2
340
0
 93
        0
 40
1.125
309
GRIDFORMAT_END
 95
        2
302
GRIDFORMAT
  1
GRIDFORMAT_BEGIN
 90
        0
 91
        1
 62
     0
 92
       -2
340
0
 93
        0
 40
1.125
309
GRIDFORMAT_END
 95
        4
302
GRIDFORMAT
  1
GRIDFORMAT_BEGIN
 90
        0
 91
        1
 62
     0
 92
       -2
340
0
 93
        0
 40
1.125
309
GRIDFORMAT_END
 95
        8
302
GRIDFORMAT
  1
GRIDFORMAT_BEGIN
 90
        0
 91
        1
 62
     0
 92
       -2
340
0
 93
        0
 40
1.125
309
GRIDFORMAT_END
 95
       16
302
GRIDFORMAT
  1
GRIDFORMAT_BEGIN
 90
        0
 91
        1
 62
     0
 92
       -2
340
0
 93
        0
 40
1.125
309
GRIDFORMAT_END
 95
       32
302
GRIDFORMAT
  1
GRIDFORMAT_BEGIN
 90
        0
 91
        1
 62
     0
 92
       -2
340
0
 93
        0
 40
1.125
309
GRIDFORMAT_END
309
TABLEFORMAT_END
  1
CELLSTYLE_BEGIN
 90
        1
 91
        1
300
_TITLE
309
CELLSTYLE_END
300
CELLSTYLE
  1
TABLEFORMAT_BEGIN
 90
        5
170
     1
 91
        0
 92
        0
 62
   257
 93
        1
300
CONTENTFORMAT
  1
CONTENTFORMAT_BEGIN
 90
        0
 91
        0
 92
      512
 93
        0
300

 40
0.0
140
1.0
 94
        5
 62
     0
340
12
144
4.5
309
CONTENTFORMAT_END
171
     1
301
MARGIN
  1
CELLMARGIN_BEGIN
 40
1.5
 40
1.5
 40
1.5
 40
1.5
 40
4.5
 40
4.5
309
CELLMARGIN_END
 94
        6
 95
        1
302
GRIDFORMAT
  1
GRIDFORMAT_BEGIN
 90
        0
 91
        1
 62
     0
 92
       -2
340
0
 93
        0
 40
1.125
309
GRIDFORMAT_END
 95
        2
302
GRIDFORMAT
  1
GRIDFORMAT_BEGIN
 90
        0
 91
        1
 62
     0
 92
       -2
340
0
 93
        0
 40
1.125
309
GRIDFORMAT_END
 95
        4
302
GRIDFORMAT
  1
GRIDFORMAT_BEGIN
 90
        0
 91
        1
 62
     0
 92
       -2
340
0
 93
        0
 40
1.125
309
GRIDFORMAT_END
 95
        8
302
GRIDFORMAT
  1
GRIDFORMAT_BEGIN
 90
        0
 91
        1
 62
     0
 92
       -2
340
0
 93
        0
 40
1.125
309
GRIDFORMAT_END
 95
       16
302
GRIDFORMAT
  1
GRIDFORMAT_BEGIN
 90
        0
 91
        1
 62
     0
 92
       -2
340
0
 93
        0
 40
1.125
309
GRIDFORMAT_END
 95
       32
302
GRIDFORMAT
  1
GRIDFORMAT_BEGIN
 90
        0
 91
        1
 62
     0
 92
       -2
340
0
 93
        0
 40
1.125
309
GRIDFORMAT_END
309
TABLEFORMAT_END
  1
CELLSTYLE_BEGIN
 90
        2
 91
        1
300
_HEADER
309
CELLSTYLE_END
300
CELLSTYLE
  1
TABLEFORMAT_BEGIN
 90
        5
170
     1
 91
        0
 92
        0
 62
   257
 93
        1
300
CONTENTFORMAT
  1
CONTENTFORMAT_BEGIN
 90
        0
 91
        0
 92
      512
 93
        0
300

 40
0.0
140
1.0
 94
        2
 62
     0
340
12
144
4.5
309
CONTENTFORMAT_END
171
     1
301
MARGIN
  1
CELLMARGIN_BEGIN
 40
1.5
 40
1.5
 40
1.5
 40
1.5
 40
4.5
 40
4.5
309
CELLMARGIN_END
 94
        6
 95
        1
302
GRIDFORMAT
  1
GRIDFORMAT_BEGIN
 90
        0
 91
        1
 62
     0
 92
       -2
340
0
 93
        0
 40
1.125
309
GRIDFORMAT_END
 95
        2
302
GRIDFORMAT
  1
GRIDFORMAT_BEGIN
 90
        0
 91
        1
 62
     0
 92
       -2
340
0
 93
        0
 40
1.125
309
GRIDFORMAT_END
 95
        4
302
GRIDFORMAT
  1
GRIDFORMAT_BEGIN
 90
        0
 91
        1
 62
     0
 92
       -2
340
0
 93
        0
 40
1.125
309
GRIDFORMAT_END
 95
        8
302
GRIDFORMAT
  1
GRIDFORMAT_BEGIN
 90
        0
 91
        1
 62
     0
 92
       -2
340
0
 93
        0
 40
1.125
309
GRIDFORMAT_END
 95
       16
302
GRIDFORMAT
  1
GRIDFORMAT_BEGIN
 90
        0
 91
        1
 62
     0
 92
       -2
340
0
 93
        0
 40
1.125
309
GRIDFORMAT_END
 95
       32
302
GRIDFORMAT
  1
GRIDFORMAT_BEGIN
 90
        0
 91
        1
 62
     0
 92
       -2
340
0
 93
        0
 40
1.125
309
GRIDFORMAT_END
309
TABLEFORMAT_END
  1
CELLSTYLE_BEGIN
 90
        3
 91
        2
300
_DATA
309
CELLSTYLE_END
  0
XRECORD
  5
22B
102
{ACAD_REACTORS
330
1F0
102
}
330
1F0
100
AcDbXrecord
280
     1
102
ACAD_ROUNDTRIP_PRE2007_TABLESTYLE
 90
      512
 91
        0
  1

 92
      512
 93
        0
  2

 94
      512
 95
        0
  3

  0
XRECORD
  5
206
102
{ACAD_REACTORS
330
205
102
}
330
205
100
AcDbXrecord
280
     1
102
RTVSPropertyOp0
 70
     1
102
RTVSPropertyOp1
 70
     1
102
RTVSPropertyOp2
 70
     1
102
RTVSPropertyOp3
 70
     1
102
RTVSPropertyOp4
 70
     1
102
RTVSPropertyOp5
 70
     1
102
RTVSPropertyOp6
 70
     1
102
RTVSPropertyOp7
 70
     1
102
RTVSPropertyOp8
 70
     1
102
RTVSPropertyOp9
 70
     1
102
RTVSPropertyOp10
 70
     1
102
RTVSPropertyOp11
 70
     1
102
RTVSPropertyOp12
 70
     1
102
RTVSPropertyOp13
 70
     1
102
RTVSPropertyOp14
 70
     1
102
RTVSPropertyOp15
 70
     1
102
RTVSPropertyOp16
 70
     1
102
RTVSPropertyOp17
 70
     1
102
RTVSPropertyOp18
 70
     1
102
RTVSPropertyOp19
 70
     1
102
RTVSPropertyOp20
 70
     1
102
RTVSPropertyOp21
 70
     1
102
RTVSPropertyOp22
 70
     1
102
RTVSPropertyOp23
 70
     1
102
RTVSPropertyOp24
 70
     1
102
RTVSPropertyOp25
 70
     1
102
RTVSPropertyOp26
 70
     1
102
RTVSPropertyOp27
 70
     1
102
RTVSPropertyOp28
 70
     1
102
RTVSPropertyOp29
 70
     1
102
RTVSPropertyOp30
 70
     1
102
RTVSPropertyOp31
 70
     1
102
RTVSPropertyOp32
 70
     1
  0
XRECORD
  5
204
102
{ACAD_REACTORS
330
203
102
}
330
203
100
AcDbXrecord
280
     1
102
RTVSPropertyOp0
 70
     1
102
RTVSPropertyOp1
 70
     1
102
RTVSPropertyOp2
 70
     1
102
RTVSPropertyOp3
 70
     1
102
RTVSPropertyOp4
 70
     1
102
RTVSPropertyOp5
 70
     1
102
RTVSPropertyOp6
 70
     1
102
RTVSPropertyOp7
 70
     1
102
RTVSPropertyOp8
 70
     1
102
RTVSPropertyOp9
 70
     1
102
RTVSPropertyOp10
 70
     1
102
RTVSPropertyOp11
 70
     1
102
RTVSPropertyOp12
 70
     1
102
RTVSPropertyOp13
 70
     1
102
RTVSPropertyOp14
 70
     1
102
RTVSPropertyOp15
 70
     1
102
RTVSPropertyOp16
 70
     1
102
RTVSPropertyOp17
 70
     1
102
RTVSPropertyOp18
 70
     1
102
RTVSPropertyOp19
 70
     1
102
RTVSPropertyOp20
 70
     1
102
RTVSPropertyOp21
 70
     1
102
RTVSPropertyOp22
 70
     1
102
RTVSPropertyOp23
 70
     1
102
RTVSPropertyOp24
 70
     1
102
RTVSPropertyOp25
 70
     1
102
RTVSPropertyOp26
 70
     1
102
RTVSPropertyOp27
 70
     1
102
RTVSPropertyOp28
 70
     1
102
RTVSPropertyOp29
 70
     1
102
RTVSPropertyOp30
 70
     1
102
RTVSPropertyOp31
 70
     1
102
RTVSPropertyOp32
 70
     1
  0
XRECORD
  5
212
102
{ACAD_REACTORS
330
211
102
}
330
211
100
AcDbXrecord
280
     1
102
RTVSPropertyOp0
 70
     1
102
RTVSPropertyOp1
 70
     1
102
RTVSPropertyOp2
 70
     1
102
RTVSPropertyOp3
 70
     1
102
RTVSPropertyOp4
 70
     1
102
RTVSPropertyOp5
 70
     1
102
RTVSPropertyOp6
 70
     1
102
RTVSPropertyOp7
 70
     1
102
RTVSPropertyOp8
 70
     1
102
RTVSPropertyOp9
 70
     1
102
RTVSPropertyOp10
 70
     1
102
RTVSPropertyOp11
 70
     1
102
RTVSPropertyOp12
 70
     1
102
RTVSPropertyOp13
 70
     1
102
RTVSPropertyOp14
 70
     1
102
RTVSPropertyOp15
 70
     1
102
RTVSPropertyOp16
 70
     1
102
RTVSPropertyOp17
 70
     1
102
RTVSPropertyOp18
 70
     1
102
RTVSPropertyOp19
 70
     1
102
RTVSPropertyOp20
 70
     1
102
RTVSPropertyOp21
 70
     1
102
RTVSPropertyOp22
 70
     1
102
RTVSPropertyOp23
 70
     1
102
RTVSPropertyOp24
 70
     1
102
RTVSPropertyOp25
 70
     1
102
RTVSPropertyOp26
 70
     1
102
RTVSPropertyOp27
 70
     1
102
RTVSPropertyOp28
 70
     1
102
RTVSPropertyOp29
 70
     1
102
RTVSPropertyOp30
 70
     1
102
RTVSPropertyOp31
 70
     1
102
RTVSPropertyOp32
 70
     1
  0
XRECORD
  5
21A
102
{ACAD_REACTORS
330
219
102
}
330
219
100
AcDbXrecord
280
     1
102
RTVSPropertyOp0
 70
     1
102
RTVSPropertyOp1
 70
     1
102
RTVSPropertyOp2
 70
     1
102
RTVSPropertyOp3
 70
     1
102
RTVSPropertyOp4
 70
     1
102
RTVSPropertyOp5
 70
     1
102
RTVSPropertyOp6
 70
     1
102
RTVSPropertyOp7
 70
     1
102
RTVSPropertyOp8
 70
     1
102
RTVSPropertyOp9
 70
     1
102
RTVSPropertyOp10
 70
     1
102
RTVSPropertyOp11
 70
     1
102
RTVSPropertyOp12
 70
     1
102
RTVSPropertyOp13
 70
     1
102
RTVSPropertyOp14
 70
     1
102
RTVSPropertyOp15
 70
     1
102
RTVSPropertyOp16
 70
     1
102
RTVSPropertyOp17
 70
     1
102
RTVSPropertyOp18
 70
     1
102
RTVSPropertyOp19
 70
     1
102
RTVSPropertyOp20
 70
     1
102
RTVSPropertyOp21
 70
     1
102
RTVSPropertyOp22
 70
     1
102
RTVSPropertyOp23
 70
     1
102
RTVSPropertyOp24
 70
     1
102
RTVSPropertyOp25
 70
     1
102
RTVSPropertyOp26
 70
     1
102
RTVSPropertyOp27
 70
     1
102
RTVSPropertyOp28
 70
     1
102
RTVSPropertyOp29
 70
     1
102
RTVSPropertyOp30
 70
     1
102
RTVSPropertyOp31
 70
     1
102
RTVSPropertyOp32
 70
     1
  0
XRECORD
  5
20C
102
{ACAD_REACTORS
330
20B
102
}
330
20B
100
AcDbXrecord
280
     1
102
RTVSPropertyOp0
 70
     1
102
RTVSPropertyOp1
 70
     1
102
RTVSPropertyOp2
 70
     1
102
RTVSPropertyOp3
 70
     1
102
RTVSPropertyOp4
 70
     1
102
RTVSPropertyOp5
 70
     1
102
RTVSPropertyOp6
 70
     1
102
RTVSPropertyOp7
 70
     1
102
RTVSPropertyOp8
 70
     1
102
RTVSPropertyOp9
 70
     1
102
RTVSPropertyOp10
 70
     1
102
RTVSPropertyOp11
 70
     1
102
RTVSPropertyOp12
 70
     1
102
RTVSPropertyOp13
 70
     1
102
RTVSPropertyOp14
 70
     1
102
RTVSPropertyOp15
 70
     1
102
RTVSPropertyOp16
 70
     1
102
RTVSPropertyOp17
 70
     1
102
RTVSPropertyOp18
 70
     1
102
RTVSPropertyOp19
 70
     1
102
RTVSPropertyOp20
 70
     1
102
RTVSPropertyOp21
 70
     1
102
RTVSPropertyOp22
 70
     1
102
RTVSPropertyOp23
 70
     1
102
RTVSPropertyOp24
 70
     1
102
RTVSPropertyOp25
 70
     1
102
RTVSPropertyOp26
 70
     1
102
RTVSPropertyOp27
 70
     1
102
RTVSPropertyOp28
 70
     1
102
RTVSPropertyOp29
 70
     1
102
RTVSPropertyOp30
 70
     1
102
RTVSPropertyOp31
 70
     1
102
RTVSPropertyOp32
 70
     1
  0
XRECORD
  5
210
102
{ACAD_REACTORS
330
20F
102
}
330
20F
100
AcDbXrecord
280
     1
102
RTVSPropertyOp0
 70
     1
102
RTVSPropertyOp1
 70
     1
102
RTVSPropertyOp2
 70
     1
102
RTVSPropertyOp3
 70
     1
102
RTVSPropertyOp4
 70
     1
102
RTVSPropertyOp5
 70
     1
102
RTVSPropertyOp6
 70
     1
102
RTVSPropertyOp7
 70
     1
102
RTVSPropertyOp8
 70
     1
102
RTVSPropertyOp9
 70
     1
102
RTVSPropertyOp10
 70
     1
102
RTVSPropertyOp11
 70
     1
102
RTVSPropertyOp12
 70
     1
102
RTVSPropertyOp13
 70
     1
102
RTVSPropertyOp14
 70
     1
102
RTVSPropertyOp15
 70
     1
102
RTVSPropertyOp16
 70
     1
102
RTVSPropertyOp17
 70
     1
102
RTVSPropertyOp18
 70
     1
102
RTVSPropertyOp19
 70
     1
102
RTVSPropertyOp20
 70
     1
102
RTVSPropertyOp21
 70
     1
102
RTVSPropertyOp22
 70
     1
102
RTVSPropertyOp23
 70
     1
102
RTVSPropertyOp24
 70
     1
102
RTVSPropertyOp25
 70
     1
102
RTVSPropertyOp26
 70
     1
102
RTVSPropertyOp27
 70
     1
102
RTVSPropertyOp28
 70
     1
102
RTVSPropertyOp29
 70
     1
102
RTVSPropertyOp30
 70
     1
102
RTVSPropertyOp31
 70
     1
102
RTVSPropertyOp32
 70
     1
  0
XRECORD
  5
22A
102
{ACAD_REACTORS
330
229
102
}
330
229
100
AcDbXrecord
280
     1
102
RTVSPropertyOp0
 70
     0
102
RTVSPropertyOp1
 70
     0
102
RTVSPropertyOp2
 70
     0
102
RTVSPropertyOp3
 70
     0
102
RTVSPropertyOp4
 70
     0
102
RTVSPropertyOp5
 70
     0
102
RTVSPropertyOp6
 70
     0
102
RTVSPropertyOp7
 70
     0
102
RTVSPropertyOp8
 70
     0
102
RTVSPropertyOp9
 70
     0
102
RTVSPropertyOp10
 70
     0
102
RTVSPropertyOp11
 70
     0
102
RTVSPropertyOp12
 70
     0
102
RTVSPropertyOp13
 70
     0
102
RTVSPropertyOp14
 70
     2
102
RTVSPropertyOp15
 70
     0
102
RTVSPropertyOp16
 70
     0
102
RTVSPropertyOp17
 70
     0
102
RTVSPropertyOp18
 70
     0
102
RTVSPropertyOp19
 70
     0
102
RTVSPropertyOp20
 70
     0
102
RTVSPropertyOp21
 70
     0
102
RTVSPropertyOp22
 70
     0
102
RTVSPropertyOp23
 70
     0
102
RTVSPropertyOp24
 70
     0
102
RTVSPropertyOp25
 70
     0
102
RTVSPropertyOp26
 70
     0
102
RTVSPropertyOp27
 70
     0
102
RTVSPropertyOp28
 70
     0
102
RTVSPropertyOp29
 70
     0
102
RTVSPropertyOp30
 70
     0
102
RTVSPropertyOp31
 70
     0
102
RTVSPropertyOp32
 70
     0
  0
XRECORD
  5
218
102
{ACAD_REACTORS
330
217
102
}
330
217
100
AcDbXrecord
280
     1
102
RTVSPropertyOp0
 70
     1
102
RTVSPropertyOp1
 70
     1
102
RTVSPropertyOp2
 70
     1
102
RTVSPropertyOp3
 70
     1
102
RTVSPropertyOp4
 70
     1
102
RTVSPropertyOp5
 70
     1
102
RTVSPropertyOp6
 70
     1
102
RTVSPropertyOp7
 70
     1
102
RTVSPropertyOp8
 70
     1
102
RTVSPropertyOp9
 70
     1
102
RTVSPropertyOp10
 70
     1
102
RTVSPropertyOp11
 70
     1
102
RTVSPropertyOp12
 70
     1
102
RTVSPropertyOp13
 70
     1
102
RTVSPropertyOp14
 70
     1
102
RTVSPropertyOp15
 70
     1
102
RTVSPropertyOp16
 70
     1
102
RTVSPropertyOp17
 70
     1
102
RTVSPropertyOp18
 70
     1
102
RTVSPropertyOp19
 70
     1
102
RTVSPropertyOp20
 70
     1
102
RTVSPropertyOp21
 70
     1
102
RTVSPropertyOp22
 70
     1
102
RTVSPropertyOp23
 70
     1
102
RTVSPropertyOp24
 70
     1
102
RTVSPropertyOp25
 70
     1
102
RTVSPropertyOp26
 70
     1
102
RTVSPropertyOp27
 70
     1
102
RTVSPropertyOp28
 70
     1
102
RTVSPropertyOp29
 70
     1
102
RTVSPropertyOp30
 70
     1
102
RTVSPropertyOp31
 70
     1
102
RTVSPropertyOp32
 70
     1
  0
XRECORD
  5
1FC
102
{ACAD_REACTORS
330
1FB
102
}
330
1FB
100
AcDbXrecord
280
     1
102
RTVSPropertyOp0
 70
     1
102
RTVSPropertyOp1
 70
     1
102
RTVSPropertyOp2
 70
     1
102
RTVSPropertyOp3
 70
     1
102
RTVSPropertyOp4
 70
     1
102
RTVSPropertyOp5
 70
     1
102
RTVSPropertyOp6
 70
     1
102
RTVSPropertyOp7
 70
     1
102
RTVSPropertyOp8
 70
     1
102
RTVSPropertyOp9
 70
     1
102
RTVSPropertyOp10
 70
     1
102
RTVSPropertyOp11
 70
     1
102
RTVSPropertyOp12
 70
     1
102
RTVSPropertyOp13
 70
     1
102
RTVSPropertyOp14
 70
     1
102
RTVSPropertyOp15
 70
     1
102
RTVSPropertyOp16
 70
     1
102
RTVSPropertyOp17
 70
     1
102
RTVSPropertyOp18
 70
     1
102
RTVSPropertyOp19
 70
     1
102
RTVSPropertyOp20
 70
     1
102
RTVSPropertyOp21
 70
     1
102
RTVSPropertyOp22
 70
     1
102
RTVSPropertyOp23
 70
     1
102
RTVSPropertyOp24
 70
     1
102
RTVSPropertyOp25
 70
     1
102
RTVSPropertyOp26
 70
     1
102
RTVSPropertyOp27
 70
     1
102
RTVSPropertyOp28
 70
     1
102
RTVSPropertyOp29
 70
     1
102
RTVSPropertyOp30
 70
     1
102
RTVSPropertyOp31
 70
     1
102
RTVSPropertyOp32
 70
     1
  0
XRECORD
  5
1FE
102
{ACAD_REACTORS
330
1FD
102
}
330
1FD
100
AcDbXrecord
280
     1
102
RTVSPropertyOp0
 70
     1
102
RTVSPropertyOp1
 70
     1
102
RTVSPropertyOp2
 70
     1
102
RTVSPropertyOp3
 70
     1
102
RTVSPropertyOp4
 70
     1
102
RTVSPropertyOp5
 70
     1
102
RTVSPropertyOp6
 70
     1
102
RTVSPropertyOp7
 70
     1
102
RTVSPropertyOp8
 70
     1
102
RTVSPropertyOp9
 70
     1
102
RTVSPropertyOp10
 70
     1
102
RTVSPropertyOp11
 70
     1
102
RTVSPropertyOp12
 70
     1
102
RTVSPropertyOp13
 70
     1
102
RTVSPropertyOp14
 70
     1
102
RTVSPropertyOp15
 70
     1
102
RTVSPropertyOp16
 70
     1
102
RTVSPropertyOp17
 70
     1
102
RTVSPropertyOp18
 70
     1
102
RTVSPropertyOp19
 70
     1
102
RTVSPropertyOp20
 70
     1
102
RTVSPropertyOp21
 70
     1
102
RTVSPropertyOp22
 70
     1
102
RTVSPropertyOp23
 70
     1
102
RTVSPropertyOp24
 70
     1
102
RTVSPropertyOp25
 70
     1
102
RTVSPropertyOp26
 70
     1
102
RTVSPropertyOp27
 70
     1
102
RTVSPropertyOp28
 70
     1
102
RTVSPropertyOp29
 70
     1
102
RTVSPropertyOp30
 70
     1
102
RTVSPropertyOp31
 70
     1
102
RTVSPropertyOp32
 70
     1
  0
XRECORD
  5
200
102
{ACAD_REACTORS
330
1FF
102
}
330
1FF
100
AcDbXrecord
280
     1
102
RTVSPropertyOp0
 70
     1
102
RTVSPropertyOp1
 70
     1
102
RTVSPropertyOp2
 70
     1
102
RTVSPropertyOp3
 70
     1
102
RTVSPropertyOp4
 70
     1
102
RTVSPropertyOp5
 70
     1
102
RTVSPropertyOp6
 70
     1
102
RTVSPropertyOp7
 70
     1
102
RTVSPropertyOp8
 70
     1
102
RTVSPropertyOp9
 70
     1
102
RTVSPropertyOp10
 70
     1
102
RTVSPropertyOp11
 70
     1
102
RTVSPropertyOp12
 70
     1
102
RTVSPropertyOp13
 70
     1
102
RTVSPropertyOp14
 70
     1
102
RTVSPropertyOp15
 70
     1
102
RTVSPropertyOp16
 70
     1
102
RTVSPropertyOp17
 70
     1
102
RTVSPropertyOp18
 70
     1
102
RTVSPropertyOp19
 70
     1
102
RTVSPropertyOp20
 70
     1
102
RTVSPropertyOp21
 70
     1
102
RTVSPropertyOp22
 70
     1
102
RTVSPropertyOp23
 70
     1
102
RTVSPropertyOp24
 70
     1
102
RTVSPropertyOp25
 70
     1
102
RTVSPropertyOp26
 70
     1
102
RTVSPropertyOp27
 70
     1
102
RTVSPropertyOp28
 70
     1
102
RTVSPropertyOp29
 70
     1
102
RTVSPropertyOp30
 70
     1
102
RTVSPropertyOp31
 70
     1
102
RTVSPropertyOp32
 70
     1
  0
XRECORD
  5
202
102
{ACAD_REACTORS
330
201
102
}
330
201
100
AcDbXrecord
280
     1
102
RTVSPropertyOp0
 70
     1
102
RTVSPropertyOp1
 70
     1
102
RTVSPropertyOp2
 70
     1
102
RTVSPropertyOp3
 70
     1
102
RTVSPropertyOp4
 70
     1
102
RTVSPropertyOp5
 70
     1
102
RTVSPropertyOp6
 70
     1
102
RTVSPropertyOp7
 70
     1
102
RTVSPropertyOp8
 70
     1
102
RTVSPropertyOp9
 70
     1
102
RTVSPropertyOp10
 70
     1
102
RTVSPropertyOp11
 70
     1
102
RTVSPropertyOp12
 70
     1
102
RTVSPropertyOp13
 70
     1
102
RTVSPropertyOp14
 70
     1
102
RTVSPropertyOp15
 70
     1
102
RTVSPropertyOp16
 70
     1
102
RTVSPropertyOp17
 70
     1
102
RTVSPropertyOp18
 70
     1
102
RTVSPropertyOp19
 70
     1
102
RTVSPropertyOp20
 70
     1
102
RTVSPropertyOp21
 70
     1
102
RTVSPropertyOp22
 70
     1
102
RTVSPropertyOp23
 70
     1
102
RTVSPropertyOp24
 70
     1
102
RTVSPropertyOp25
 70
     1
102
RTVSPropertyOp26
 70
     1
102
RTVSPropertyOp27
 70
     1
102
RTVSPropertyOp28
 70
     1
102
RTVSPropertyOp29
 70
     1
102
RTVSPropertyOp30
 70
     1
102
RTVSPropertyOp31
 70
     1
102
RTVSPropertyOp32
 70
     1
  0
XRECORD
  5
20A
102
{ACAD_REACTORS
330
209
102
}
330
209
100
AcDbXrecord
280
     1
102
RTVSPropertyOp0
 70
     1
102
RTVSPropertyOp1
 70
     1
102
RTVSPropertyOp2
 70
     1
102
RTVSPropertyOp3
 70
     1
102
RTVSPropertyOp4
 70
     1
102
RTVSPropertyOp5
 70
     1
102
RTVSPropertyOp6
 70
     1
102
RTVSPropertyOp7
 70
     1
102
RTVSPropertyOp8
 70
     1
102
RTVSPropertyOp9
 70
     1
102
RTVSPropertyOp10
 70
     1
102
RTVSPropertyOp11
 70
     1
102
RTVSPropertyOp12
 70
     1
102
RTVSPropertyOp13
 70
     1
102
RTVSPropertyOp14
 70
     1
102
RTVSPropertyOp15
 70
     1
102
RTVSPropertyOp16
 70
     1
102
RTVSPropertyOp17
 70
     1
102
RTVSPropertyOp18
 70
     1
102
RTVSPropertyOp19
 70
     1
102
RTVSPropertyOp20
 70
     1
102
RTVSPropertyOp21
 70
     1
102
RTVSPropertyOp22
 70
     1
102
RTVSPropertyOp23
 70
     1
102
RTVSPropertyOp24
 70
     1
102
RTVSPropertyOp25
 70
     1
102
RTVSPropertyOp26
 70
     1
102
RTVSPropertyOp27
 70
     1
102
RTVSPropertyOp28
 70
     1
102
RTVSPropertyOp29
 70
     1
102
RTVSPropertyOp30
 70
     1
102
RTVSPropertyOp31
 70
     1
102
RTVSPropertyOp32
 70
     1
  0
XRECORD
  5
226
102
{ACAD_REACTORS
330
225
102
}
330
225
100
AcDbXrecord
280
     1
102
RTVSPropertyOp0
 70
     0
102
RTVSPropertyOp1
 70
     0
102
RTVSPropertyOp2
 70
     0
102
RTVSPropertyOp3
 70
     0
102
RTVSPropertyOp4
 70
     0
102
RTVSPropertyOp5
 70
     0
102
RTVSPropertyOp6
 70
     0
102
RTVSPropertyOp7
 70
     0
102
RTVSPropertyOp8
 70
     0
102
RTVSPropertyOp9
 70
     0
102
RTVSPropertyOp10
 70
     0
102
RTVSPropertyOp11
 70
     0
102
RTVSPropertyOp12
 70
     0
102
RTVSPropertyOp13
 70
     0
102
RTVSPropertyOp14
 70
     2
102
RTVSPropertyOp15
 70
     0
102
RTVSPropertyOp16
 70
     0
102
RTVSPropertyOp17
 70
     0
102
RTVSPropertyOp18
 70
     0
102
RTVSPropertyOp19
 70
     0
102
RTVSPropertyOp20
 70
     0
102
RTVSPropertyOp21
 70
     0
102
RTVSPropertyOp22
 70
     0
102
RTVSPropertyOp23
 70
     0
102
RTVSPropertyOp24
 70
     0
102
RTVSPropertyOp25
 70
     0
102
RTVSPropertyOp26
 70
     0
102
RTVSPropertyOp27
 70
     0
102
RTVSPropertyOp28
 70
     0
102
RTVSPropertyOp29
 70
     0
102
RTVSPropertyOp30
 70
     0
102
RTVSPropertyOp31
 70
     0
102
RTVSPropertyOp32
 70
     0
  0
XRECORD
  5
216
102
{ACAD_REACTORS
330
215
102
}
330
215
100
AcDbXrecord
280
     1
102
RTVSPropertyOp0
 70
     1
102
RTVSPropertyOp1
 70
     1
102
RTVSPropertyOp2
 70
     1
102
RTVSPropertyOp3
 70
     1
102
RTVSPropertyOp4
 70
     1
102
RTVSPropertyOp5
 70
     1
102
RTVSPropertyOp6
 70
     1
102
RTVSPropertyOp7
 70
     1
102
RTVSPropertyOp8
 70
     1
102
RTVSPropertyOp9
 70
     1
102
RTVSPropertyOp10
 70
     1
102
RTVSPropertyOp11
 70
     1
102
RTVSPropertyOp12
 70
     1
102
RTVSPropertyOp13
 70
     1
102
RTVSPropertyOp14
 70
     1
102
RTVSPropertyOp15
 70
     1
102
RTVSPropertyOp16
 70
     1
102
RTVSPropertyOp17
 70
     1
102
RTVSPropertyOp18
 70
     1
102
RTVSPropertyOp19
 70
     1
102
RTVSPropertyOp20
 70
     1
102
RTVSPropertyOp21
 70
     1
102
RTVSPropertyOp22
 70
     1
102
RTVSPropertyOp23
 70
     1
102
RTVSPropertyOp24
 70
     1
102
RTVSPropertyOp25
 70
     1
102
RTVSPropertyOp26
 70
     1
102
RTVSPropertyOp27
 70
     1
102
RTVSPropertyOp28
 70
     1
102
RTVSPropertyOp29
 70
     1
102
RTVSPropertyOp30
 70
     1
102
RTVSPropertyOp31
 70
     1
102
RTVSPropertyOp32
 70
     1
  0
XRECORD
  5
228
102
{ACAD_REACTORS
330
227
102
}
330
227
100
AcDbXrecord
280
     1
102
RTVSPropertyOp0
 70
     0
102
RTVSPropertyOp1
 70
     0
102
RTVSPropertyOp2
 70
     0
102
RTVSPropertyOp3
 70
     0
102
RTVSPropertyOp4
 70
     0
102
RTVSPropertyOp5
 70
     0
102
RTVSPropertyOp6
 70
     0
102
RTVSPropertyOp7
 70
     0
102
RTVSPropertyOp8
 70
     0
102
RTVSPropertyOp9
 70
     0
102
RTVSPropertyOp10
 70
     0
102
RTVSPropertyOp11
 70
     0
102
RTVSPropertyOp12
 70
     0
102
RTVSPropertyOp13
 70
     0
102
RTVSPropertyOp14
 70
     2
102
RTVSPropertyOp15
 70
     0
102
RTVSPropertyOp16
 70
     0
102
RTVSPropertyOp17
 70
     0
102
RTVSPropertyOp18
 70
     0
102
RTVSPropertyOp19
 70
     0
102
RTVSPropertyOp20
 70
     0
102
RTVSPropertyOp21
 70
     0
102
RTVSPropertyOp22
 70
     0
102
RTVSPropertyOp23
 70
     0
102
RTVSPropertyOp24
 70
     0
102
RTVSPropertyOp25
 70
     0
102
RTVSPropertyOp26
 70
     0
102
RTVSPropertyOp27
 70
     0
102
RTVSPropertyOp28
 70
     0
102
RTVSPropertyOp29
 70
     0
102
RTVSPropertyOp30
 70
     0
102
RTVSPropertyOp31
 70
     0
102
RTVSPropertyOp32
 70
     0
  0
XRECORD
  5
20E
102
{ACAD_REACTORS
330
20D
102
}
330
20D
100
AcDbXrecord
280
     1
102
RTVSPropertyOp0
 70
     1
102
RTVSPropertyOp1
 70
     1
102
RTVSPropertyOp2
 70
     1
102
RTVSPropertyOp3
 70
     1
102
RTVSPropertyOp4
 70
     1
102
RTVSPropertyOp5
 70
     1
102
RTVSPropertyOp6
 70
     1
102
RTVSPropertyOp7
 70
     1
102
RTVSPropertyOp8
 70
     1
102
RTVSPropertyOp9
 70
     1
102
RTVSPropertyOp10
 70
     1
102
RTVSPropertyOp11
 70
     1
102
RTVSPropertyOp12
 70
     1
102
RTVSPropertyOp13
 70
     1
102
RTVSPropertyOp14
 70
     1
102
RTVSPropertyOp15
 70
     1
102
RTVSPropertyOp16
 70
     1
102
RTVSPropertyOp17
 70
     1
102
RTVSPropertyOp18
 70
     1
102
RTVSPropertyOp19
 70
     1
102
RTVSPropertyOp20
 70
     1
102
RTVSPropertyOp21
 70
     1
102
RTVSPropertyOp22
 70
     1
102
RTVSPropertyOp23
 70
     1
102
RTVSPropertyOp24
 70
     1
102
RTVSPropertyOp25
 70
     1
102
RTVSPropertyOp26
 70
     1
102
RTVSPropertyOp27
 70
     1
102
RTVSPropertyOp28
 70
     1
102
RTVSPropertyOp29
 70
     1
102
RTVSPropertyOp30
 70
     1
102
RTVSPropertyOp31
 70
     1
102
RTVSPropertyOp32
 70
     1
  0
XRECORD
  5
224
102
{ACAD_REACTORS
330
223
102
}
330
223
100
AcDbXrecord
280
     1
102
RTVSPropertyOp0
 70
     1
102
RTVSPropertyOp1
 70
     1
102
RTVSPropertyOp2
 70
     1
102
RTVSPropertyOp3
 70
     1
102
RTVSPropertyOp4
 70
     1
102
RTVSPropertyOp5
 70
     1
102
RTVSPropertyOp6
 70
     1
102
RTVSPropertyOp7
 70
     1
102
RTVSPropertyOp8
 70
     1
102
RTVSPropertyOp9
 70
     1
102
RTVSPropertyOp10
 70
     1
102
RTVSPropertyOp11
 70
     1
102
RTVSPropertyOp12
 70
     1
102
RTVSPropertyOp13
 70
     1
102
RTVSPropertyOp14
 70
     1
102
RTVSPropertyOp15
 70
     1
102
RTVSPropertyOp16
 70
     1
102
RTVSPropertyOp17
 70
     1
102
RTVSPropertyOp18
 70
     1
102
RTVSPropertyOp19
 70
     1
102
RTVSPropertyOp20
 70
     1
102
RTVSPropertyOp21
 70
     1
102
RTVSPropertyOp22
 70
     1
102
RTVSPropertyOp23
 70
     1
102
RTVSPropertyOp24
 70
     1
102
RTVSPropertyOp25
 70
     1
102
RTVSPropertyOp26
 70
     1
102
RTVSPropertyOp27
 70
     1
102
RTVSPropertyOp28
 70
     1
102
RTVSPropertyOp29
 70
     1
102
RTVSPropertyOp30
 70
     1
102
RTVSPropertyOp31
 70
     1
102
RTVSPropertyOp32
 70
     1
  0
XRECORD
  5
222
102
{ACAD_REACTORS
330
221
102
}
330
221
100
AcDbXrecord
280
     1
102
RTVSPropertyOp0
 70
     1
102
RTVSPropertyOp1
 70
     1
102
RTVSPropertyOp2
 70
     1
102
RTVSPropertyOp3
 70
     1
102
RTVSPropertyOp4
 70
     1
102
RTVSPropertyOp5
 70
     1
102
RTVSPropertyOp6
 70
     1
102
RTVSPropertyOp7
 70
     1
102
RTVSPropertyOp8
 70
     1
102
RTVSPropertyOp9
 70
     1
102
RTVSPropertyOp10
 70
     1
102
RTVSPropertyOp11
 70
     1
102
RTVSPropertyOp12
 70
     1
102
RTVSPropertyOp13
 70
     1
102
RTVSPropertyOp14
 70
     1
102
RTVSPropertyOp15
 70
     1
102
RTVSPropertyOp16
 70
     1
102
RTVSPropertyOp17
 70
     1
102
RTVSPropertyOp18
 70
     1
102
RTVSPropertyOp19
 70
     1
102
RTVSPropertyOp20
 70
     1
102
RTVSPropertyOp21
 70
     1
102
RTVSPropertyOp22
 70
     1
102
RTVSPropertyOp23
 70
     1
102
RTVSPropertyOp24
 70
     1
102
RTVSPropertyOp25
 70
     1
102
RTVSPropertyOp26
 70
     1
102
RTVSPropertyOp27
 70
     1
102
RTVSPropertyOp28
 70
     1
102
RTVSPropertyOp29
 70
     1
102
RTVSPropertyOp30
 70
     1
102
RTVSPropertyOp31
 70
     1
102
RTVSPropertyOp32
 70
     1
  0
XRECORD
  5
21C
102
{ACAD_REACTORS
330
21B
102
}
330
21B
100
AcDbXrecord
280
     1
102
RTVSPropertyOp0
 70
     1
102
RTVSPropertyOp1
 70
     1
102
RTVSPropertyOp2
 70
     1
102
RTVSPropertyOp3
 70
     1
102
RTVSPropertyOp4
 70
     1
102
RTVSPropertyOp5
 70
     1
102
RTVSPropertyOp6
 70
     1
102
RTVSPropertyOp7
 70
     1
102
RTVSPropertyOp8
 70
     1
102
RTVSPropertyOp9
 70
     1
102
RTVSPropertyOp10
 70
     1
102
RTVSPropertyOp11
 70
     1
102
RTVSPropertyOp12
 70
     1
102
RTVSPropertyOp13
 70
     1
102
RTVSPropertyOp14
 70
     1
102
RTVSPropertyOp15
 70
     1
102
RTVSPropertyOp16
 70
     1
102
RTVSPropertyOp17
 70
     1
102
RTVSPropertyOp18
 70
     1
102
RTVSPropertyOp19
 70
     1
102
RTVSPropertyOp20
 70
     1
102
RTVSPropertyOp21
 70
     1
102
RTVSPropertyOp22
 70
     1
102
RTVSPropertyOp23
 70
     1
102
RTVSPropertyOp24
 70
     1
102
RTVSPropertyOp25
 70
     1
102
RTVSPropertyOp26
 70
     1
102
RTVSPropertyOp27
 70
     1
102
RTVSPropertyOp28
 70
     1
102
RTVSPropertyOp29
 70
     1
102
RTVSPropertyOp30
 70
     1
102
RTVSPropertyOp31
 70
     1
102
RTVSPropertyOp32
 70
     1
  0
XRECORD
  5
21E
102
{ACAD_REACTORS
330
21D
102
}
330
21D
100
AcDbXrecord
280
     1
102
RTVSPropertyOp0
 70
     1
102
RTVSPropertyOp1
 70
     1
102
RTVSPropertyOp2
 70
     1
102
RTVSPropertyOp3
 70
     1
102
RTVSPropertyOp4
 70
     1
102
RTVSPropertyOp5
 70
     1
102
RTVSPropertyOp6
 70
     1
102
RTVSPropertyOp7
 70
     1
102
RTVSPropertyOp8
 70
     1
102
RTVSPropertyOp9
 70
     1
102
RTVSPropertyOp10
 70
     1
102
RTVSPropertyOp11
 70
     1
102
RTVSPropertyOp12
 70
     1
102
RTVSPropertyOp13
 70
     1
102
RTVSPropertyOp14
 70
     1
102
RTVSPropertyOp15
 70
     1
102
RTVSPropertyOp16
 70
     1
102
RTVSPropertyOp17
 70
     1
102
RTVSPropertyOp18
 70
     1
102
RTVSPropertyOp19
 70
     1
102
RTVSPropertyOp20
 70
     1
102
RTVSPropertyOp21
 70
     1
102
RTVSPropertyOp22
 70
     1
102
RTVSPropertyOp23
 70
     1
102
RTVSPropertyOp24
 70
     1
102
RTVSPropertyOp25
 70
     1
102
RTVSPropertyOp26
 70
     1
102
RTVSPropertyOp27
 70
     1
102
RTVSPropertyOp28
 70
     1
102
RTVSPropertyOp29
 70
     1
102
RTVSPropertyOp30
 70
     1
102
RTVSPropertyOp31
 70
     1
102
RTVSPropertyOp32
 70
     1
  0
XRECORD
  5
214
102
{ACAD_REACTORS
330
213
102
}
330
213
100
AcDbXrecord
280
     1
102
RTVSPropertyOp0
 70
     1
102
RTVSPropertyOp1
 70
     1
102
RTVSPropertyOp2
 70
     1
102
RTVSPropertyOp3
 70
     1
102
RTVSPropertyOp4
 70
     1
102
RTVSPropertyOp5
 70
     1
102
RTVSPropertyOp6
 70
     1
102
RTVSPropertyOp7
 70
     1
102
RTVSPropertyOp8
 70
     1
102
RTVSPropertyOp9
 70
     1
102
RTVSPropertyOp10
 70
     1
102
RTVSPropertyOp11
 70
     1
102
RTVSPropertyOp12
 70
     1
102
RTVSPropertyOp13
 70
     1
102
RTVSPropertyOp14
 70
     1
102
RTVSPropertyOp15
 70
     1
102
RTVSPropertyOp16
 70
     1
102
RTVSPropertyOp17
 70
     1
102
RTVSPropertyOp18
 70
     1
102
RTVSPropertyOp19
 70
     1
102
RTVSPropertyOp20
 70
     1
102
RTVSPropertyOp21
 70
     1
102
RTVSPropertyOp22
 70
     1
102
RTVSPropertyOp23
 70
     1
102
RTVSPropertyOp24
 70
     1
102
RTVSPropertyOp25
 70
     1
102
RTVSPropertyOp26
 70
     1
102
RTVSPropertyOp27
 70
     1
102
RTVSPropertyOp28
 70
     1
102
RTVSPropertyOp29
 70
     1
102
RTVSPropertyOp30
 70
     1
102
RTVSPropertyOp31
 70
     1
102
RTVSPropertyOp32
 70
     1
  0
XRECORD
  5
208
102
{ACAD_REACTORS
330
207
102
}
330
207
100
AcDbXrecord
280
     1
102
RTVSPropertyOp0
 70
     1
102
RTVSPropertyOp1
 70
     1
102
RTVSPropertyOp2
 70
     1
102
RTVSPropertyOp3
 70
     1
102
RTVSPropertyOp4
 70
     1
102
RTVSPropertyOp5
 70
     1
102
RTVSPropertyOp6
 70
     1
102
RTVSPropertyOp7
 70
     1
102
RTVSPropertyOp8
 70
     1
102
RTVSPropertyOp9
 70
     1
102
RTVSPropertyOp10
 70
     1
102
RTVSPropertyOp11
 70
     1
102
RTVSPropertyOp12
 70
     1
102
RTVSPropertyOp13
 70
     1
102
RTVSPropertyOp14
 70
     1
102
RTVSPropertyOp15
 70
     1
102
RTVSPropertyOp16
 70
     1
102
RTVSPropertyOp17
 70
     1
102
RTVSPropertyOp18
 70
     1
102
RTVSPropertyOp19
 70
     1
102
RTVSPropertyOp20
 70
     1
102
RTVSPropertyOp21
 70
     1
102
RTVSPropertyOp22
 70
     1
102
RTVSPropertyOp23
 70
     1
102
RTVSPropertyOp24
 70
     1
102
RTVSPropertyOp25
 70
     1
102
RTVSPropertyOp26
 70
     1
102
RTVSPropertyOp27
 70
     1
102
RTVSPropertyOp28
 70
     1
102
RTVSPropertyOp29
 70
     1
102
RTVSPropertyOp30
 70
     1
102
RTVSPropertyOp31
 70
     1
102
RTVSPropertyOp32
 70
     1
  0
XRECORD
  5
220
102
{ACAD_REACTORS
330
21F
102
}
330
21F
100
AcDbXrecord
280
     1
102
RTVSPropertyOp0
 70
     1
102
RTVSPropertyOp1
 70
     1
102
RTVSPropertyOp2
 70
     1
102
RTVSPropertyOp3
 70
     1
102
RTVSPropertyOp4
 70
     1
102
RTVSPropertyOp5
 70
     1
102
RTVSPropertyOp6
 70
     1
102
RTVSPropertyOp7
 70
     1
102
RTVSPropertyOp8
 70
     1
102
RTVSPropertyOp9
 70
     1
102
RTVSPropertyOp10
 70
     1
102
RTVSPropertyOp11
 70
     1
102
RTVSPropertyOp12
 70
     1
102
RTVSPropertyOp13
 70
     1
102
RTVSPropertyOp14
 70
     1
102
RTVSPropertyOp15
 70
     1
102
RTVSPropertyOp16
 70
     1
102
RTVSPropertyOp17
 70
     1
102
RTVSPropertyOp18
 70
     1
102
RTVSPropertyOp19
 70
     1
102
RTVSPropertyOp20
 70
     1
102
RTVSPropertyOp21
 70
     1
102
RTVSPropertyOp22
 70
     1
102
RTVSPropertyOp23
 70
     1
102
RTVSPropertyOp24
 70
     1
102
RTVSPropertyOp25
 70
     1
102
RTVSPropertyOp26
 70
     1
102
RTVSPropertyOp27
 70
     1
102
RTVSPropertyOp28
 70
     1
102
RTVSPropertyOp29
 70
     1
102
RTVSPropertyOp30
 70
     1
102
RTVSPropertyOp31
 70
     1
102
RTVSPropertyOp32
 70
     1
  0
ENDSEC
  0
EOF
