  0
SECTION
  2
HEADER
  9
$ACADVER
  1
AC1015
  9
$ACADMAINTVER
 70
    20
  9
$DWGCODEPAGE
  3
ANSI_1252
  9
$INSBASE
 10
0.0
 20
0.0
 30
0.0
  9
$EXTMIN
 10
-22.499955
 20
-22.49995500000002
 30
0.0
  9
$EXTMAX
 10
200.0065154229611
 20
292.1785144370565
 30
0.0
  9
$LIMMIN
 10
0.0
 20
0.0
  9
$LIMMAX
 10
210.0
 20
297.0
  9
$ORTHOMODE
 70
     0
  9
$REGENMODE
 70
     1
  9
$FILLMODE
 70
     1
  9
$QTEXTMODE
 70
     0
  9
$MIRRTEXT
 70
     1
  9
$LTSCALE
 40
25.4
  9
$ATTMODE
 70
     1
  9
$TEXTSIZE
 40
0.2
  9
$TRACEWID
 40
0.05
  9
$TEXTSTYLE
  7
Standard
  9
$CLAYER
  8
P-0000
  9
$CELTYPE
  6
CONTINUOUS
  9
$CECOLOR
 62
   256
  9
$CELTSCALE
 40
1.0
  9
$DISPSILH
 70
     0
  9
$DIMSCALE
 40
1.0
  9
$DIMASZ
 40
0.18
  9
$DIMEXO
 40
0.0625
  9
$DIMDLI
 40
0.38
  9
$DIMRND
 40
0.0
  9
$DIMDLE
 40
0.0
  9
$DIMEXE
 40
0.18
  9
$DIMTP
 40
0.0
  9
$DIMTM
 40
0.0
  9
$DIMTXT
 40
0.18
  9
$DIMCEN
 40
0.09
  9
$DIMTSZ
 40
0.0
  9
$DIMTOL
 70
     0
  9
$DIMLIM
 70
     0
  9
$DIMTIH
 70
     1
  9
$DIMTOH
 70
     1
  9
$DIMSE1
 70
     0
  9
$DIMSE2
 70
     0
  9
$DIMTAD
 70
     0
  9
$DIMZIN
 70
     0
  9
$DIMBLK
  1

  9
$DIMASO
 70
     1
  9
$DIMSHO
 70
     1
  9
$DIMPOST
  1

  9
$DIMAPOST
  1

  9
$DIMALT
 70
     0
  9
$DIMALTD
 70
     2
  9
$DIMALTF
 40
25.4
  9
$DIMLFAC
 40
1.0
  9
$DIMTOFL
 70
     0
  9
$DIMTVP
 40
0.0
  9
$DIMTIX
 70
     0
  9
$DIMSOXD
 70
     0
  9
$DIMSAH
 70
     0
  9
$DIMBLK1
  1

  9
$DIMBLK2
  1

  9
$DIMSTYLE
  2
Standard
  9
$DIMCLRD
 70
     0
  9
$DIMCLRE
 70
     0
  9
$DIMCLRT
 70
     0
  9
$DIMTFAC
 40
1.0
  9
$DIMGAP
 40
0.09
  9
$DIMJUST
 70
     0
  9
$DIMSD1
 70
     0
  9
$DIMSD2
 70
     0
  9
$DIMTOLJ
 70
     1
  9
$DIMTZIN
 70
     0
  9
$DIMALTZ
 70
     0
  9
$DIMALTTZ
 70
     0
  9
$DIMUPT
 70
     0
  9
$DIMDEC
 70
     4
  9
$DIMTDEC
 70
     4
  9
$DIMALTU
 70
     2
  9
$DIMALTTD
 70
     2
  9
$DIMTXSTY
  7
Standard
  9
$DIMAUNIT
 70
     0
  9
$DIMADEC
 70
     0
  9
$DIMALTRND
 40
0.0
  9
$DIMAZIN
 70
     0
  9
$DIMDSEP
 70
     0
  9
$DIMATFIT
 70
     3
  9
$DIMFRAC
 70
     0
  9
$DIMLDRBLK
  1

  9
$DIMLUNIT
 70
     2
  9
$DIMLWD
 70
     0
  9
$DIMLWE
 70
     0
  9
$DIMTMOVE
 70
     0
  9
$LUNITS
 70
     2
  9
$LUPREC
 70
     4
  9
$SKETCHINC
 40
0.1
  9
$FILLETRAD
 40
0.0
  9
$AUNITS
 70
     0
  9
$AUPREC
 70
     0
  9
$MENU
  1
acad
  9
$ELEVATION
 40
0.0
  9
$PELEVATION
 40
0.0
  9
$THICKNESS
 40
0.0
  9
$LIMCHECK
 70
     0
  9
$CHAMFERA
 40
0.0
  9
$CHAMFERB
 40
0.0
  9
$CHAMFERC
 40
0.0
  9
$CHAMFERD
 40
0.0
  9
$SKPOLY
 70
     0
  9
$TDCREATE
 40
2455558.652338993
  9
$TDUCREATE
 40
2455558.610672326
  9
$TDUPDATE
 40
2455632.378937662
  9
$TDUUPDATE
 40
2455632.337270996
  9
$TDINDWG
 40
0.0015821875
  9
$TDUSRTIMER
 40
0.0015821875
  9
$USRTIMER
 70
     1
  9
$ANGBASE
 50
0.0
  9
$ANGDIR
 70
     0
  9
$PDMODE
 70
     0
  9
$PDSIZE
 40
0.0
  9
$PLINEWID
 40
0.0
  9
$SPLFRAME
 70
     0
  9
$SPLINETYPE
 70
     6
  9
$SPLINESEGS
 70
     8
  9
$HANDSEED
  5
481
  9
$SURFTAB1
 70
     6
  9
$SURFTAB2
 70
     6
  9
$SURFTYPE
 70
     6
  9
$SURFU
 70
     6
  9
$SURFV
 70
     6
  9
$UCSBASE
  2

  9
$UCSNAME
  2

  9
$UCSORG
 10
0.0
 20
0.0
 30
0.0
  9
$UCSXDIR
 10
1.0
 20
0.0
 30
0.0
  9
$UCSYDIR
 10
0.0
 20
1.0
 30
0.0
  9
$UCSORTHOREF
  2

  9
$UCSORTHOVIEW
 70
     0
  9
$UCSORGTOP
 10
0.0
 20
0.0
 30
0.0
  9
$UCSORGBOTTOM
 10
0.0
 20
0.0
 30
0.0
  9
$UCSORGLEFT
 10
0.0
 20
0.0
 30
0.0
  9
$UCSORGRIGHT
 10
0.0
 20
0.0
 30
0.0
  9
$UCSORGFRONT
 10
0.0
 20
0.0
 30
0.0
  9
$UCSORGBACK
 10
0.0
 20
0.0
 30
0.0
  9
$PUCSBASE
  2

  9
$PUCSNAME
  2

  9
$PUCSORG
 10
0.0
 20
0.0
 30
0.0
  9
$PUCSXDIR
 10
1.0
 20
0.0
 30
0.0
  9
$PUCSYDIR
 10
0.0
 20
1.0
 30
0.0
  9
$PUCSORTHOREF
  2

  9
$PUCSORTHOVIEW
 70
     0
  9
$PUCSORGTOP
 10
0.0
 20
0.0
 30
0.0
  9
$PUCSORGBOTTOM
 10
0.0
 20
0.0
 30
0.0
  9
$PUCSORGLEFT
 10
0.0
 20
0.0
 30
0.0
  9
$PUCSORGRIGHT
 10
0.0
 20
0.0
 30
0.0
  9
$PUCSORGFRONT
 10
0.0
 20
0.0
 30
0.0
  9
$PUCSORGBACK
 10
0.0
 20
0.0
 30
0.0
  9
$USERI1
 70
     0
  9
$USERI2
 70
     0
  9
$USERI3
 70
     0
  9
$USERI4
 70
     0
  9
$USERI5
 70
     0
  9
$USERR1
 40
0.0
  9
$USERR2
 40
0.0
  9
$USERR3
 40
0.0
  9
$USERR4
 40
0.0
  9
$USERR5
 40
0.0
  9
$WORLDVIEW
 70
     1
  9
$SHADEDGE
 70
     3
  9
$SHADEDIF
 70
    70
  9
$TILEMODE
 70
     1
  9
$MAXACTVP
 70
    16
  9
$PINSBASE
 10
0.0
 20
0.0
 30
0.0
  9
$PLIMCHECK
 70
     0
  9
$PEXTMIN
 10
1.000000000000000E+20
 20
1.000000000000000E+20
 30
1.000000000000000E+20
  9
$PEXTMAX
 10
-1.000000000000000E+20
 20
-1.000000000000000E+20
 30
-1.000000000000000E+20
  9
$PLIMMIN
 10
0.0
 20
0.0
  9
$PLIMMAX
 10
12.0
 20
9.0
  9
$UNITMODE
 70
     0
  9
$VISRETAIN
 70
     0
  9
$PLINEGEN
 70
     1
  9
$PSLTSCALE
 70
     0
  9
$TREEDEPTH
 70
  3020
  9
$CMLSTYLE
  2
Standard
  9
$CMLJUST
 70
     0
  9
$CMLSCALE
 40
1.0
  9
$PROXYGRAPHICS
 70
     0
  9
$MEASUREMENT
 70
     0
  9
$CELWEIGHT
370
     0
  9
$ENDCAPS
280
     0
  9
$JOINSTYLE
280
     0
  9
$LWDISPLAY
290
     0
  9
$INSUNITS
 70
     0
  9
$HYPERLINKBASE
  1

  9
$STYLESHEET
  1

  9
$XEDIT
290
     1
  9
$CEPSNTYPE
380
     0
  9
$PSTYLEMODE
290
     1
  9
$FINGERPRINTGUID
  2

  9
$VERSIONGUID
  2
{7E071AD8-4E9D-4013-9BB0-83BD9B794ABB}
  9
$EXTNAMES
290
     1
  9
$PSVPSCALE
 40
0.0
  9
$OLESTARTUP
290
     0
  0
ENDSEC
  0
SECTION
  2
CLASSES
  0
CLASS
  1
LWPOLYLINE
  2
AcDbPolyline
  3
ObjectDBX Classes
 90
        0
280
     0
281
     1
  0
CLASS
  1
IMAGE
  2
AcDbRasterImage
  3
ISM
 90
    34943
280
     0
281
     1
  0
CLASS
  1
OLE2FRAME
  2
AcDbOle2Frame
  3
ObjectDBX Classes
 90
    32768
280
     0
281
     1
  0
CLASS
  1
HATCH
  2
AcDbHatch
  3
ObjectDBX Classes
 90
        0
280
     0
281
     1
  0
CLASS
  1
DICTIONARYVAR
  2
AcDbDictionaryVar
  3
ObjectDBX Classes
 90
        0
280
     0
281
     0
  0
CLASS
  1
RASTERVARIABLES
  2
AcDbRasterVariables
  3
ISM
 90
    32768
280
     0
281
     0
  0
CLASS
  1
IMAGEDEF
  2
AcDbRasterImageDef
  3
ISM
 90
    32768
280
     0
281
     0
  0
CLASS
  1
IMAGEDEF_REACTOR
  2
AcDbRasterImageDefReactor
  3
ISM
 90
    32769
280
     0
281
     0
  0
CLASS
  1
IDBUFFER
  2
AcDbIdBuffer
  3
ObjectDBX Classes
 90
    32768
280
     0
281
     0
  0
CLASS
  1
SPATIAL_FILTER
  2
AcDbSpatialFilter
  3
ObjectDBX Classes
 90
    32768
280
     0
281
     0
  0
CLASS
  1
XRECORD
  2
AcDbXrecord
  3
ObjectDBX Classes
 90
        0
280
     0
281
     0
  0
CLASS
  1
SORTENTSTABLE
  2
AcDbSortentsTable
  3
ObjectDBX Classes
 90
    32768
280
     0
281
     0
  0
CLASS
  1
LAYER_INDEX
  2
AcDbLayerIndex
  3
ObjectDBX Classes
 90
    32768
280
     0
281
     0
  0
CLASS
  1
SPATIAL_INDEX
  2
AcDbSpatialIndex
  3
ObjectDBX Classes
 90
    32768
280
     0
281
     0
  0
CLASS
  1
OBJECT_PTR
  2
CAseDLPNTableRecord
  3
ASE-LPNTableRecord
 90
    32769
280
     0
281
     0
  0
CLASS
  1
LAYOUT
  2
AcDbLayout
  3
ObjectDBX Classes
 90
        0
280
     0
281
     0
  0
CLASS
  1
PLOTSETTINGS
  2
AcDbPlotSettings
  3
ObjectDBX Classes
 90
        0
280
     0
281
     0
  0
CLASS
  1
ACDBDICTIONARYWDFLT
  2
AcDbDictionaryWithDefault
  3
ObjectDBX Classes
 90
        0
280
     0
281
     0
  0
CLASS
  1
ACDBPLACEHOLDER
  2
AcDbPlaceHolder
  3
ObjectDBX Classes
 90
        0
280
     0
281
     0
  0
CLASS
  1
VBA_PROJECT
  2
AcDbVbaProject
  3
acad
 90
    32768
280
     0
281
     0
  0
CLASS
  1
WIPEOUT
  2
AcDbWipeout
  3
"WipeOut|Product Desc: Object Enabler for WipeOut entity                        |Company: Autodesk, Inc.                        |WEB Address: www.autodesk.com"
 90
    34943
280
     0
281
     1
  0
CLASS
  1
WIPEOUTVARIABLES
  2
AcDbWipeoutVariables
  3
"WipeOut|Product Desc:     WipeOut Dbx Application|Company:          Autodesk, Inc.|WEB Address:      www.autodesk.com"
 90
        0
280
     0
281
     0
  0
CLASS
  1
RTEXT
  2
RText
  3
RText|AutoCAD Express Tool|expresstools@autodesk.com
 90
    35839
280
     0
281
     1
  0
CLASS
  1
ARCALIGNEDTEXT
  2
AcDbArcAlignedText
  3
ATEXT|AutoCAD Express Tool|expresstools@autodesk.com
 90
    32768
280
     0
281
     1
  0
CLASS
  1
MATERIAL
  2
AcDbMaterial
  3
ObjectDBX Classes
 90
     1153
280
     0
281
     0
  0
CLASS
  1
VISUALSTYLE
  2
AcDbVisualStyle
  3
ObjectDBX Classes
 90
     4095
280
     0
281
     0
  0
CLASS
  1
SCALE
  2
AcDbScale
  3
ObjectDBX Classes
 90
     1153
280
     0
281
     0
  0
CLASS
  1
TABLESTYLE
  2
AcDbTableStyle
  3
ObjectDBX Classes
 90
     4095
280
     0
281
     0
  0
CLASS
  1
MLEADERSTYLE
  2
AcDbMLeaderStyle
  3
ACDB_MLEADERSTYLE_CLASS
 90
     4095
280
     0
281
     0
  0
CLASS
  1
ACDBQSCATEGORY
  2
AcQsCategory
  3
categories
 90
     1024
280
     0
281
     0
  0
CLASS
  1
CELLSTYLEMAP
  2
AcDbCellStyleMap
  3
ObjectDBX Classes
 90
     1152
280
     0
281
     0
  0
ENDSEC
  0
SECTION
  2
TABLES
  0
TABLE
  2
VPORT
  5
7
102
{ACAD_XDICTIONARY
360
3DB
102
}
330
0
100
AcDbSymbolTable
 70
     1
  0
VPORT
  5
15
330
7
100
AcDbSymbolTableRecord
100
AcDbViewportTableRecord
  2
*ACTIVE
 70
     0
 10
0.0
 20
0.0
 11
1.0
 21
1.0
 12
202.3287268019339
 22
128.2857008509476
 13
0.0
 23
0.0
 14
1.0
 24
1.0
 15
0.0
 25
0.0
 16
0.0
 26
0.0
 36
1.0
 17
0.0
 27
0.0
 37
0.0
 40
437.3067409025455
 41
2.251225490196078
 42
50.0
 43
0.0
 44
0.0
 50
0.0
 51
0.0
 71
     0
 72
   100
 73
     1
 74
     1
 75
     0
 76
     0
 77
     0
 78
     0
281
     0
 65
     0
110
0.0
120
0.0
130
0.0
111
1.0
121
0.0
131
0.0
112
0.0
122
1.0
132
0.0
 79
     0
146
0.0
  0
ENDTAB
  0
TABLE
  2
LTYPE
  5
4
330
0
100
AcDbSymbolTable
 70
     9
  0
LTYPE
  5
11
330
4
100
AcDbSymbolTableRecord
100
AcDbLinetypeTableRecord
  2
ByBlock
 70
     0
  3

 72
    65
 73
     0
 40
0.0
  0
LTYPE
  5
12
330
4
100
AcDbSymbolTableRecord
100
AcDbLinetypeTableRecord
  2
ByLayer
 70
     0
  3

 72
    65
 73
     0
 40
0.0
  0
LTYPE
  5
13
330
4
100
AcDbSymbolTableRecord
100
AcDbLinetypeTableRecord
  2
CONTINUOUS
 70
     0
  3
Solid line
 72
    65
 73
     0
 40
0.0
  0
LTYPE
  5
28
330
4
100
AcDbSymbolTableRecord
100
AcDbLinetypeTableRecord
  2
HIDDEN2
 70
     0
  3
_ _ _ _ _ _ _ _ _ _ _ _ _ _ _ _ _ _ _ _ _ _ _ _
 72
    65
 73
     2
 40
0.1875
 49
0.125
 74
     0
 49
-0.0625
 74
     0
  0
LTYPE
  5
29
330
4
100
AcDbSymbolTableRecord
100
AcDbLinetypeTableRecord
  2
CENTER2
 70
     0
  3
___ _ ___ _ ___ _ ___ _ ___ _ ___ _ ___ _ ___ _
 72
    65
 73
     4
 40
1.125
 49
0.75
 74
     0
 49
-0.125
 74
     0
 49
0.125
 74
     0
 49
-0.125
 74
     0
  0
LTYPE
  5
2A
330
4
100
AcDbSymbolTableRecord
100
AcDbLinetypeTableRecord
  2
PHANTOM2
 70
     0
  3
___ _ _ ___ _ _ ___ _ _ ___ _ _ ___ _ _ ___ _ _
 72
    65
 73
     6
 40
1.25
 49
0.625
 74
     0
 49
-0.125
 74
     0
 49
0.125
 74
     0
 49
-0.125
 74
     0
 49
0.125
 74
     0
 49
-0.125
 74
     0
  0
LTYPE
  5
2B
330
4
100
AcDbSymbolTableRecord
100
AcDbLinetypeTableRecord
  2
DOT2
 70
     0
  3
...............................................
 72
    65
 73
     2
 40
0.125
 49
0.0
 74
     0
 49
-0.125
 74
     0
  0
LTYPE
  5
391
330
4
100
AcDbSymbolTableRecord
100
AcDbLinetypeTableRecord
  2
ASSI
 70
     0
  3
-.-.-.-.-.-.-.-.-.-.-.-.-.-.-.-.-.-.-.-.-.-.-.-
 72
    65
 73
     4
 40
16.0
 49
10.0
 74
     0
 49
-2.0
 74
     0
 49
2.0
 74
     0
 49
-2.0
 74
     0
  0
LTYPE
  5
392
330
4
100
AcDbSymbolTableRecord
100
AcDbLinetypeTableRecord
  2
INGOMBRI
 70
     0
  3
--..--..--..--..--..--..--..--..--..--..--..--
 72
    65
 73
     6
 40
20.0
 49
10.0
 74
     0
 49
-2.0
 74
     0
 49
2.0
 74
     0
 49
-2.0
 74
     0
 49
2.0
 74
     0
 49
-2.0
 74
     0
  0
LTYPE
  5
393
330
4
100
AcDbSymbolTableRecord
100
AcDbLinetypeTableRecord
  2
TRATTEGGIO
 70
     0
  3
- - - - - - - - - - - - - - - - - - - - - -
 72
    65
 73
     2
 40
5.5
 49
4.0
 74
     0
 49
-1.5
 74
     0
  0
LTYPE
  5
394
330
4
100
AcDbSymbolTableRecord
100
AcDbLinetypeTableRecord
  2
PUNTO
 70
     0
  3
Punto . . . . . . . . . . . . . . . . . . . . .
 72
    65
 73
     2
 40
6.349999999999999
 49
0.0
 74
     0
 49
-6.349999999999999
 74
     0
  0
ENDTAB
  0
TABLE
  2
LAYER
  5
2
330
0
100
AcDbSymbolTable
 70
    16
  0
LAYER
  5
14
102
{ACAD_XDICTIONARY
360
3B0
102
}
330
2
100
AcDbSymbolTableRecord
100
AcDbLayerTableRecord
  2
0
 70
     0
 62
     7
  6
CONTINUOUS
370
    -3
390
1D
  0
LAYER
  5
2D
102
{ACAD_XDICTIONARY
360
3B2
102
}
330
2
100
AcDbSymbolTableRecord
100
AcDbLayerTableRecord
  2
1
 70
     0
 62
     7
  6
CONTINUOUS
370
    -3
390
1D
  0
LAYER
  5
2F
102
{ACAD_XDICTIONARY
360
3B4
102
}
330
2
100
AcDbSymbolTableRecord
100
AcDbLayerTableRecord
  2
11
 70
     0
 62
     7
  6
CONTINUOUS
370
    -3
390
1D
  0
LAYER
  5
31
102
{ACAD_XDICTIONARY
360
3B6
102
}
330
2
100
AcDbSymbolTableRecord
100
AcDbLayerTableRecord
  2
14
 70
     0
 62
     7
  6
CONTINUOUS
370
    -3
390
1D
  0
LAYER
  5
33
102
{ACAD_XDICTIONARY
360
3B8
102
}
330
2
100
AcDbSymbolTableRecord
100
AcDbLayerTableRecord
  2
2
 70
     0
 62
     7
  6
CONTINUOUS
370
    -3
390
1D
  0
LAYER
  5
35
102
{ACAD_XDICTIONARY
360
3BA
102
}
330
2
100
AcDbSymbolTableRecord
100
AcDbLayerTableRecord
  2
7
 70
     0
 62
     7
  6
CONTINUOUS
370
    -3
390
1D
  0
LAYER
  5
37
102
{ACAD_XDICTIONARY
360
3BC
102
}
330
2
100
AcDbSymbolTableRecord
100
AcDbLayerTableRecord
  2
AM_0
 70
     0
 62
     7
  6
CONTINUOUS
370
    -3
390
1D
  0
LAYER
  5
39
102
{ACAD_XDICTIONARY
360
3BE
102
}
330
2
100
AcDbSymbolTableRecord
100
AcDbLayerTableRecord
  2
AM_1
 70
     0
 62
     7
  6
CONTINUOUS
370
    -3
390
1D
  0
LAYER
  5
3B
102
{ACAD_XDICTIONARY
360
3C0
102
}
330
2
100
AcDbSymbolTableRecord
100
AcDbLayerTableRecord
  2
ASSE
 70
     0
 62
     7
  6
CONTINUOUS
370
    -3
390
1D
  0
LAYER
  5
3D
102
{ACAD_XDICTIONARY
360
3C2
102
}
330
2
100
AcDbSymbolTableRecord
100
AcDbLayerTableRecord
  2
CONTORNO
 70
     0
 62
     7
  6
CONTINUOUS
370
    -3
390
1D
  0
LAYER
  5
3F
102
{ACAD_XDICTIONARY
360
3C4
102
}
330
2
100
AcDbSymbolTableRecord
100
AcDbLayerTableRecord
  2
DEFAULT
 70
     0
 62
     7
  6
CONTINUOUS
370
    -3
390
1D
  0
LAYER
  5
41
102
{ACAD_XDICTIONARY
360
3C6
102
}
330
2
100
AcDbSymbolTableRecord
100
AcDbLayerTableRecord
  2
PREDEFINITO
 70
     0
 62
     7
  6
CONTINUOUS
370
    -3
390
1D
  0
LAYER
  5
43
102
{ACAD_XDICTIONARY
360
3C8
102
}
330
2
100
AcDbSymbolTableRecord
100
AcDbLayerTableRecord
  2
PROFILATI-IN-ALLUMINIO
 70
     0
 62
     7
  6
CONTINUOUS
370
    -3
390
1D
  0
LAYER
  5
45
102
{ACAD_XDICTIONARY
360
3CA
102
}
330
2
100
AcDbSymbolTableRecord
100
AcDbLayerTableRecord
  2
TESTI
 70
     0
 62
     7
  6
CONTINUOUS
370
    -3
390
1D
  0
LAYER
  5
295
330
2
100
AcDbSymbolTableRecord
100
AcDbLayerTableRecord
  2
Defpoints
 70
     0
 62
     7
  6
CONTINUOUS
290
     0
370
    -3
390
1D
  0
LAYER
  5
389
102
{ACAD_XDICTIONARY
360
3CC
102
}
330
2
100
AcDbSymbolTableRecord
100
AcDbLayerTableRecord
  2
P-0000
 70
     0
 62
     7
  6
CONTINUOUS
370
    -3
390
1D
1001
AcAecLayerStandard
1000

1000
TOP
  0
ENDTAB
  0
TABLE
  2
STYLE
  5
3
330
0
100
AcDbSymbolTable
 70
    10
  0
STYLE
  5
17
330
3
100
AcDbSymbolTableRecord
100
AcDbTextStyleTableRecord
  2
Standard
 70
     0
 40
0.0
 41
1.0
 50
0.0
 71
     0
 42
0.2
  3
txt
  4

  0
STYLE
  5
58
330
3
100
AcDbSymbolTableRecord
100
AcDbTextStyleTableRecord
  2
seansi_ttf
 70
     0
 40
0.0
 41
1.0
 50
0.0
 71
     0
 42
0.2
  3
STENCIL.TTF
  4

1001
ACAD
1000
Stencil
1071
        2
  0
STYLE
  5
5A
330
3
100
AcDbSymbolTableRecord
100
AcDbTextStyleTableRecord
  2
arial_ttf
 70
     0
 40
0.0
 41
1.0
 50
0.0
 71
     0
 42
0.2
  3
arial.ttf
  4

1001
ACAD
1000
Arial
1071
        2
  0
STYLE
  5
68
330
3
100
AcDbSymbolTableRecord
100
AcDbTextStyleTableRecord
  2
seiso_ttfB
 70
     0
 40
0.0
 41
1.0
 50
0.0
 71
     0
 42
0.2
  3

  4

1001
ACAD
1000
Solid Edge ISO
1071
 33554434
  0
STYLE
  5
13B
330
3
100
AcDbSymbolTableRecord
100
AcDbTextStyleTableRecord
  2
seiso_ttf
 70
     0
 40
0.0
 41
1.0
 50
0.0
 71
     0
 42
0.2
  3

  4

1001
ACAD
1000
Solid Edge ISO
1071
        2
  0
STYLE
  5
181
330
3
100
AcDbSymbolTableRecord
100
AcDbTextStyleTableRecord
  2
semeci1_ttf
 70
     0
 40
0.0
 41
1.0
 50
0.0
 71
     0
 42
0.2
  3

  4

1001
ACAD
1000
Solid Edge ISO1 Symbols
1071
        2
  0
STYLE
  5
395
330
3
100
AcDbSymbolTableRecord
100
AcDbTextStyleTableRecord
  2
ROMANS
 70
     0
 40
0.0
 41
0.8
 50
0.0
 71
     0
 42
3.0
  3
ROMANS.shx
  4

  0
STYLE
  5
396
330
3
100
AcDbSymbolTableRecord
100
AcDbTextStyleTableRecord
  2

 70
     1
 40
0.0
 41
1.0
 50
0.0
 71
     0
 42
0.2
  3
ltypeshp.shx
  4

  0
STYLE
  5
397
330
3
100
AcDbSymbolTableRecord
100
AcDbTextStyleTableRecord
  2
Stile_Quota
 70
     0
 40
0.0
 41
1.0
 50
0.0
 71
     0
 42
3.0
  3
BOD_I.TTF
  4

1001
ACAD
1000
Bodoni MT
1071
 16777234
  0
STYLE
  5
398
330
3
100
AcDbSymbolTableRecord
100
AcDbTextStyleTableRecord
  2
Stile_Quota_FISSO
 70
     0
 40
20.0
 41
1.0
 50
0.0
 71
     0
 42
3.0
  3
BOD_I.TTF
  4

1001
ACAD
1000
Bodoni MT
1071
 16777234
  0
ENDTAB
  0
TABLE
  2
VIEW
  5
5
330
0
100
AcDbSymbolTable
 70
     0
  0
ENDTAB
  0
TABLE
  2
UCS
  5
6
330
0
100
AcDbSymbolTable
 70
     0
  0
ENDTAB
  0
TABLE
  2
APPID
  5
8
330
0
100
AcDbSymbolTable
 70
    11
  0
APPID
  5
16
330
8
100
AcDbSymbolTableRecord
100
AcDbRegAppTableRecord
  2
ACAD
 70
     0
  0
APPID
  5
38A
330
8
100
AcDbSymbolTableRecord
100
AcDbRegAppTableRecord
  2
AcAecLayerStandard
 70
     0
  0
APPID
  5
390
330
8
100
AcDbSymbolTableRecord
100
AcDbRegAppTableRecord
  2
TOP
 70
     0
  0
APPID
  5
39C
330
8
100
AcDbSymbolTableRecord
100
AcDbRegAppTableRecord
  2
ACAD_MLEADERVER
 70
     0
  0
APPID
  5
39D
330
8
100
AcDbSymbolTableRecord
100
AcDbRegAppTableRecord
  2
ACAD_DSTYLE_DIMJAG
 70
     0
  0
APPID
  5
39E
330
8
100
AcDbSymbolTableRecord
100
AcDbRegAppTableRecord
  2
ACAD_DSTYLE_DIMTALN
 70
     0
  0
APPID
  5
39F
330
8
100
AcDbSymbolTableRecord
100
AcDbRegAppTableRecord
  2
AcadAnnoPO
 70
     0
  0
APPID
  5
3A0
330
8
100
AcDbSymbolTableRecord
100
AcDbRegAppTableRecord
  2
ACAD_EXEMPT_FROM_CAD_STANDARDS
 70
     0
  0
APPID
  5
3A1
330
8
100
AcDbSymbolTableRecord
100
AcDbRegAppTableRecord
  2
ACAD_PSEXT
 70
     0
  0
APPID
  5
3A2
330
8
100
AcDbSymbolTableRecord
100
AcDbRegAppTableRecord
  2
ACAD_DSTYLE_DIMBREAK
 70
     0
  0
APPID
  5
3D3
330
8
100
AcDbSymbolTableRecord
100
AcDbRegAppTableRecord
  2
DCO15
 70
     0
  0
ENDTAB
  0
TABLE
  2
DIMSTYLE
  5
9
330
0
100
AcDbSymbolTable
 70
     5
100
AcDbDimStyleTable
 71
     0
  0
DIMSTYLE
105
18
330
9
100
AcDbSymbolTableRecord
100
AcDbDimStyleTableRecord
  2
Standard
 70
     0
289
     0
340
17
  0
DIMSTYLE
105
13C
330
9
100
AcDbSymbolTableRecord
100
AcDbDimStyleTableRecord
  2
ISO
 70
     0
 41
3.0
 42
0.0
 44
1.5
 73
     0
 74
     0
 77
     1
 78
     8
140
3.0
141
1.5
147
1.5
172
     1
173
     1
176
   136
177
   136
178
   136
271
     2
272
     2
278
    44
284
     8
340
13B
343
13A
344
13A
  0
DIMSTYLE
105
399
330
9
100
AcDbSymbolTableRecord
100
AcDbDimStyleTableRecord
  2
ACADTOP
 70
     0
 41
2.0
 42
1.0
 43
10.0
 44
1.5
 73
     0
 74
     0
 77
     1
 78
     8
 79
     2
140
2.0
141
2.0
146
0.6
147
1.0
172
     1
176
     2
177
     2
178
     1
179
     1
271
     2
272
     2
284
     8
289
     0
340
397
1001
ACAD_DSTYLE_DIMJAG
1070
   388
1040
1.5
1001
ACAD_DSTYLE_DIMTALN
1070
   392
1070
     0
  0
DIMSTYLE
105
39A
330
9
100
AcDbSymbolTableRecord
100
AcDbDimStyleTableRecord
  2
DIERRE_LUNG-ALT
 70
     0
 41
3.0
 42
1.0
 43
10.0
 44
1.5
 73
     0
 74
     0
 75
     1
 76
     1
 78
     8
 79
     2
140
20.0
141
2.0
146
0.6
147
1.0
172
     1
176
     3
177
     3
178
    30
179
     1
271
     1
272
     1
281
     1
282
     1
284
     8
340
398
1001
ACAD_DSTYLE_DIMBREAK
1070
   391
1040
3.75
1001
ACAD_DSTYLE_DIMJAG
1070
   388
1040
1.5
1001
ACAD_DSTYLE_DIMTALN
1070
   392
1070
     0
  0
DIMSTYLE
105
39B
330
9
100
AcDbSymbolTableRecord
100
AcDbDimStyleTableRecord
  2
DIERRE_LARG
 70
     0
 41
3.0
 42
1.0
 43
10.0
 44
1.5
 73
     0
 74
     0
 75
     1
 76
     1
 78
     8
 79
     2
140
20.0
141
2.0
146
0.6
147
1.0
172
     1
176
     4
177
     4
178
     4
179
     1
271
     1
272
     1
281
     1
282
     1
284
     8
340
398
1001
ACAD_DSTYLE_DIMBREAK
1070
   391
1040
3.75
1001
ACAD_DSTYLE_DIMJAG
1070
   388
1040
1.5
1001
ACAD_DSTYLE_DIMTALN
1070
   392
1070
     0
  0
ENDTAB
  0
TABLE
  2
BLOCK_RECORD
  5
1
330
0
100
AcDbSymbolTable
 70
    29
  0
BLOCK_RECORD
  5
A
330
1
100
AcDbSymbolTableRecord
100
AcDbBlockTableRecord
  2
*MODEL_SPACE
340
20
  0
BLOCK_RECORD
  5
B
330
1
100
AcDbSymbolTableRecord
100
AcDbBlockTableRecord
  2
*PAPER_SPACE
340
21
  0
BLOCK_RECORD
  5
13A
330
1
100
AcDbSymbolTableRecord
100
AcDbBlockTableRecord
  2
_SE_FILLED
340
0
102
{BLKREFS
331
30F
331
310
331
318
331
319
331
321
331
322
331
32A
331
32B
331
333
331
334
331
33C
331
33D
331
345
331
346
331
34E
331
34F
331
357
331
358
331
360
331
361
331
36B
331
36C
331
374
331
375
331
37E
331
37F
102
}
  0
BLOCK_RECORD
  5
13D
330
1
100
AcDbSymbolTableRecord
100
AcDbBlockTableRecord
  2
SE0
340
0
102
{BLKREFS
331
191
102
}
  0
BLOCK_RECORD
  5
140
330
1
100
AcDbSymbolTableRecord
100
AcDbBlockTableRecord
  2
DMBLK1437
340
0
  0
BLOCK_RECORD
  5
142
330
1
100
AcDbSymbolTableRecord
100
AcDbBlockTableRecord
  2
SE1
340
0
  0
BLOCK_RECORD
  5
145
330
1
100
AcDbSymbolTableRecord
100
AcDbBlockTableRecord
  2
DMBLK1438
340
0
  0
BLOCK_RECORD
  5
147
330
1
100
AcDbSymbolTableRecord
100
AcDbBlockTableRecord
  2
SE2
340
0
  0
BLOCK_RECORD
  5
14A
330
1
100
AcDbSymbolTableRecord
100
AcDbBlockTableRecord
  2
DMBLK1439
340
0
  0
BLOCK_RECORD
  5
14C
330
1
100
AcDbSymbolTableRecord
100
AcDbBlockTableRecord
  2
SE3
340
0
  0
BLOCK_RECORD
  5
14F
330
1
100
AcDbSymbolTableRecord
100
AcDbBlockTableRecord
  2
DMBLK1440
340
0
  0
BLOCK_RECORD
  5
151
330
1
100
AcDbSymbolTableRecord
100
AcDbBlockTableRecord
  2
SE4
340
0
  0
BLOCK_RECORD
  5
154
330
1
100
AcDbSymbolTableRecord
100
AcDbBlockTableRecord
  2
DMBLK1441
340
0
  0
BLOCK_RECORD
  5
156
330
1
100
AcDbSymbolTableRecord
100
AcDbBlockTableRecord
  2
SE5
340
0
  0
BLOCK_RECORD
  5
159
330
1
100
AcDbSymbolTableRecord
100
AcDbBlockTableRecord
  2
DMBLK1442
340
0
  0
BLOCK_RECORD
  5
15B
330
1
100
AcDbSymbolTableRecord
100
AcDbBlockTableRecord
  2
SE6
340
0
  0
BLOCK_RECORD
  5
15E
330
1
100
AcDbSymbolTableRecord
100
AcDbBlockTableRecord
  2
DMBLK1443
340
0
  0
BLOCK_RECORD
  5
160
330
1
100
AcDbSymbolTableRecord
100
AcDbBlockTableRecord
  2
SE7
340
0
  0
BLOCK_RECORD
  5
163
330
1
100
AcDbSymbolTableRecord
100
AcDbBlockTableRecord
  2
DMBLK1444
340
0
  0
BLOCK_RECORD
  5
165
330
1
100
AcDbSymbolTableRecord
100
AcDbBlockTableRecord
  2
SE8
340
0
  0
BLOCK_RECORD
  5
168
330
1
100
AcDbSymbolTableRecord
100
AcDbBlockTableRecord
  2
DMBLK1445
340
0
  0
BLOCK_RECORD
  5
16A
330
1
100
AcDbSymbolTableRecord
100
AcDbBlockTableRecord
  2
SE9
340
0
  0
BLOCK_RECORD
  5
16D
330
1
100
AcDbSymbolTableRecord
100
AcDbBlockTableRecord
  2
DMBLK1446
340
0
  0
BLOCK_RECORD
  5
16F
330
1
100
AcDbSymbolTableRecord
100
AcDbBlockTableRecord
  2
SE10
340
0
  0
BLOCK_RECORD
  5
172
330
1
100
AcDbSymbolTableRecord
100
AcDbBlockTableRecord
  2
DMBLK1447
340
0
  0
BLOCK_RECORD
  5
174
330
1
100
AcDbSymbolTableRecord
100
AcDbBlockTableRecord
  2
SE11
340
0
  0
BLOCK_RECORD
  5
177
330
1
100
AcDbSymbolTableRecord
100
AcDbBlockTableRecord
  2
DMBLK1448
340
0
  0
BLOCK_RECORD
  5
179
330
1
100
AcDbSymbolTableRecord
100
AcDbBlockTableRecord
  2
SE12
340
0
  0
BLOCK_RECORD
  5
17C
330
1
100
AcDbSymbolTableRecord
100
AcDbBlockTableRecord
  2
DMBLK1449
340
0
  0
BLOCK_RECORD
  5
17E
330
1
100
AcDbSymbolTableRecord
100
AcDbBlockTableRecord
  2
SE13
340
0
  0
BLOCK_RECORD
  5
182
330
1
100
AcDbSymbolTableRecord
100
AcDbBlockTableRecord
  2
DMBLK1450
340
0
  0
ENDTAB
  0
ENDSEC
  0
SECTION
  2
BLOCKS
  0
BLOCK
  5
D
330
A
100
AcDbEntity
  8
0
100
AcDbBlockBegin
  2
*MODEL_SPACE
 70
     0
 10
0.0
 20
0.0
 30
0.0
  3
*MODEL_SPACE
  1

  0
ENDBLK
  5
E
330
A
100
AcDbEntity
  8
0
100
AcDbBlockEnd
  0
BLOCK
  5
F
330
B
100
AcDbEntity
 67
     1
  8
0
100
AcDbBlockBegin
  2
*PAPER_SPACE
 70
     0
 10
0.0
 20
0.0
 30
0.0
  3
*PAPER_SPACE
  1

  0
ENDBLK
  5
10
330
B
100
AcDbEntity
 67
     1
  8
0
100
AcDbBlockEnd
  0
BLOCK
  5
184
330
13A
100
AcDbEntity
  8
DEFAULT
  6
Continuous
 62
   136
370
     0
100
AcDbBlockBegin
  2
_SE_FILLED
 70
     0
 10
0.0
 20
0.0
 30
0.0
  3
_SE_FILLED
  1

  0
SOLID
  5
185
330
13A
100
AcDbEntity
  8
DEFAULT
  6
Continuous
 62
   136
370
     0
100
AcDbTrace
 10
0.0
 20
0.0
 30
0.0
 11
-1.0
 21
-0.1665
 31
0.0
 12
-1.0
 22
0.1665
 32
0.0
 13
0.0
 23
0.0
 33
0.0
  0
LINE
  5
186
330
13A
100
AcDbEntity
  8
DEFAULT
  6
Continuous
 62
   136
370
     0
100
AcDbLine
 10
0.0
 20
0.0
 30
0.0
 11
-1.0
 21
0.0
 31
0.0
  0
ENDBLK
  5
187
330
13A
100
AcDbEntity
  8
DEFAULT
  6
Continuous
 62
   136
370
     0
100
AcDbBlockEnd
  0
BLOCK
  5
188
330
13D
100
AcDbEntity
  8
DEFAULT
 62
     1
 48
0.0
370
     0
100
AcDbBlockBegin
  2
SE0
 70
     0
 10
0.0
 20
0.0
 30
0.0
  3
SE0
  1

  0
HATCH
  5
189
330
13D
100
AcDbEntity
  8
DEFAULT
  6
Continuous
 62
   136
100
AcDbHatch
 10
0.0
 20
0.0
 30
0.0
210
0.0
220
0.0
230
1.0
  2
SOLID
 70
     1
 71
     0
 91
        1
 92
        1
 93
        3
 72
     1
 10
15.1872839115346
 20
14.62236808264608
 11
15.68728391588077
 21
11.62236805656905
 72
     1
 10
15.68728391588077
 20
11.62236805656905
 11
16.18728392022695
 21
14.62236808264608
 72
     1
 10
16.18728392022695
 20
14.62236808264608
 11
15.1872839115346
 21
14.62236808264608
 97
        0
 75
     0
 76
     1
 98
        1
 10
0.0
 20
0.0
  0
HATCH
  5
18A
330
13D
100
AcDbEntity
  8
DEFAULT
  6
Continuous
 62
   136
100
AcDbHatch
 10
0.0
 20
0.0
 30
0.0
210
0.0
220
0.0
230
1.0
  2
SOLID
 70
     1
 71
     0
 91
        1
 92
        1
 93
        3
 72
     1
 10
15.1872839115346
 20
143.622098030492
 11
15.68728391588077
 21
146.6220980565691
 72
     1
 10
15.68728391588077
 20
146.6220980565691
 11
16.18728392022695
 21
143.622098030492
 72
     1
 10
16.18728392022695
 20
143.622098030492
 11
15.1872839115346
 21
143.622098030492
 97
        0
 75
     0
 76
     1
 98
        1
 10
0.0
 20
0.0
  0
LINE
  5
18B
330
13D
100
AcDbEntity
  8
DEFAULT
  6
Continuous
 62
   136
370
     0
100
AcDbLine
 10
58.74721412122593
 20
11.62236805656905
 30
0.0
 11
14.18728390284226
 21
11.62236805656905
 31
0.0
  0
LINE
  5
18C
330
13D
100
AcDbEntity
  8
DEFAULT
  6
Continuous
 62
   136
370
     0
100
AcDbLine
 10
58.74721412122593
 20
146.6220980565691
 30
0.0
 11
14.18728390284226
 21
146.6220980565691
 31
0.0
  0
LINE
  5
18D
330
13D
100
AcDbEntity
  8
DEFAULT
  6
Continuous
 62
   136
370
     0
100
AcDbLine
 10
15.68728391588077
 20
11.62236805656905
 30
0.0
 11
15.68728391588077
 21
146.6221052000856
 31
0.0
  0
TEXT
  5
18E
330
13D
100
AcDbEntity
  8
DEFAULT
  6
Continuous
 62
   136
370
     0
100
AcDbText
 10
14.93728391588078
 20
76.87223662832732
 30
0.0
 40
3.0
  1
135
 50
90.0
  7
seiso_ttf
 11
11.93728391588078
 21
76.87223662832732
 31
0.0
100
AcDbText
 73
     3
  0
ENDBLK
  5
270
330
13D
100
AcDbEntity
  8
0
370
     0
100
AcDbBlockEnd
  0
BLOCK
  5
271
330
140
100
AcDbEntity
  8
0
370
     0
100
AcDbBlockBegin
  2
DMBLK1437
 70
     0
 10
0.0
 20
0.0
 30
0.0
  3
DMBLK1437
  1

  0
INSERT
  5
191
330
140
100
AcDbEntity
  8
DEFAULT
 62
     0
 48
0.0
370
     0
100
AcDbBlockReference
  2
SE0
 10
0.0
 20
0.0
 30
0.0
  0
ENDBLK
  5
192
330
140
100
AcDbEntity
  8
DEFAULT
 62
     0
 48
0.0
370
     0
100
AcDbBlockEnd
  0
BLOCK
  5
193
330
142
100
AcDbEntity
  8
DEFAULT
 62
     1
 48
0.0
370
     0
100
AcDbBlockBegin
  2
SE1
 70
     0
 10
0.0
 20
0.0
 30
0.0
  3
SE1
  1

  0
HATCH
  5
194
330
142
100
AcDbEntity
  8
DEFAULT
  6
Continuous
 62
   136
100
AcDbHatch
 10
0.0
 20
0.0
 30
0.0
210
0.0
220
0.0
230
1.0
  2
SOLID
 70
     1
 71
     0
 91
        1
 92
        1
 93
        3
 72
     1
 10
39.24725914730295
 20
160.4284524927065
 11
36.24725912122592
 21
159.9284524883604
 72
     1
 10
36.24725912122592
 20
159.9284524883604
 11
39.24725914730295
 21
159.4284524840142
 72
     1
 10
39.24725914730295
 20
159.4284524840142
 11
39.24725914730295
 21
160.4284524927065
 97
        0
 75
     0
 76
     1
 98
        1
 10
0.0
 20
0.0
  0
HATCH
  5
195
330
142
100
AcDbEntity
  8
DEFAULT
  6
Continuous
 62
   136
100
AcDbHatch
 10
0.0
 20
0.0
 30
0.0
210
0.0
220
0.0
230
1.0
  2
SOLID
 70
     1
 71
     0
 91
        1
 92
        1
 93
        3
 72
     1
 10
168.2469890951489
 20
160.4284524927065
 11
171.2469891212259
 21
159.9284524883604
 72
     1
 10
171.2469891212259
 20
159.9284524883604
 11
168.2469890951489
 21
159.4284524840142
 72
     1
 10
168.2469890951489
 20
159.4284524840142
 11
168.2469890951489
 21
160.4284524927065
 97
        0
 75
     0
 76
     1
 98
        1
 10
0.0
 20
0.0
  0
LINE
  5
196
330
142
100
AcDbEntity
  8
DEFAULT
  6
Continuous
 62
   136
370
     0
100
AcDbLine
 10
36.24725912122592
 20
124.1221430565691
 30
0.0
 11
36.24725912122592
 21
161.4284525013989
 31
0.0
  0
LINE
  5
197
330
142
100
AcDbEntity
  8
DEFAULT
  6
Continuous
 62
   136
370
     0
100
AcDbLine
 10
171.2469891212259
 20
124.122143056569
 30
0.0
 11
171.2469891212259
 21
161.4284525013989
 31
0.0
  0
LINE
  5
198
330
142
100
AcDbEntity
  8
DEFAULT
  6
Continuous
 62
   136
370
     0
100
AcDbLine
 10
36.24725912122592
 20
159.9284524883604
 30
0.0
 11
171.2469962647424
 21
159.9284524883604
 31
0.0
  0
TEXT
  5
199
330
142
100
AcDbEntity
  8
DEFAULT
  6
Continuous
 62
   136
370
     0
100
AcDbText
 10
101.4971276929842
 20
160.6784524883604
 30
0.0
 40
3.0
  1
135
  7
seiso_ttf
 11
101.4971276929842
 21
163.6784524883604
 31
0.0
100
AcDbText
 73
     3
  0
ENDBLK
  5
272
330
142
100
AcDbEntity
  8
0
370
     0
100
AcDbBlockEnd
  0
BLOCK
  5
273
330
145
100
AcDbEntity
  8
0
370
     0
100
AcDbBlockBegin
  2
DMBLK1438
 70
     0
 10
0.0
 20
0.0
 30
0.0
  3
DMBLK1438
  1

  0
LINE
  5
30C
330
145
100
AcDbEntity
  8
DEFAULT
  6
Continuous
 62
   136
370
    -2
100
AcDbLine
 10
36.24725912122592
 20
124.1221430565691
 30
0.0
 11
36.24725912122592
 21
161.4284524883604
 31
0.0
  0
LINE
  5
30D
330
145
100
AcDbEntity
  8
DEFAULT
  6
Continuous
 62
   136
370
    -2
100
AcDbLine
 10
171.2469891212259
 20
124.122143056569
 30
0.0
 11
171.2469891212259
 21
161.4284524883604
 31
0.0
  0
LINE
  5
30E
330
145
100
AcDbEntity
  8
DEFAULT
  6
Continuous
 62
   136
370
    -2
100
AcDbLine
 10
39.24725912122593
 20
159.9284524883604
 30
0.0
 11
168.2469891212259
 21
159.9284524883604
 31
0.0
  0
INSERT
  5
30F
330
145
100
AcDbEntity
  8
DEFAULT
  6
Continuous
 62
   136
370
    -2
100
AcDbBlockReference
  2
_SE_FILLED
 10
36.24725912122592
 20
159.9284524883604
 30
0.0
 41
3.0
 42
3.0
 43
3.0
 50
180.0
  0
INSERT
  5
310
330
145
100
AcDbEntity
  8
DEFAULT
  6
Continuous
 62
   136
370
    -2
100
AcDbBlockReference
  2
_SE_FILLED
 10
171.2469891212259
 20
159.9284524883604
 30
0.0
 41
3.0
 42
3.0
 43
3.0
  0
MTEXT
  5
311
330
145
100
AcDbEntity
  8
DEFAULT
  6
Continuous
 62
   136
370
     0
100
AcDbMText
 10
103.7471276929842
 20
162.9284524883604
 30
0.0
 40
3.0
 41
0.0
 71
     5
 72
     1
  1
\A1;\A1;135
  7
seiso_ttf
 73
     1
 44
1.0
1001
ACAD
1000
MTEXTBEGIN
1070
    73
1070
     1
1070
    44
1040
1.0
1070
    74
1070
     0
1000
MTEXTEND
  0
POINT
  5
312
330
145
100
AcDbEntity
  8
Defpoints
  6
Continuous
 62
     0
370
     0
100
AcDbPoint
 10
36.24725912122592
 20
124.1221430565691
 30
0.0
  0
POINT
  5
313
330
145
100
AcDbEntity
  8
Defpoints
  6
Continuous
 62
     0
370
     0
100
AcDbPoint
 10
171.2469891212259
 20
124.122143056569
 30
0.0
  0
POINT
  5
314
330
145
100
AcDbEntity
  8
Defpoints
  6
Continuous
 62
     0
370
     0
100
AcDbPoint
 10
171.2469891212259
 20
159.9284524883604
 30
0.0
  0
ENDBLK
  5
19D
330
145
100
AcDbEntity
  8
DEFAULT
 62
     0
 48
0.0
370
     0
100
AcDbBlockEnd
  0
BLOCK
  5
19E
330
147
100
AcDbEntity
  8
DEFAULT
 62
     1
 48
0.0
370
     0
100
AcDbBlockBegin
  2
SE2
 70
     0
 10
0.0
 20
0.0
 30
0.0
  3
SE2
  1

  0
HATCH
  5
19F
330
147
100
AcDbEntity
  8
DEFAULT
  6
Continuous
 62
   136
100
AcDbHatch
 10
0.0
 20
0.0
 30
0.0
210
0.0
220
0.0
230
1.0
  2
SOLID
 70
     1
 71
     0
 91
        1
 92
        1
 93
        3
 72
     1
 10
22.36269966585284
 20
14.62236808264608
 11
22.86269967019901
 21
11.62236805656905
 72
     1
 10
22.86269967019901
 20
11.62236805656905
 11
23.36269967454519
 21
14.62236808264608
 72
     1
 10
23.36269967454519
 20
14.62236808264608
 11
22.36269966585284
 21
14.62236808264608
 97
        0
 75
     0
 76
     1
 98
        1
 10
0.0
 20
0.0
  0
HATCH
  5
1A0
330
147
100
AcDbEntity
  8
DEFAULT
  6
Continuous
 62
   136
100
AcDbHatch
 10
0.0
 20
0.0
 30
0.0
210
0.0
220
0.0
230
1.0
  2
SOLID
 70
     1
 71
     0
 91
        1
 92
        1
 93
        3
 72
     1
 10
22.36269966585284
 20
31.12232303049204
 11
22.86269967019901
 21
34.12232305656907
 72
     1
 10
22.86269967019901
 20
34.12232305656907
 11
23.36269967454519
 21
31.12232303049204
 72
     1
 10
23.36269967454519
 20
31.12232303049204
 11
22.36269966585284
 21
31.12232303049204
 97
        0
 75
     0
 76
     1
 98
        1
 10
0.0
 20
0.0
  0
LINE
  5
1A1
330
147
100
AcDbEntity
  8
DEFAULT
  6
Continuous
 62
   136
370
     0
100
AcDbLine
 10
58.74721412122593
 20
11.62236805656905
 30
0.0
 11
21.3626996571605
 21
11.62236805656905
 31
0.0
  0
LINE
  5
1A2
330
147
100
AcDbEntity
  8
DEFAULT
  6
Continuous
 62
   136
370
     0
100
AcDbLine
 10
35.24726112122593
 20
34.12232305656907
 30
0.0
 11
21.3626996571605
 21
34.12232305656907
 31
0.0
  0
LINE
  5
1A3
330
147
100
AcDbEntity
  8
DEFAULT
  6
Continuous
 62
   136
370
     0
100
AcDbLine
 10
22.86269967019901
 20
11.62236805656905
 30
0.0
 11
22.86269967019901
 21
34.12232238450999
 31
0.0
  0
TEXT
  5
1A4
330
147
100
AcDbEntity
  8
DEFAULT
  6
Continuous
 62
   136
370
     0
100
AcDbText
 10
22.11269967019902
 20
19.90643612963043
 30
0.0
 40
3.0
  1
22,5
 50
90.0
  7
seiso_ttf
 11
19.11269967019901
 21
19.90643612963043
 31
0.0
100
AcDbText
 73
     3
  0
ENDBLK
  5
274
330
147
100
AcDbEntity
  8
0
370
     0
100
AcDbBlockEnd
  0
BLOCK
  5
275
330
14A
100
AcDbEntity
  8
0
370
     0
100
AcDbBlockBegin
  2
DMBLK1439
 70
     0
 10
0.0
 20
0.0
 30
0.0
  3
DMBLK1439
  1

  0
LINE
  5
315
330
14A
100
AcDbEntity
  8
DEFAULT
  6
Continuous
 62
   136
370
    -2
100
AcDbLine
 10
58.74721412122593
 20
11.62236805656905
 30
0.0
 11
21.36269967019902
 21
11.62236805656906
 31
0.0
  0
LINE
  5
316
330
14A
100
AcDbEntity
  8
DEFAULT
  6
Continuous
 62
   136
370
    -2
100
AcDbLine
 10
35.24726112122593
 20
34.12232305656907
 30
0.0
 11
21.36269967019902
 21
34.12232305656907
 31
0.0
  0
LINE
  5
317
330
14A
100
AcDbEntity
  8
DEFAULT
  6
Continuous
 62
   136
370
    -2
100
AcDbLine
 10
22.86269967019902
 20
14.62236805656906
 30
0.0
 11
22.86269967019902
 21
31.12232305656907
 31
0.0
  0
INSERT
  5
318
330
14A
100
AcDbEntity
  8
DEFAULT
  6
Continuous
 62
   136
370
    -2
100
AcDbBlockReference
  2
_SE_FILLED
 10
22.86269967019902
 20
11.62236805656906
 30
0.0
 41
3.0
 42
3.0
 43
3.0
 50
270.0
  0
INSERT
  5
319
330
14A
100
AcDbEntity
  8
DEFAULT
  6
Continuous
 62
   136
370
    -2
100
AcDbBlockReference
  2
_SE_FILLED
 10
22.86269967019902
 20
34.12232305656907
 30
0.0
 41
3.0
 42
3.0
 43
3.0
 50
90.0
  0
MTEXT
  5
31A
330
14A
100
AcDbEntity
  8
DEFAULT
  6
Continuous
 62
   136
370
     0
100
AcDbMText
 10
19.57698538448473
 20
22.87234522053952
 30
0.0
 40
3.0
 41
0.0
 71
     5
 72
     1
  1
\A1;\A1;22,5
  7
seiso_ttf
 11
0.0000000000000001
 21
1.0
 31
0.0
 73
     1
 44
1.0
1001
ACAD
1000
MTEXTBEGIN
1070
    73
1070
     1
1070
    44
1040
1.0
1070
    74
1070
     0
1000
MTEXTEND
  0
POINT
  5
31B
330
14A
100
AcDbEntity
  8
Defpoints
  6
Continuous
 62
     0
370
     0
100
AcDbPoint
 10
58.74721412122593
 20
11.62236805656905
 30
0.0
  0
POINT
  5
31C
330
14A
100
AcDbEntity
  8
Defpoints
  6
Continuous
 62
     0
370
     0
100
AcDbPoint
 10
35.24726112122593
 20
34.12232305656907
 30
0.0
  0
POINT
  5
31D
330
14A
100
AcDbEntity
  8
Defpoints
  6
Continuous
 62
     0
370
     0
100
AcDbPoint
 10
22.86269967019902
 20
34.12232305656907
 30
0.0
  0
ENDBLK
  5
1A8
330
14A
100
AcDbEntity
  8
DEFAULT
 62
     0
 48
0.0
370
     0
100
AcDbBlockEnd
  0
BLOCK
  5
1A9
330
14C
100
AcDbEntity
  8
DEFAULT
 62
     1
 48
0.0
370
     0
100
AcDbBlockBegin
  2
SE3
 70
     0
 10
0.0
 20
0.0
 30
0.0
  3
SE3
  1

  0
HATCH
  5
1AA
330
14C
100
AcDbEntity
  8
DEFAULT
  6
Continuous
 62
   136
100
AcDbHatch
 10
0.0
 20
0.0
 30
0.0
210
0.0
220
0.0
230
1.0
  2
SOLID
 70
     1
 71
     0
 91
        1
 92
        1
 93
        3
 72
     1
 10
22.36269929506141
 20
37.1223230826461
 11
22.86269929940758
 21
34.12232305656907
 72
     1
 10
22.86269929940758
 20
34.12232305656907
 11
23.36269930375376
 21
37.1223230826461
 72
     1
 10
23.36269930375376
 20
37.1223230826461
 11
22.36269929506141
 21
37.1223230826461
 97
        0
 75
     0
 76
     1
 98
        1
 10
0.0
 20
0.0
  0
HATCH
  5
1AB
330
14C
100
AcDbEntity
  8
DEFAULT
  6
Continuous
 62
   136
100
AcDbHatch
 10
0.0
 20
0.0
 30
0.0
210
0.0
220
0.0
230
1.0
  2
SOLID
 70
     1
 71
     0
 91
        1
 92
        1
 93
        3
 72
     1
 10
22.36269929506141
 20
121.122143030492
 11
22.86269929940758
 21
124.1221430565691
 72
     1
 10
22.86269929940758
 20
124.1221430565691
 11
23.36269930375376
 21
121.122143030492
 72
     1
 10
23.36269930375376
 20
121.122143030492
 11
22.36269929506141
 21
121.122143030492
 97
        0
 75
     0
 76
     1
 98
        1
 10
0.0
 20
0.0
  0
LINE
  5
1AC
330
14C
100
AcDbEntity
  8
DEFAULT
  6
Continuous
 62
   136
370
     0
100
AcDbLine
 10
35.24726112122593
 20
34.12232305656907
 30
0.0
 11
21.36269928636906
 21
34.12232305656907
 31
0.0
  0
LINE
  5
1AD
330
14C
100
AcDbEntity
  8
DEFAULT
  6
Continuous
 62
   136
370
     0
100
AcDbLine
 10
35.24726112122593
 20
124.1221430565691
 30
0.0
 11
21.36269928636906
 21
124.1221430565691
 31
0.0
  0
LINE
  5
1AE
330
14C
100
AcDbEntity
  8
DEFAULT
  6
Continuous
 62
   136
370
     0
100
AcDbLine
 10
22.86269929940758
 20
34.12232305656907
 30
0.0
 11
22.86269929940758
 21
124.1221403683328
 31
0.0
  0
TEXT
  5
1AF
330
14C
100
AcDbEntity
  8
DEFAULT
  6
Continuous
 62
   136
370
     0
100
AcDbText
 10
22.11269929940758
 20
77.31541353063275
 30
0.0
 40
3.0
  1
90
 50
90.0
  7
seiso_ttf
 11
19.11269929940758
 21
77.31541353063275
 31
0.0
100
AcDbText
 73
     3
  0
ENDBLK
  5
276
330
14C
100
AcDbEntity
  8
0
370
     0
100
AcDbBlockEnd
  0
BLOCK
  5
277
330
14F
100
AcDbEntity
  8
0
370
     0
100
AcDbBlockBegin
  2
DMBLK1440
 70
     0
 10
0.0
 20
0.0
 30
0.0
  3
DMBLK1440
  1

  0
LINE
  5
31E
330
14F
100
AcDbEntity
  8
DEFAULT
  6
Continuous
 62
   136
370
    -2
100
AcDbLine
 10
35.24726112122593
 20
34.12232305656907
 30
0.0
 11
21.36269929940759
 21
34.12232305656907
 31
0.0
  0
LINE
  5
31F
330
14F
100
AcDbEntity
  8
DEFAULT
  6
Continuous
 62
   136
370
    -2
100
AcDbLine
 10
35.24726112122593
 20
124.1221430565691
 30
0.0
 11
21.36269929940761
 21
124.1221430565691
 31
0.0
  0
LINE
  5
320
330
14F
100
AcDbEntity
  8
DEFAULT
  6
Continuous
 62
   136
370
    -2
100
AcDbLine
 10
22.86269929940758
 20
37.12232305656907
 30
0.0
 11
22.86269929940761
 21
121.1221430565691
 31
0.0
  0
INSERT
  5
321
330
14F
100
AcDbEntity
  8
DEFAULT
  6
Continuous
 62
   136
370
    -2
100
AcDbBlockReference
  2
_SE_FILLED
 10
22.86269929940758
 20
34.12232305656907
 30
0.0
 41
3.0
 42
3.0
 43
3.0
 50
270.0
  0
INSERT
  5
322
330
14F
100
AcDbEntity
  8
DEFAULT
  6
Continuous
 62
   136
370
    -2
100
AcDbBlockReference
  2
_SE_FILLED
 10
22.86269929940761
 20
124.1221430565691
 30
0.0
 41
3.0
 42
3.0
 43
3.0
 50
90.0
  0
MTEXT
  5
323
330
14F
100
AcDbEntity
  8
DEFAULT
  6
Continuous
 62
   136
370
     0
100
AcDbMText
 10
19.86269929940758
 20
79.12223171245094
 30
0.0
 40
3.0
 41
0.0
 71
     5
 72
     1
  1
\A1;\A1;90
  7
seiso_ttf
 11
0.0000000000000001
 21
1.0
 31
0.0
 73
     1
 44
1.0
1001
ACAD
1000
MTEXTBEGIN
1070
    73
1070
     1
1070
    44
1040
1.0
1070
    74
1070
     0
1000
MTEXTEND
  0
POINT
  5
324
330
14F
100
AcDbEntity
  8
Defpoints
  6
Continuous
 62
     0
370
     0
100
AcDbPoint
 10
35.24726112122593
 20
34.12232305656907
 30
0.0
  0
POINT
  5
325
330
14F
100
AcDbEntity
  8
Defpoints
  6
Continuous
 62
     0
370
     0
100
AcDbPoint
 10
35.24726112122593
 20
124.1221430565691
 30
0.0
  0
POINT
  5
326
330
14F
100
AcDbEntity
  8
Defpoints
  6
Continuous
 62
     0
370
     0
100
AcDbPoint
 10
22.86269929940761
 20
124.1221430565691
 30
0.0
  0
ENDBLK
  5
1B3
330
14F
100
AcDbEntity
  8
DEFAULT
 62
     0
 48
0.0
370
     0
100
AcDbBlockEnd
  0
BLOCK
  5
1B4
330
151
100
AcDbEntity
  8
DEFAULT
 62
     1
 48
0.0
370
     0
100
AcDbBlockBegin
  2
SE4
 70
     0
 10
0.0
 20
0.0
 30
0.0
  3
SE4
  1

  0
HATCH
  5
1B5
330
151
100
AcDbEntity
  8
DEFAULT
  6
Continuous
 62
   136
100
AcDbHatch
 10
0.0
 20
0.0
 30
0.0
210
0.0
220
0.0
230
1.0
  2
SOLID
 70
     1
 71
     0
 91
        1
 92
        1
 93
        3
 72
     1
 10
22.36269929506141
 20
127.1221430826461
 11
22.86269929940758
 21
124.1221430565691
 72
     1
 10
22.86269929940758
 20
124.1221430565691
 11
23.36269930375376
 21
127.1221430826461
 72
     1
 10
23.36269930375376
 20
127.1221430826461
 11
22.36269929506141
 21
127.1221430826461
 97
        0
 75
     0
 76
     1
 98
        1
 10
0.0
 20
0.0
  0
HATCH
  5
1B6
330
151
100
AcDbEntity
  8
DEFAULT
  6
Continuous
 62
   136
100
AcDbHatch
 10
0.0
 20
0.0
 30
0.0
210
0.0
220
0.0
230
1.0
  2
SOLID
 70
     1
 71
     0
 91
        1
 92
        1
 93
        3
 72
     1
 10
22.36269929506141
 20
143.622098030492
 11
22.86269929940758
 21
146.6220980565691
 72
     1
 10
22.86269929940758
 20
146.6220980565691
 11
23.36269930375376
 21
143.622098030492
 72
     1
 10
23.36269930375376
 20
143.622098030492
 11
22.36269929506141
 21
143.622098030492
 97
        0
 75
     0
 76
     1
 98
        1
 10
0.0
 20
0.0
  0
LINE
  5
1B7
330
151
100
AcDbEntity
  8
DEFAULT
  6
Continuous
 62
   136
370
     0
100
AcDbLine
 10
35.24726112122593
 20
124.1221430565691
 30
0.0
 11
21.36269928636906
 21
124.1221430565691
 31
0.0
  0
LINE
  5
1B8
330
151
100
AcDbEntity
  8
DEFAULT
  6
Continuous
 62
   136
370
     0
100
AcDbLine
 10
58.74721412122593
 20
146.6220980565691
 30
0.0
 11
21.36269928636906
 21
146.6220980565691
 31
0.0
  0
LINE
  5
1B9
330
151
100
AcDbEntity
  8
DEFAULT
  6
Continuous
 62
   136
370
     0
100
AcDbLine
 10
22.86269929940758
 20
124.1221430565691
 30
0.0
 11
22.86269929940758
 21
146.62209738451
 31
0.0
  0
TEXT
  5
1BA
330
151
100
AcDbEntity
  8
DEFAULT
  6
Continuous
 62
   136
370
     0
100
AcDbText
 10
22.11269929940758
 20
132.4062111296304
 30
0.0
 40
3.0
  1
22,5
 50
90.0
  7
seiso_ttf
 11
19.11269929940758
 21
132.4062111296304
 31
0.0
100
AcDbText
 73
     3
  0
ENDBLK
  5
278
330
151
100
AcDbEntity
  8
0
370
     0
100
AcDbBlockEnd
  0
BLOCK
  5
279
330
154
100
AcDbEntity
  8
0
370
     0
100
AcDbBlockBegin
  2
DMBLK1441
 70
     0
 10
0.0
 20
0.0
 30
0.0
  3
DMBLK1441
  1

  0
LINE
  5
327
330
154
100
AcDbEntity
  8
DEFAULT
  6
Continuous
 62
   136
370
    -2
100
AcDbLine
 10
35.24726112122593
 20
124.1221430565691
 30
0.0
 11
21.3626992994076
 21
124.1221430565691
 31
0.0
  0
LINE
  5
328
330
154
100
AcDbEntity
  8
DEFAULT
  6
Continuous
 62
   136
370
    -2
100
AcDbLine
 10
58.74721412122593
 20
146.6220980565691
 30
0.0
 11
21.36269929940761
 21
146.6220980565691
 31
0.0
  0
LINE
  5
329
330
154
100
AcDbEntity
  8
DEFAULT
  6
Continuous
 62
   136
370
    -2
100
AcDbLine
 10
22.8626992994076
 20
127.1221430565691
 30
0.0
 11
22.86269929940761
 21
143.6220980565691
 31
0.0
  0
INSERT
  5
32A
330
154
100
AcDbEntity
  8
DEFAULT
  6
Continuous
 62
   136
370
    -2
100
AcDbBlockReference
  2
_SE_FILLED
 10
22.8626992994076
 20
124.1221430565691
 30
0.0
 41
3.0
 42
3.0
 43
3.0
 50
270.0
  0
INSERT
  5
32B
330
154
100
AcDbEntity
  8
DEFAULT
  6
Continuous
 62
   136
370
    -2
100
AcDbBlockReference
  2
_SE_FILLED
 10
22.86269929940761
 20
146.6220980565691
 30
0.0
 41
3.0
 42
3.0
 43
3.0
 50
90.0
  0
MTEXT
  5
32C
330
154
100
AcDbEntity
  8
DEFAULT
  6
Continuous
 62
   136
370
     0
100
AcDbMText
 10
19.57698501369329
 20
135.3721202205395
 30
0.0
 40
3.0
 41
0.0
 71
     5
 72
     1
  1
\A1;\A1;22,5
  7
seiso_ttf
 11
0.0000000000000001
 21
1.0
 31
0.0
 73
     1
 44
1.0
1001
ACAD
1000
MTEXTBEGIN
1070
    73
1070
     1
1070
    44
1040
1.0
1070
    74
1070
     0
1000
MTEXTEND
  0
POINT
  5
32D
330
154
100
AcDbEntity
  8
Defpoints
  6
Continuous
 62
     0
370
     0
100
AcDbPoint
 10
35.24726112122593
 20
124.1221430565691
 30
0.0
  0
POINT
  5
32E
330
154
100
AcDbEntity
  8
Defpoints
  6
Continuous
 62
     0
370
     0
100
AcDbPoint
 10
58.74721412122593
 20
146.6220980565691
 30
0.0
  0
POINT
  5
32F
330
154
100
AcDbEntity
  8
Defpoints
  6
Continuous
 62
     0
370
     0
100
AcDbPoint
 10
22.86269929940761
 20
146.6220980565691
 30
0.0
  0
ENDBLK
  5
1BE
330
154
100
AcDbEntity
  8
DEFAULT
 62
     0
 48
0.0
370
     0
100
AcDbBlockEnd
  0
BLOCK
  5
1BF
330
156
100
AcDbEntity
  8
DEFAULT
 62
     1
 48
0.0
370
     0
100
AcDbBlockBegin
  2
SE5
 70
     0
 10
0.0
 20
0.0
 30
0.0
  3
SE5
  1

  0
HATCH
  5
1C0
330
156
100
AcDbEntity
  8
DEFAULT
  6
Continuous
 62
   136
100
AcDbHatch
 10
0.0
 20
0.0
 30
0.0
210
0.0
220
0.0
230
1.0
  2
SOLID
 70
     1
 71
     0
 91
        1
 92
        1
 93
        3
 72
     1
 10
39.24725914730295
 20
152.0571328709052
 11
36.24725912122592
 21
151.557132866559
 72
     1
 10
36.24725912122592
 20
151.557132866559
 11
39.24725914730295
 21
151.0571328622128
 72
     1
 10
39.24725914730295
 20
151.0571328622128
 11
39.24725914730295
 21
152.0571328709052
 97
        0
 75
     0
 76
     1
 98
        1
 10
0.0
 20
0.0
  0
HATCH
  5
1C1
330
156
100
AcDbEntity
  8
DEFAULT
  6
Continuous
 62
   136
100
AcDbHatch
 10
0.0
 20
0.0
 30
0.0
210
0.0
220
0.0
230
1.0
  2
SOLID
 70
     1
 71
     0
 91
        1
 92
        1
 93
        3
 72
     1
 10
55.74721409514889
 20
152.0571328709052
 11
58.74721412122593
 21
151.557132866559
 72
     1
 10
58.74721412122593
 20
151.557132866559
 11
55.74721409514889
 21
151.0571328622128
 72
     1
 10
55.74721409514889
 20
151.0571328622128
 11
55.74721409514889
 21
152.0571328709052
 97
        0
 75
     0
 76
     1
 98
        1
 10
0.0
 20
0.0
  0
LINE
  5
1C2
330
156
100
AcDbEntity
  8
DEFAULT
  6
Continuous
 62
   136
370
     0
100
AcDbLine
 10
36.24725912122592
 20
124.1221430565691
 30
0.0
 11
36.24725912122592
 21
153.0571328795975
 31
0.0
  0
LINE
  5
1C3
330
156
100
AcDbEntity
  8
DEFAULT
  6
Continuous
 62
   136
370
     0
100
AcDbLine
 10
58.74721412122593
 20
147.622096056569
 30
0.0
 11
58.74721412122593
 21
153.0571328795975
 31
0.0
  0
LINE
  5
1C4
330
156
100
AcDbEntity
  8
DEFAULT
  6
Continuous
 62
   136
370
     0
100
AcDbLine
 10
36.24725912122592
 20
151.557132866559
 30
0.0
 11
58.74721344916686
 21
151.557132866559
 31
0.0
  0
TEXT
  5
1C5
330
156
100
AcDbEntity
  8
DEFAULT
  6
Continuous
 62
   136
370
     0
100
AcDbText
 10
44.5313271942873
 20
152.307132866559
 30
0.0
 40
3.0
  1
22,5
  7
seiso_ttf
 11
44.5313271942873
 21
155.307132866559
 31
0.0
100
AcDbText
 73
     3
  0
ENDBLK
  5
27A
330
156
100
AcDbEntity
  8
0
370
     0
100
AcDbBlockEnd
  0
BLOCK
  5
27B
330
159
100
AcDbEntity
  8
0
370
     0
100
AcDbBlockBegin
  2
DMBLK1442
 70
     0
 10
0.0
 20
0.0
 30
0.0
  3
DMBLK1442
  1

  0
LINE
  5
330
330
159
100
AcDbEntity
  8
DEFAULT
  6
Continuous
 62
   136
370
    -2
100
AcDbLine
 10
36.24725912122592
 20
124.1221430565691
 30
0.0
 11
36.24725912122592
 21
153.057132866559
 31
0.0
  0
LINE
  5
331
330
159
100
AcDbEntity
  8
DEFAULT
  6
Continuous
 62
   136
370
    -2
100
AcDbLine
 10
58.74721412122593
 20
147.622096056569
 30
0.0
 11
58.74721412122593
 21
153.057132866559
 31
0.0
  0
LINE
  5
332
330
159
100
AcDbEntity
  8
DEFAULT
  6
Continuous
 62
   136
370
    -2
100
AcDbLine
 10
39.24725912122593
 20
151.557132866559
 30
0.0
 11
55.74721412122593
 21
151.557132866559
 31
0.0
  0
INSERT
  5
333
330
159
100
AcDbEntity
  8
DEFAULT
  6
Continuous
 62
   136
370
    -2
100
AcDbBlockReference
  2
_SE_FILLED
 10
36.24725912122592
 20
151.557132866559
 30
0.0
 41
3.0
 42
3.0
 43
3.0
 50
180.0
  0
INSERT
  5
334
330
159
100
AcDbEntity
  8
DEFAULT
  6
Continuous
 62
   136
370
    -2
100
AcDbBlockReference
  2
_SE_FILLED
 10
58.74721412122593
 20
151.557132866559
 30
0.0
 41
3.0
 42
3.0
 43
3.0
  0
MTEXT
  5
335
330
159
100
AcDbEntity
  8
DEFAULT
  6
Continuous
 62
   136
370
     0
100
AcDbMText
 10
47.49723628519639
 20
154.8428471522733
 30
0.0
 40
3.0
 41
0.0
 71
     5
 72
     1
  1
\A1;\A1;22,5
  7
seiso_ttf
 73
     1
 44
1.0
1001
ACAD
1000
MTEXTBEGIN
1070
    73
1070
     1
1070
    44
1040
1.0
1070
    74
1070
     0
1000
MTEXTEND
  0
POINT
  5
336
330
159
100
AcDbEntity
  8
Defpoints
  6
Continuous
 62
     0
370
     0
100
AcDbPoint
 10
36.24725912122592
 20
124.1221430565691
 30
0.0
  0
POINT
  5
337
330
159
100
AcDbEntity
  8
Defpoints
  6
Continuous
 62
     0
370
     0
100
AcDbPoint
 10
58.74721412122593
 20
147.622096056569
 30
0.0
  0
POINT
  5
338
330
159
100
AcDbEntity
  8
Defpoints
  6
Continuous
 62
     0
370
     0
100
AcDbPoint
 10
58.74721412122593
 20
151.557132866559
 30
0.0
  0
ENDBLK
  5
1C9
330
159
100
AcDbEntity
  8
DEFAULT
 62
     0
 48
0.0
370
     0
100
AcDbBlockEnd
  0
BLOCK
  5
1CA
330
15B
100
AcDbEntity
  8
DEFAULT
 62
     1
 48
0.0
370
     0
100
AcDbBlockBegin
  2
SE6
 70
     0
 10
0.0
 20
0.0
 30
0.0
  3
SE6
  1

  0
HATCH
  5
1CB
330
15B
100
AcDbEntity
  8
DEFAULT
  6
Continuous
 62
   136
100
AcDbHatch
 10
0.0
 20
0.0
 30
0.0
210
0.0
220
0.0
230
1.0
  2
SOLID
 70
     1
 71
     0
 91
        1
 92
        1
 93
        3
 72
     1
 10
61.74721414730296
 20
152.0571327760353
 11
58.74721412122593
 21
151.5571327716891
 72
     1
 10
58.74721412122593
 20
151.5571327716891
 11
61.74721414730296
 21
151.057132767343
 72
     1
 10
61.74721414730296
 20
151.057132767343
 11
61.74721414730296
 21
152.0571327760353
 97
        0
 75
     0
 76
     1
 98
        1
 10
0.0
 20
0.0
  0
HATCH
  5
1CC
330
15B
100
AcDbEntity
  8
DEFAULT
  6
Continuous
 62
   136
100
AcDbHatch
 10
0.0
 20
0.0
 30
0.0
210
0.0
220
0.0
230
1.0
  2
SOLID
 70
     1
 71
     0
 91
        1
 92
        1
 93
        3
 72
     1
 10
145.7470340951489
 20
152.0571327760353
 11
148.7470341212259
 21
151.5571327716891
 72
     1
 10
148.7470341212259
 20
151.5571327716891
 11
145.7470340951489
 21
151.057132767343
 72
     1
 10
145.7470340951489
 20
151.057132767343
 11
145.7470340951489
 21
152.0571327760353
 97
        0
 75
     0
 76
     1
 98
        1
 10
0.0
 20
0.0
  0
LINE
  5
1CD
330
15B
100
AcDbEntity
  8
DEFAULT
  6
Continuous
 62
   136
370
     0
100
AcDbLine
 10
58.74721412122593
 20
147.622096056569
 30
0.0
 11
58.74721412122593
 21
153.0571327847276
 31
0.0
  0
LINE
  5
1CE
330
15B
100
AcDbEntity
  8
DEFAULT
  6
Continuous
 62
   136
370
     0
100
AcDbLine
 10
148.7470341212259
 20
147.622096056569
 30
0.0
 11
148.7470341212259
 21
153.0571327847276
 31
0.0
  0
LINE
  5
1CF
330
15B
100
AcDbEntity
  8
DEFAULT
  6
Continuous
 62
   136
370
     0
100
AcDbLine
 10
58.74721412122593
 20
151.5571327716891
 30
0.0
 11
148.7470314329897
 21
151.5571327716891
 31
0.0
  0
TEXT
  5
1D0
330
15B
100
AcDbEntity
  8
DEFAULT
  6
Continuous
 62
   136
370
     0
100
AcDbText
 10
101.9403045952896
 20
152.3071327716891
 30
0.0
 40
3.0
  1
90
  7
seiso_ttf
 11
101.9403045952896
 21
155.3071327716891
 31
0.0
100
AcDbText
 73
     3
  0
ENDBLK
  5
27C
330
15B
100
AcDbEntity
  8
0
370
     0
100
AcDbBlockEnd
  0
BLOCK
  5
27D
330
15E
100
AcDbEntity
  8
0
370
     0
100
AcDbBlockBegin
  2
DMBLK1443
 70
     0
 10
0.0
 20
0.0
 30
0.0
  3
DMBLK1443
  1

  0
LINE
  5
339
330
15E
100
AcDbEntity
  8
DEFAULT
  6
Continuous
 62
   136
370
    -2
100
AcDbLine
 10
58.74721412122593
 20
147.622096056569
 30
0.0
 11
58.74721412122593
 21
153.0571327716891
 31
0.0
  0
LINE
  5
33A
330
15E
100
AcDbEntity
  8
DEFAULT
  6
Continuous
 62
   136
370
    -2
100
AcDbLine
 10
148.7470341212259
 20
147.622096056569
 30
0.0
 11
148.7470341212259
 21
153.0571327716891
 31
0.0
  0
LINE
  5
33B
330
15E
100
AcDbEntity
  8
DEFAULT
  6
Continuous
 62
   136
370
    -2
100
AcDbLine
 10
61.74721412122593
 20
151.5571327716891
 30
0.0
 11
145.7470341212259
 21
151.5571327716891
 31
0.0
  0
INSERT
  5
33C
330
15E
100
AcDbEntity
  8
DEFAULT
  6
Continuous
 62
   136
370
    -2
100
AcDbBlockReference
  2
_SE_FILLED
 10
58.74721412122593
 20
151.5571327716891
 30
0.0
 41
3.0
 42
3.0
 43
3.0
 50
180.0
  0
INSERT
  5
33D
330
15E
100
AcDbEntity
  8
DEFAULT
  6
Continuous
 62
   136
370
    -2
100
AcDbBlockReference
  2
_SE_FILLED
 10
148.7470341212259
 20
151.5571327716891
 30
0.0
 41
3.0
 42
3.0
 43
3.0
  0
MTEXT
  5
33E
330
15E
100
AcDbEntity
  8
DEFAULT
  6
Continuous
 62
   136
370
     0
100
AcDbMText
 10
103.7471227771078
 20
154.5571327716891
 30
0.0
 40
3.0
 41
0.0
 71
     5
 72
     1
  1
\A1;\A1;90
  7
seiso_ttf
 73
     1
 44
1.0
1001
ACAD
1000
MTEXTBEGIN
1070
    73
1070
     1
1070
    44
1040
1.0
1070
    74
1070
     0
1000
MTEXTEND
  0
POINT
  5
33F
330
15E
100
AcDbEntity
  8
Defpoints
  6
Continuous
 62
     0
370
     0
100
AcDbPoint
 10
58.74721412122593
 20
147.622096056569
 30
0.0
  0
POINT
  5
340
330
15E
100
AcDbEntity
  8
Defpoints
  6
Continuous
 62
     0
370
     0
100
AcDbPoint
 10
148.7470341212259
 20
147.622096056569
 30
0.0
  0
POINT
  5
341
330
15E
100
AcDbEntity
  8
Defpoints
  6
Continuous
 62
     0
370
     0
100
AcDbPoint
 10
148.7470341212259
 20
151.5571327716891
 30
0.0
  0
ENDBLK
  5
1D4
330
15E
100
AcDbEntity
  8
DEFAULT
 62
     0
 48
0.0
370
     0
100
AcDbBlockEnd
  0
BLOCK
  5
1D5
330
160
100
AcDbEntity
  8
DEFAULT
 62
     1
 48
0.0
370
     0
100
AcDbBlockBegin
  2
SE7
 70
     0
 10
0.0
 20
0.0
 30
0.0
  3
SE7
  1

  0
HATCH
  5
1D6
330
160
100
AcDbEntity
  8
DEFAULT
  6
Continuous
 62
   136
100
AcDbHatch
 10
0.0
 20
0.0
 30
0.0
210
0.0
220
0.0
230
1.0
  2
SOLID
 70
     1
 71
     0
 91
        1
 92
        1
 93
        3
 72
     1
 10
151.7470341473029
 20
152.0571327760353
 11
148.7470341212259
 21
151.5571327716891
 72
     1
 10
148.7470341212259
 20
151.5571327716891
 11
151.7470341473029
 21
151.057132767343
 72
     1
 10
151.7470341473029
 20
151.057132767343
 11
151.7470341473029
 21
152.0571327760353
 97
        0
 75
     0
 76
     1
 98
        1
 10
0.0
 20
0.0
  0
HATCH
  5
1D7
330
160
100
AcDbEntity
  8
DEFAULT
  6
Continuous
 62
   136
100
AcDbHatch
 10
0.0
 20
0.0
 30
0.0
210
0.0
220
0.0
230
1.0
  2
SOLID
 70
     1
 71
     0
 91
        1
 92
        1
 93
        3
 72
     1
 10
168.2469890951489
 20
152.0571327760353
 11
171.2469891212259
 21
151.5571327716891
 72
     1
 10
171.2469891212259
 20
151.5571327716891
 11
168.2469890951489
 21
151.057132767343
 72
     1
 10
168.2469890951489
 20
151.057132767343
 11
168.2469890951489
 21
152.0571327760353
 97
        0
 75
     0
 76
     1
 98
        1
 10
0.0
 20
0.0
  0
LINE
  5
1D8
330
160
100
AcDbEntity
  8
DEFAULT
  6
Continuous
 62
   136
370
     0
100
AcDbLine
 10
148.7470341212259
 20
147.622096056569
 30
0.0
 11
148.7470341212259
 21
153.0571327847276
 31
0.0
  0
LINE
  5
1D9
330
160
100
AcDbEntity
  8
DEFAULT
  6
Continuous
 62
   136
370
     0
100
AcDbLine
 10
171.2469891212259
 20
124.122143056569
 30
0.0
 11
171.2469891212259
 21
153.0571327847276
 31
0.0
  0
LINE
  5
1DA
330
160
100
AcDbEntity
  8
DEFAULT
  6
Continuous
 62
   136
370
     0
100
AcDbLine
 10
148.7470341212259
 20
151.5571327716891
 30
0.0
 11
171.2469884491668
 21
151.5571327716891
 31
0.0
  0
TEXT
  5
1DB
330
160
100
AcDbEntity
  8
DEFAULT
  6
Continuous
 62
   136
370
     0
100
AcDbText
 10
157.0311021942873
 20
152.3071327716891
 30
0.0
 40
3.0
  1
22,5
  7
seiso_ttf
 11
157.0311021942873
 21
155.3071327716891
 31
0.0
100
AcDbText
 73
     3
  0
ENDBLK
  5
27E
330
160
100
AcDbEntity
  8
0
370
     0
100
AcDbBlockEnd
  0
BLOCK
  5
27F
330
163
100
AcDbEntity
  8
0
370
     0
100
AcDbBlockBegin
  2
DMBLK1444
 70
     0
 10
0.0
 20
0.0
 30
0.0
  3
DMBLK1444
  1

  0
LINE
  5
342
330
163
100
AcDbEntity
  8
DEFAULT
  6
Continuous
 62
   136
370
    -2
100
AcDbLine
 10
148.7470341212259
 20
147.622096056569
 30
0.0
 11
148.7470341212259
 21
153.0571327716891
 31
0.0
  0
LINE
  5
343
330
163
100
AcDbEntity
  8
DEFAULT
  6
Continuous
 62
   136
370
    -2
100
AcDbLine
 10
171.2469891212259
 20
124.122143056569
 30
0.0
 11
171.2469891212259
 21
153.0571327716891
 31
0.0
  0
LINE
  5
344
330
163
100
AcDbEntity
  8
DEFAULT
  6
Continuous
 62
   136
370
    -2
100
AcDbLine
 10
151.7470341212259
 20
151.5571327716891
 30
0.0
 11
168.2469891212259
 21
151.5571327716891
 31
0.0
  0
INSERT
  5
345
330
163
100
AcDbEntity
  8
DEFAULT
  6
Continuous
 62
   136
370
    -2
100
AcDbBlockReference
  2
_SE_FILLED
 10
148.7470341212259
 20
151.5571327716891
 30
0.0
 41
3.0
 42
3.0
 43
3.0
 50
180.0
  0
INSERT
  5
346
330
163
100
AcDbEntity
  8
DEFAULT
  6
Continuous
 62
   136
370
    -2
100
AcDbBlockReference
  2
_SE_FILLED
 10
171.2469891212259
 20
151.5571327716891
 30
0.0
 41
3.0
 42
3.0
 43
3.0
  0
MTEXT
  5
347
330
163
100
AcDbEntity
  8
DEFAULT
  6
Continuous
 62
   136
370
     0
100
AcDbMText
 10
159.9970112851964
 20
154.8428470574034
 30
0.0
 40
3.0
 41
0.0
 71
     5
 72
     1
  1
\A1;\A1;22,5
  7
seiso_ttf
 73
     1
 44
1.0
1001
ACAD
1000
MTEXTBEGIN
1070
    73
1070
     1
1070
    44
1040
1.0
1070
    74
1070
     0
1000
MTEXTEND
  0
POINT
  5
348
330
163
100
AcDbEntity
  8
Defpoints
  6
Continuous
 62
     0
370
     0
100
AcDbPoint
 10
148.7470341212259
 20
147.622096056569
 30
0.0
  0
POINT
  5
349
330
163
100
AcDbEntity
  8
Defpoints
  6
Continuous
 62
     0
370
     0
100
AcDbPoint
 10
171.2469891212259
 20
124.122143056569
 30
0.0
  0
POINT
  5
34A
330
163
100
AcDbEntity
  8
Defpoints
  6
Continuous
 62
     0
370
     0
100
AcDbPoint
 10
171.2469891212259
 20
151.5571327716891
 30
0.0
  0
ENDBLK
  5
1DF
330
163
100
AcDbEntity
  8
DEFAULT
 62
     0
 48
0.0
370
     0
100
AcDbBlockEnd
  0
BLOCK
  5
1E0
330
165
100
AcDbEntity
  8
DEFAULT
 62
     1
 48
0.0
370
     0
100
AcDbBlockBegin
  2
SE8
 70
     0
 10
0.0
 20
0.0
 30
0.0
  3
SE8
  1

  0
HATCH
  5
1E1
330
165
100
AcDbEntity
  8
DEFAULT
  6
Continuous
 62
   136
100
AcDbHatch
 10
0.0
 20
0.0
 30
0.0
210
0.0
220
0.0
230
1.0
  2
SOLID
 70
     1
 71
     0
 91
        1
 92
        1
 93
        3
 72
     1
 10
84.24716914730295
 20
71.5330234134219
 11
81.24716912122591
 21
71.03302340907572
 72
     1
 10
81.24716912122591
 20
71.03302340907572
 11
84.24716914730295
 21
70.53302340472955
 72
     1
 10
84.24716914730295
 20
70.53302340472955
 11
84.24716914730295
 21
71.5330234134219
 97
        0
 75
     0
 76
     1
 98
        1
 10
0.0
 20
0.0
  0
HATCH
  5
1E2
330
165
100
AcDbEntity
  8
DEFAULT
  6
Continuous
 62
   136
100
AcDbHatch
 10
0.0
 20
0.0
 30
0.0
210
0.0
220
0.0
230
1.0
  2
SOLID
 70
     1
 71
     0
 91
        1
 92
        1
 93
        3
 72
     1
 10
123.2470790951489
 20
71.5330234134219
 11
126.2470791212259
 21
71.03302340907572
 72
     1
 10
126.2470791212259
 20
71.03302340907572
 11
123.2470790951489
 21
70.53302340472955
 72
     1
 10
123.2470790951489
 20
70.53302340472955
 11
123.2470790951489
 21
71.5330234134219
 97
        0
 75
     0
 76
     1
 98
        1
 10
0.0
 20
0.0
  0
LINE
  5
1E3
330
165
100
AcDbEntity
  8
DEFAULT
  6
Continuous
 62
   136
370
     0
100
AcDbLine
 10
81.24716912122591
 20
71.03302340907572
 30
0.0
 11
126.2470777771078
 21
71.03302340907572
 31
0.0
  0
TEXT
  5
1E4
330
165
100
AcDbEntity
  8
DEFAULT
  6
Continuous
 62
   136
370
     0
100
AcDbText
 10
94.47275752825472
 20
71.78302340907572
 30
0.0
 40
3.0
  1
45
  7
seiso_ttf
 11
94.47275752825472
 21
74.78302340907572
 31
0.0
100
AcDbText
 73
     3
  0
ENDBLK
  5
280
330
165
100
AcDbEntity
  8
0
370
     0
100
AcDbBlockEnd
  0
BLOCK
  5
281
330
168
100
AcDbEntity
  8
0
370
     0
100
AcDbBlockBegin
  2
DMBLK1445
 70
     0
 10
0.0
 20
0.0
 30
0.0
  3
DMBLK1445
  1

  0
LINE
  5
34B
330
168
100
AcDbEntity
  8
DEFAULT
  6
Continuous
 62
   136
370
    -2
100
AcDbLine
 10
81.24716912122591
 20
56.62227805656907
 30
0.0
 11
81.24716912122591
 21
72.53302340907572
 31
0.0
  0
LINE
  5
34C
330
168
100
AcDbEntity
  8
DEFAULT
  6
Continuous
 62
   136
370
    -2
100
AcDbLine
 10
126.2470791212259
 20
56.62227805656907
 30
0.0
 11
126.2470791212259
 21
72.53302340907572
 31
0.0
  0
LINE
  5
34D
330
168
100
AcDbEntity
  8
DEFAULT
  6
Continuous
 62
   136
370
    -2
100
AcDbLine
 10
84.24716912122592
 20
71.03302340907572
 30
0.0
 11
123.2470791212259
 21
71.03302340907572
 31
0.0
  0
INSERT
  5
34E
330
168
100
AcDbEntity
  8
DEFAULT
  6
Continuous
 62
   136
370
    -2
100
AcDbBlockReference
  2
_SE_FILLED
 10
81.24716912122591
 20
71.03302340907572
 30
0.0
 41
3.0
 42
3.0
 43
3.0
 50
180.0
  0
INSERT
  5
34F
330
168
100
AcDbEntity
  8
DEFAULT
  6
Continuous
 62
   136
370
    -2
100
AcDbBlockReference
  2
_SE_FILLED
 10
126.2470791212259
 20
71.03302340907572
 30
0.0
 41
3.0
 42
3.0
 43
3.0
  0
MTEXT
  5
350
330
168
100
AcDbEntity
  8
DEFAULT
  6
Continuous
 62
   136
370
     0
100
AcDbMText
 10
96.2113938918911
 20
74.03302340907572
 30
0.0
 40
3.0
 41
0.0
 71
     5
 72
     1
  1
\A1;\A1;45
  7
seiso_ttf
 73
     1
 44
1.0
1001
ACAD
1000
MTEXTBEGIN
1070
    73
1070
     1
1070
    44
1040
1.0
1070
    74
1070
     0
1000
MTEXTEND
  0
POINT
  5
351
330
168
100
AcDbEntity
  8
Defpoints
  6
Continuous
 62
     0
370
     0
100
AcDbPoint
 10
81.24716912122591
 20
56.62227805656907
 30
0.0
  0
POINT
  5
352
330
168
100
AcDbEntity
  8
Defpoints
  6
Continuous
 62
     0
370
     0
100
AcDbPoint
 10
126.2470791212259
 20
56.62227805656907
 30
0.0
  0
POINT
  5
353
330
168
100
AcDbEntity
  8
Defpoints
  6
Continuous
 62
     0
370
     0
100
AcDbPoint
 10
126.2470791212259
 20
71.03302340907572
 30
0.0
  0
ENDBLK
  5
1E8
330
168
100
AcDbEntity
  8
DEFAULT
 62
     0
 48
0.0
370
     0
100
AcDbBlockEnd
  0
BLOCK
  5
1E9
330
16A
100
AcDbEntity
  8
DEFAULT
 62
     1
 48
0.0
370
     0
100
AcDbBlockBegin
  2
SE9
 70
     0
 10
0.0
 20
0.0
 30
0.0
  3
SE9
  1

  0
HATCH
  5
1EA
330
16A
100
AcDbEntity
  8
DEFAULT
  6
Continuous
 62
   136
100
AcDbHatch
 10
0.0
 20
0.0
 30
0.0
210
0.0
220
0.0
230
1.0
  2
SOLID
 70
     1
 71
     0
 91
        1
 92
        1
 93
        3
 72
     1
 10
114.4472016893614
 20
98.62218803049206
 11
114.9472016937076
 21
101.6221880565691
 72
     1
 10
114.9472016937076
 20
101.6221880565691
 11
115.4472016980537
 21
98.62218803049206
 72
     1
 10
115.4472016980537
 20
98.62218803049206
 11
114.4472016893614
 21
98.62218803049206
 97
        0
 75
     0
 76
     1
 98
        1
 10
0.0
 20
0.0
  0
HATCH
  5
1EB
330
16A
100
AcDbEntity
  8
DEFAULT
  6
Continuous
 62
   136
100
AcDbHatch
 10
0.0
 20
0.0
 30
0.0
210
0.0
220
0.0
230
1.0
  2
SOLID
 70
     1
 71
     0
 91
        1
 92
        1
 93
        3
 72
     1
 10
114.4472016893614
 20
59.62227808264611
 11
114.9472016937076
 21
56.62227805656907
 72
     1
 10
114.9472016937076
 20
56.62227805656907
 11
115.4472016980537
 21
59.62227808264611
 72
     1
 10
115.4472016980537
 20
59.62227808264611
 11
114.4472016893614
 21
59.62227808264611
 97
        0
 75
     0
 76
     1
 98
        1
 10
0.0
 20
0.0
  0
LINE
  5
1EC
330
16A
100
AcDbEntity
  8
DEFAULT
  6
Continuous
 62
   136
370
     0
100
AcDbLine
 10
114.9472016937076
 20
101.6221880565691
 30
0.0
 11
114.9472016937076
 21
56.62227940068721
 31
0.0
  0
TEXT
  5
1ED
330
16A
100
AcDbEntity
  8
DEFAULT
  6
Continuous
 62
   136
370
     0
100
AcDbText
 10
114.1972016937075
 20
82.4493160307108
 30
0.0
 40
3.0
  1
45
 50
90.0
  7
seiso_ttf
 11
111.1972016937075
 21
82.4493160307108
 31
0.0
100
AcDbText
 73
     3
  0
ENDBLK
  5
282
330
16A
100
AcDbEntity
  8
0
370
     0
100
AcDbBlockEnd
  0
BLOCK
  5
283
330
16D
100
AcDbEntity
  8
0
370
     0
100
AcDbBlockBegin
  2
DMBLK1446
 70
     0
 10
0.0
 20
0.0
 30
0.0
  3
DMBLK1446
  1

  0
LINE
  5
354
330
16D
100
AcDbEntity
  8
DEFAULT
  6
Continuous
 62
   136
370
    -2
100
AcDbLine
 10
126.2470791212259
 20
101.6221880565691
 30
0.0
 11
113.4472016937076
 21
101.6221880565691
 31
0.0
  0
LINE
  5
355
330
16D
100
AcDbEntity
  8
DEFAULT
  6
Continuous
 62
   136
370
    -2
100
AcDbLine
 10
126.2470791212259
 20
56.62227805656907
 30
0.0
 11
113.4472016937076
 21
56.62227805656907
 31
0.0
  0
LINE
  5
356
330
16D
100
AcDbEntity
  8
DEFAULT
  6
Continuous
 62
   136
370
    -2
100
AcDbLine
 10
114.9472016937076
 20
98.62218805656908
 30
0.0
 11
114.9472016937076
 21
59.62227805656908
 31
0.0
  0
INSERT
  5
357
330
16D
100
AcDbEntity
  8
DEFAULT
  6
Continuous
 62
   136
370
    -2
100
AcDbBlockReference
  2
_SE_FILLED
 10
114.9472016937076
 20
101.6221880565691
 30
0.0
 41
3.0
 42
3.0
 43
3.0
 50
90.0
  0
INSERT
  5
358
330
16D
100
AcDbEntity
  8
DEFAULT
  6
Continuous
 62
   136
370
    -2
100
AcDbBlockReference
  2
_SE_FILLED
 10
114.9472016937076
 20
56.62227805656907
 30
0.0
 41
3.0
 42
3.0
 43
3.0
 50
270.0
  0
MTEXT
  5
359
330
16D
100
AcDbEntity
  8
DEFAULT
  6
Continuous
 62
   136
370
     0
100
AcDbMText
 10
111.9472016937075
 20
84.18795239434718
 30
0.0
 40
3.0
 41
0.0
 71
     5
 72
     1
  1
\A1;\A1;45
  7
seiso_ttf
 11
0.0000000000000001
 21
1.0
 31
0.0
 73
     1
 44
1.0
1001
ACAD
1000
MTEXTBEGIN
1070
    73
1070
     1
1070
    44
1040
1.0
1070
    74
1070
     0
1000
MTEXTEND
  0
POINT
  5
35A
330
16D
100
AcDbEntity
  8
Defpoints
  6
Continuous
 62
     0
370
     0
100
AcDbPoint
 10
126.2470791212259
 20
101.6221880565691
 30
0.0
  0
POINT
  5
35B
330
16D
100
AcDbEntity
  8
Defpoints
  6
Continuous
 62
     0
370
     0
100
AcDbPoint
 10
126.2470791212259
 20
56.62227805656907
 30
0.0
  0
POINT
  5
35C
330
16D
100
AcDbEntity
  8
Defpoints
  6
Continuous
 62
     0
370
     0
100
AcDbPoint
 10
114.9472016937076
 20
56.62227805656907
 30
0.0
  0
ENDBLK
  5
1F1
330
16D
100
AcDbEntity
  8
DEFAULT
 62
     0
 48
0.0
370
     0
100
AcDbBlockEnd
  0
BLOCK
  5
1F2
330
16F
100
AcDbEntity
  8
DEFAULT
 62
     1
 48
0.0
370
     0
100
AcDbBlockBegin
  2
SE10
 70
     0
 10
0.0
 20
0.0
 30
0.0
  3
SE10
  1

  0
HATCH
  5
1F3
330
16F
100
AcDbEntity
  8
DEFAULT
  6
Continuous
 62
   136
100
AcDbHatch
 10
0.0
 20
0.0
 30
0.0
210
0.0
220
0.0
230
1.0
  2
SOLID
 70
     1
 71
     0
 91
        1
 92
        1
 93
        3
 72
     1
 10
22.36270098438602
 20
272.5910650570136
 11
22.86270098873219
 21
275.5910650830906
 72
     1
 10
22.86270098873219
 20
275.5910650830906
 11
23.36270099307837
 21
272.5910650570136
 72
     1
 10
23.36270099307837
 20
272.5910650570136
 11
22.36270098438602
 21
272.5910650570136
 97
        0
 75
     0
 76
     1
 98
        1
 10
0.0
 20
0.0
  0
HATCH
  5
1F4
330
16F
100
AcDbEntity
  8
DEFAULT
  6
Continuous
 62
   136
100
AcDbHatch
 10
0.0
 20
0.0
 30
0.0
210
0.0
220
0.0
230
1.0
  2
SOLID
 70
     1
 71
     0
 91
        1
 92
        1
 93
        3
 72
     1
 10
22.36270098438602
 20
173.5912751091676
 11
22.86270098873219
 21
170.5912750830905
 72
     1
 10
22.86270098873219
 20
170.5912750830905
 11
23.36270099307837
 21
173.5912751091676
 72
     1
 10
23.36270099307837
 20
173.5912751091676
 11
22.36270098438602
 21
173.5912751091676
 97
        0
 75
     0
 76
     1
 98
        1
 10
0.0
 20
0.0
  0
LINE
  5
1F5
330
16F
100
AcDbEntity
  8
DEFAULT
  6
Continuous
 62
   136
370
     0
100
AcDbLine
 10
78.96193327494701
 20
275.5910650830906
 30
0.0
 11
21.36270097569367
 21
275.5910650830906
 31
0.0
  0
LINE
  5
1F6
330
16F
100
AcDbEntity
  8
DEFAULT
  6
Continuous
 62
   136
370
     0
100
AcDbLine
 10
36.46201827494702
 20
170.5912750830905
 30
0.0
 11
21.36270097569368
 21
170.5912750830905
 31
0.0
  0
LINE
  5
1F7
330
16F
100
AcDbEntity
  8
DEFAULT
  6
Continuous
 62
   136
370
     0
100
AcDbLine
 10
22.86270098873219
 20
275.5910650830906
 30
0.0
 11
22.86270098873219
 21
170.5912769776027
 31
0.0
  0
TEXT
  5
1F8
330
16F
100
AcDbEntity
  8
DEFAULT
  6
Continuous
 62
   136
370
     0
100
AcDbText
 10
22.11270098873219
 20
220.738898303074
 30
0.0
 40
3.0
  1
105
 50
90.0
  7
seiso_ttf
 11
19.11270098873219
 21
220.738898303074
 31
0.0
100
AcDbText
 73
     3
  0
ENDBLK
  5
284
330
16F
100
AcDbEntity
  8
0
370
     0
100
AcDbBlockEnd
  0
BLOCK
  5
285
330
172
100
AcDbEntity
  8
0
370
     0
100
AcDbBlockBegin
  2
DMBLK1447
 70
     0
 10
0.0
 20
0.0
 30
0.0
  3
DMBLK1447
  1

  0
LINE
  5
35D
330
172
100
AcDbEntity
  8
DEFAULT
  6
Continuous
 62
   136
370
    -2
100
AcDbLine
 10
78.96193327494701
 20
275.5910650830906
 30
0.0
 11
21.36270098873224
 21
275.5910650830906
 31
0.0
  0
LINE
  5
35E
330
172
100
AcDbEntity
  8
DEFAULT
  6
Continuous
 62
   136
370
    -2
100
AcDbLine
 10
36.46201827494702
 20
170.5912750830905
 30
0.0
 11
21.36270098873222
 21
170.5912750830905
 31
0.0
  0
LINE
  5
35F
330
172
100
AcDbEntity
  8
DEFAULT
  6
Continuous
 62
   136
370
    -2
100
AcDbLine
 10
22.86270098873224
 20
272.5910650830906
 30
0.0
 11
22.86270098873222
 21
173.5912750830905
 31
0.0
  0
INSERT
  5
360
330
172
100
AcDbEntity
  8
DEFAULT
  6
Continuous
 62
   136
370
    -2
100
AcDbBlockReference
  2
_SE_FILLED
 10
22.86270098873224
 20
275.5910650830906
 30
0.0
 41
3.0
 42
3.0
 43
3.0
 50
90.0
  0
INSERT
  5
361
330
172
100
AcDbEntity
  8
DEFAULT
  6
Continuous
 62
   136
370
    -2
100
AcDbBlockReference
  2
_SE_FILLED
 10
22.86270098873222
 20
170.5912750830905
 30
0.0
 41
3.0
 42
3.0
 43
3.0
 50
270.0
  0
MTEXT
  5
362
330
172
100
AcDbEntity
  8
DEFAULT
  6
Continuous
 62
   136
370
     0
100
AcDbMText
 10
19.86270098873219
 20
223.0911710303467
 30
0.0
 40
3.0
 41
0.0
 71
     5
 72
     1
  1
\A1;\A1;105
  7
seiso_ttf
 11
0.0000000000000001
 21
1.0
 31
0.0
 73
     1
 44
1.0
1001
ACAD
1000
MTEXTBEGIN
1070
    73
1070
     1
1070
    44
1040
1.0
1070
    74
1070
     0
1000
MTEXTEND
  0
POINT
  5
363
330
172
100
AcDbEntity
  8
Defpoints
  6
Continuous
 62
     0
370
     0
100
AcDbPoint
 10
78.96193327494701
 20
275.5910650830906
 30
0.0
  0
POINT
  5
364
330
172
100
AcDbEntity
  8
Defpoints
  6
Continuous
 62
     0
370
     0
100
AcDbPoint
 10
36.46201827494702
 20
170.5912750830905
 30
0.0
  0
POINT
  5
365
330
172
100
AcDbEntity
  8
Defpoints
  6
Continuous
 62
     0
370
     0
100
AcDbPoint
 10
22.86270098873222
 20
170.5912750830905
 30
0.0
  0
ENDBLK
  5
1FC
330
172
100
AcDbEntity
  8
DEFAULT
 62
     0
 48
0.0
370
     0
100
AcDbBlockEnd
  0
BLOCK
  5
1FD
330
174
100
AcDbEntity
  8
DEFAULT
 62
     1
 48
0.0
370
     0
100
AcDbBlockBegin
  2
SE11
 70
     0
 10
0.0
 20
0.0
 30
0.0
  3
SE11
  1

  0
HATCH
  5
1FE
330
174
100
AcDbEntity
  8
DEFAULT
  6
Continuous
 62
   136
100
AcDbHatch
 10
0.0
 20
0.0
 30
0.0
210
0.0
220
0.0
230
1.0
  2
SOLID
 70
     1
 71
     0
 91
        1
 92
        1
 93
        3
 72
     1
 10
31.53128651212555
 20
167.5912750570135
 11
32.03128651647173
 21
170.5912750830905
 72
     1
 10
32.03128651647172
 20
170.5912750830905
 11
32.53128652081789
 21
167.5912750570135
 72
     1
 10
32.53128652081789
 20
167.5912750570135
 11
31.53128651212555
 21
167.5912750570135
 97
        0
 75
     0
 76
     1
 98
        1
 10
0.0
 20
0.0
  0
HATCH
  5
1FF
330
174
100
AcDbEntity
  8
DEFAULT
  6
Continuous
 62
   136
100
AcDbHatch
 10
0.0
 20
0.0
 30
0.0
210
0.0
220
0.0
230
1.0
  2
SOLID
 70
     1
 71
     0
 91
        1
 92
        1
 93
        3
 72
     1
 10
31.53128651212555
 20
179.5912631091676
 11
32.03128651647173
 21
176.5912630830906
 72
     1
 10
32.03128651647172
 20
176.5912630830906
 11
32.53128652081789
 21
179.5912631091676
 72
     1
 10
32.53128652081789
 20
179.5912631091676
 11
31.53128651212555
 21
179.5912631091676
 97
        0
 75
     0
 76
     1
 98
        1
 10
0.0
 20
0.0
  0
LINE
  5
200
330
174
100
AcDbEntity
  8
DEFAULT
  6
Continuous
 62
   136
370
     0
100
AcDbLine
 10
36.46201827494702
 20
170.5912750830905
 30
0.0
 11
30.5312865034332
 21
170.5912750830905
 31
0.0
  0
LINE
  5
201
330
174
100
AcDbEntity
  8
DEFAULT
  6
Continuous
 62
   136
370
     0
100
AcDbLine
 10
37.46201627494706
 20
176.5912630830906
 30
0.0
 11
30.53128650343321
 21
176.5912630830906
 31
0.0
  0
LINE
  5
202
330
174
100
AcDbEntity
  8
DEFAULT
  6
Continuous
 62
   136
370
     0
100
AcDbLine
 10
32.03128651647172
 20
164.5912750309365
 30
0.0
 11
32.03128651647172
 21
182.5912630802052
 31
0.0
  0
TEXT
  5
203
330
174
100
AcDbEntity
  8
DEFAULT
  6
Continuous
 62
   136
370
     0
100
AcDbText
 10
31.28128651647172
 20
172.6708145101163
 30
0.0
 40
3.0
  1
6
 50
90.0
  7
seiso_ttf
 11
28.28128651647172
 21
172.6708145101163
 31
0.0
100
AcDbText
 73
     3
  0
ENDBLK
  5
286
330
174
100
AcDbEntity
  8
0
370
     0
100
AcDbBlockEnd
  0
BLOCK
  5
287
330
177
100
AcDbEntity
  8
0
370
     0
100
AcDbBlockBegin
  2
DMBLK1448
 70
     0
 10
0.0
 20
0.0
 30
0.0
  3
DMBLK1448
  1

  0
LINE
  5
366
330
177
100
AcDbEntity
  8
DEFAULT
  6
Continuous
 62
   136
370
    -2
100
AcDbLine
 10
36.46201827494702
 20
170.5912750830905
 30
0.0
 11
30.53128651647175
 21
170.5912750830905
 31
0.0
  0
LINE
  5
367
330
177
100
AcDbEntity
  8
DEFAULT
  6
Continuous
 62
   136
370
    -2
100
AcDbLine
 10
37.46201627494706
 20
176.5912630830906
 30
0.0
 11
30.53128651647175
 21
176.5912630830906
 31
0.0
  0
LINE
  5
368
330
177
100
AcDbEntity
  8
DEFAULT
  6
Continuous
 62
   136
370
    -2
100
AcDbLine
 10
32.03128651647175
 20
167.5912750830906
 30
0.0
 11
32.03128651647175
 21
164.5912750830906
 31
0.0
  0
LINE
  5
369
330
177
100
AcDbEntity
  8
DEFAULT
  6
Continuous
 62
   136
370
    -2
100
AcDbLine
 10
32.03128651647175
 20
179.5912630830906
 30
0.0
 11
32.03128651647175
 21
182.5912630830906
 31
0.0
  0
LINE
  5
36A
330
177
100
AcDbEntity
  8
DEFAULT
  6
Continuous
 62
   136
370
    -2
100
AcDbLine
 10
32.03128651647175
 20
170.5912750830905
 30
0.0
 11
32.03128651647175
 21
176.5912630830906
 31
0.0
  0
INSERT
  5
36B
330
177
100
AcDbEntity
  8
DEFAULT
  6
Continuous
 62
   136
370
    -2
100
AcDbBlockReference
  2
_SE_FILLED
 10
32.03128651647175
 20
170.5912750830905
 30
0.0
 41
3.0
 42
3.0
 43
3.0
 50
90.0
  0
INSERT
  5
36C
330
177
100
AcDbEntity
  8
DEFAULT
  6
Continuous
 62
   136
370
    -2
100
AcDbBlockReference
  2
_SE_FILLED
 10
32.03128651647175
 20
176.5912630830906
 30
0.0
 41
3.0
 42
3.0
 43
3.0
 50
270.0
  0
MTEXT
  5
36D
330
177
100
AcDbEntity
  8
DEFAULT
  6
Continuous
 62
   136
370
     0
100
AcDbMText
 10
29.03128651647172
 20
173.5912690830906
 30
0.0
 40
3.0
 41
0.0
 71
     5
 72
     1
  1
\A1;\A1;6
  7
seiso_ttf
 11
0.0000000000000001
 21
1.0
 31
0.0
 73
     1
 44
1.0
1001
ACAD
1000
MTEXTBEGIN
1070
    73
1070
     1
1070
    44
1040
1.0
1070
    74
1070
     0
1000
MTEXTEND
  0
POINT
  5
36E
330
177
100
AcDbEntity
  8
Defpoints
  6
Continuous
 62
     0
370
     0
100
AcDbPoint
 10
36.46201827494702
 20
170.5912750830905
 30
0.0
  0
POINT
  5
36F
330
177
100
AcDbEntity
  8
Defpoints
  6
Continuous
 62
     0
370
     0
100
AcDbPoint
 10
37.46201627494706
 20
176.5912630830906
 30
0.0
  0
POINT
  5
370
330
177
100
AcDbEntity
  8
Defpoints
  6
Continuous
 62
     0
370
     0
100
AcDbPoint
 10
32.03128651647175
 20
176.5912630830906
 30
0.0
  0
ENDBLK
  5
207
330
177
100
AcDbEntity
  8
DEFAULT
 62
     0
 48
0.0
370
     0
100
AcDbBlockEnd
  0
BLOCK
  5
208
330
179
100
AcDbEntity
  8
DEFAULT
 62
     1
 48
0.0
370
     0
100
AcDbBlockBegin
  2
SE12
 70
     0
 10
0.0
 20
0.0
 30
0.0
  3
SE12
  1

  0
HATCH
  5
209
330
179
100
AcDbEntity
  8
DEFAULT
  6
Continuous
 62
   136
100
AcDbHatch
 10
0.0
 20
0.0
 30
0.0
210
0.0
220
0.0
230
1.0
  2
SOLID
 70
     1
 71
     0
 91
        1
 92
        1
 93
        3
 72
     1
 10
31.53128667651924
 20
179.5912631091676
 11
32.03128668086541
 21
176.5912630830906
 72
     1
 10
32.03128668086542
 20
176.5912630830906
 11
32.53128668521159
 21
179.5912631091676
 72
     1
 10
32.53128668521159
 20
179.5912631091676
 11
31.53128667651925
 21
179.5912631091676
 97
        0
 75
     0
 76
     1
 98
        1
 10
0.0
 20
0.0
  0
HATCH
  5
20A
330
179
100
AcDbEntity
  8
DEFAULT
  6
Continuous
 62
   136
100
AcDbHatch
 10
0.0
 20
0.0
 30
0.0
210
0.0
220
0.0
230
1.0
  2
SOLID
 70
     1
 71
     0
 91
        1
 92
        1
 93
        3
 72
     1
 10
31.53128667651924
 20
272.5910650570136
 11
32.03128668086541
 21
275.5910650830906
 72
     1
 10
32.03128668086542
 20
275.5910650830906
 11
32.53128668521159
 21
272.5910650570136
 72
     1
 10
32.53128668521159
 20
272.5910650570136
 11
31.53128667651925
 21
272.5910650570136
 97
        0
 75
     0
 76
     1
 98
        1
 10
0.0
 20
0.0
  0
LINE
  5
20B
330
179
100
AcDbEntity
  8
DEFAULT
  6
Continuous
 62
   136
370
     0
100
AcDbLine
 10
37.46201627494706
 20
176.5912630830906
 30
0.0
 11
30.5312866678269
 21
176.5912630830906
 31
0.0
  0
LINE
  5
20C
330
179
100
AcDbEntity
  8
DEFAULT
  6
Continuous
 62
   136
370
     0
100
AcDbLine
 10
78.96193327494701
 20
275.5910650830906
 30
0.0
 11
30.53128666782689
 21
275.5910650830906
 31
0.0
  0
LINE
  5
20D
330
179
100
AcDbEntity
  8
DEFAULT
  6
Continuous
 62
   136
370
     0
100
AcDbLine
 10
32.03128668086542
 20
176.5912630830906
 30
0.0
 11
32.03128668086542
 21
275.5910613809726
 31
0.0
  0
TEXT
  5
20E
330
179
100
AcDbEntity
  8
DEFAULT
  6
Continuous
 62
   136
370
     0
100
AcDbText
 10
31.28128668086541
 20
224.2502531411225
 30
0.0
 40
3.0
  1
99
 50
90.0
  7
seiso_ttf
 11
28.28128668086542
 21
224.2502531411225
 31
0.0
100
AcDbText
 73
     3
  0
ENDBLK
  5
288
330
179
100
AcDbEntity
  8
0
370
     0
100
AcDbBlockEnd
  0
BLOCK
  5
289
330
17C
100
AcDbEntity
  8
0
370
     0
100
AcDbBlockBegin
  2
DMBLK1449
 70
     0
 10
0.0
 20
0.0
 30
0.0
  3
DMBLK1449
  1

  0
LINE
  5
371
330
17C
100
AcDbEntity
  8
DEFAULT
  6
Continuous
 62
   136
370
    -2
100
AcDbLine
 10
37.46201627494706
 20
176.5912630830906
 30
0.0
 11
30.53128668086544
 21
176.5912630830906
 31
0.0
  0
LINE
  5
372
330
17C
100
AcDbEntity
  8
DEFAULT
  6
Continuous
 62
   136
370
    -2
100
AcDbLine
 10
78.96193327494701
 20
275.5910650830906
 30
0.0
 11
30.53128668086546
 21
275.5910650830906
 31
0.0
  0
LINE
  5
373
330
17C
100
AcDbEntity
  8
DEFAULT
  6
Continuous
 62
   136
370
    -2
100
AcDbLine
 10
32.03128668086544
 20
179.5912630830906
 30
0.0
 11
32.03128668086546
 21
272.5910650830906
 31
0.0
  0
INSERT
  5
374
330
17C
100
AcDbEntity
  8
DEFAULT
  6
Continuous
 62
   136
370
    -2
100
AcDbBlockReference
  2
_SE_FILLED
 10
32.03128668086544
 20
176.5912630830906
 30
0.0
 41
3.0
 42
3.0
 43
3.0
 50
270.0
  0
INSERT
  5
375
330
17C
100
AcDbEntity
  8
DEFAULT
  6
Continuous
 62
   136
370
    -2
100
AcDbBlockReference
  2
_SE_FILLED
 10
32.03128668086546
 20
275.5910650830906
 30
0.0
 41
3.0
 42
3.0
 43
3.0
 50
90.0
  0
MTEXT
  5
376
330
17C
100
AcDbEntity
  8
DEFAULT
  6
Continuous
 62
   136
370
     0
100
AcDbMText
 10
29.03128668086541
 20
226.0911622320316
 30
0.0
 40
3.0
 41
0.0
 71
     5
 72
     1
  1
\A1;\A1;99
  7
seiso_ttf
 11
0.0000000000000001
 21
1.0
 31
0.0
 73
     1
 44
1.0
1001
ACAD
1000
MTEXTBEGIN
1070
    73
1070
     1
1070
    44
1040
1.0
1070
    74
1070
     0
1000
MTEXTEND
  0
POINT
  5
377
330
17C
100
AcDbEntity
  8
Defpoints
  6
Continuous
 62
     0
370
     0
100
AcDbPoint
 10
37.46201627494706
 20
176.5912630830906
 30
0.0
  0
POINT
  5
378
330
17C
100
AcDbEntity
  8
Defpoints
  6
Continuous
 62
     0
370
     0
100
AcDbPoint
 10
78.96193327494701
 20
275.5910650830906
 30
0.0
  0
POINT
  5
379
330
17C
100
AcDbEntity
  8
Defpoints
  6
Continuous
 62
     0
370
     0
100
AcDbPoint
 10
32.03128668086546
 20
275.5910650830906
 30
0.0
  0
ENDBLK
  5
212
330
17C
100
AcDbEntity
  8
DEFAULT
 62
     0
 48
0.0
370
     0
100
AcDbBlockEnd
  0
BLOCK
  5
213
330
17E
100
AcDbEntity
  8
DEFAULT
 62
     1
 48
0.0
370
     0
100
AcDbBlockBegin
  2
SE13
 70
     0
 10
0.0
 20
0.0
 30
0.0
  3
SE13
  1

  0
LINE
  5
214
330
17E
100
AcDbEntity
  8
DEFAULT
  6
Continuous
 62
   136
370
     0
100
AcDbLine
 10
140.3269564922269
 20
117.8490174546901
 30
0.0
 11
152.3556346111156
 21
126.8106223221423
 31
0.0
  0
LINE
  5
215
330
17E
100
AcDbEntity
  8
DEFAULT
  6
Continuous
 62
   136
370
     0
100
AcDbLine
 10
152.3556346773208
 20
126.8106223714665
 30
0.0
 11
162.8904783948242
 21
134.6592908455507
 31
0.0
  0
HATCH
  5
216
330
17E
100
AcDbEntity
  8
DEFAULT
  6
Continuous
 62
   136
100
AcDbHatch
 10
0.0
 20
0.0
 30
0.0
210
0.0
220
0.0
230
1.0
  2
SOLID
 70
     1
 71
     0
 91
        1
 92
        1
 93
        3
 72
     1
 10
142.4339745047637
 20
120.0422970209228
 11
145.1384335651307
 21
121.4336637416716
 72
     1
 10
145.1384335651307
 20
121.4336637416716
 11
143.0314155525939
 21
119.2403841754388
 72
     1
 10
143.0314155525939
 20
119.2403841754388
 11
142.4339745047637
 21
120.0422970209228
 97
        0
 75
     0
 76
     1
 98
        1
 10
0.0
 20
0.0
  0
HATCH
  5
217
330
17E
100
AcDbEntity
  8
DEFAULT
  6
Continuous
 62
   136
100
AcDbHatch
 10
0.0
 20
0.0
 30
0.0
210
0.0
220
0.0
230
1.0
  2
SOLID
 70
     1
 71
     0
 91
        1
 92
        1
 93
        3
 72
     1
 10
154.4626526898576
 20
129.0039019376993
 11
152.3556346773208
 21
126.8106223714665
 72
     1
 10
152.3556346773208
 20
126.8106223714665
 11
155.0600937376878
 21
128.2019890922153
 72
     1
 10
155.0600937376878
 20
128.2019890922153
 11
154.4626526898576
 21
129.0039019376993
 97
        0
 75
     0
 76
     1
 98
        1
 10
0.0
 20
0.0
  0
TEXT
  5
218
330
17E
100
AcDbEntity
  8
DEFAULT
  6
Continuous
 62
   136
370
     0
100
AcDbText
 10
156.0018184334586
 20
130.462365658607
 30
0.0
 40
3.0
  1
O
 50
36.68684482472775
  7
semeci1_ttf
 11
154.2094953055473
 21
132.8681041741474
 31
0.0
100
AcDbText
 73
     3
  0
TEXT
  5
219
330
17E
100
AcDbEntity
  8
DEFAULT
  6
Continuous
 62
   136
370
     0
100
AcDbText
 10
160.1241406758081
 20
133.5335778655606
 30
0.0
 40
3.0
  1
9
 50
36.68684482472775
  7
seiso_ttf
 11
158.3318175478969
 21
135.939316381101
 31
0.0
100
AcDbText
 73
     3
  0
ENDBLK
  5
28A
330
17E
100
AcDbEntity
  8
0
370
     0
100
AcDbBlockEnd
  0
BLOCK
  5
28B
330
182
100
AcDbEntity
  8
0
370
     0
100
AcDbBlockBegin
  2
DMBLK1450
 70
     0
 10
0.0
 20
0.0
 30
0.0
  3
DMBLK1450
  1

  0
LINE
  5
37A
330
182
100
AcDbEntity
  8
DEFAULT
  6
Continuous
 62
   136
370
    -2
100
AcDbLine
 10
142.7326950495903
 20
119.6413406137603
 30
0.0
 11
140.3269565340499
 21
117.8490174858491
 31
0.0
  0
LINE
  5
37B
330
182
100
AcDbEntity
  8
DEFAULT
  6
Continuous
 62
   136
370
    -2
100
AcDbLine
 10
154.7613731928612
 20
128.6029454993777
 30
0.0
 11
157.1671117084016
 21
130.395268627289
 31
0.0
  0
MTEXT
  5
37C
102
{ACAD_XDICTIONARY
360
465
102
}
330
182
100
AcDbEntity
  8
DEFAULT
  6
Continuous
 62
   136
370
     0
100
AcDbMText
 10
155.6078907349973
 20
129.233617934953
 30
0.0
 40
3.0
 41
0.0
 71
     5
 72
     1
  1
\A1;\A1;\U+22059
  7
seiso_ttf
 73
     1
 44
1.0
1001
ACAD
1000
MTEXTBEGIN
1070
    73
1070
     1
1070
    44
1040
1.0
1070
    74
1070
     0
1000
MTEXTEND
  0
LINE
  5
37D
330
182
100
AcDbEntity
  8
DEFAULT
  6
Continuous
 62
   136
370
    -2
100
AcDbLine
 10
145.1384335651306
 20
121.4336637416715
 30
0.0
 11
152.3556346773208
 21
126.8106223714665
 31
0.0
  0
INSERT
  5
37E
330
182
100
AcDbEntity
  8
DEFAULT
  6
Continuous
 62
   136
370
    -2
100
AcDbBlockReference
  2
_SE_FILLED
 10
145.1384335651306
 20
121.4336637416715
 30
0.0
 41
3.0
 42
3.0
 43
3.0
 50
36.68684482472766
  0
INSERT
  5
37F
330
182
100
AcDbEntity
  8
DEFAULT
  6
Continuous
 62
   136
370
    -2
100
AcDbBlockReference
  2
_SE_FILLED
 10
152.3556346773208
 20
126.8106223714665
 30
0.0
 41
3.0
 42
3.0
 43
3.0
 50
216.6868448247277
  0
POINT
  5
380
330
182
100
AcDbEntity
  8
Defpoints
  6
Continuous
 62
     0
370
     0
100
AcDbPoint
 10
152.3556346773208
 20
126.8106223714665
 30
0.0
  0
POINT
  5
381
330
182
100
AcDbEntity
  8
Defpoints
  6
Continuous
 62
     0
370
     0
100
AcDbPoint
 10
145.1384335651306
 20
121.4336637416715
 30
0.0
  0
ENDBLK
  5
21D
330
182
100
AcDbEntity
  8
DEFAULT
 62
     0
 48
0.0
370
     0
100
AcDbBlockEnd
  0
ENDSEC
  0
SECTION
  2
ENTITIES
  0
HATCH
  5
6A
330
A
100
AcDbEntity
  8
0
  6
Continuous
 62
     7
100
AcDbHatch
 10
0.0
 20
0.0
 30
0.0
210
0.0
220
0.0
230
1.0
  2
ANSI31
 70
     0
 71
     0
 91
        1
 92
        1
 93
        7
 72
     3
 10
19.99996000000022
 20
69.99986000000001
 11
2.499995
 21
0.0
 40
1.0
 50
90.0
 51
179.9999999999974
 73
     1
 72
     1
 10
17.49996500000022
 20
69.99986000000001
 11
17.49996500000022
 21
50.2146591537211
 72
     1
 10
17.49996500000022
 20
50.21465915372111
 11
22.49995500000022
 21
50.21465915372111
 72
     1
 10
22.49995500000022
 20
50.21465915372111
 11
22.49995500000022
 21
67.49986500000002
 72
     1
 10
22.49995500000022
 20
67.49986500000002
 11
40.21467915372133
 21
67.49986500000002
 72
     1
 10
40.21467915372133
 20
67.49986500000002
 11
40.21467915372223
 21
72.49985500000004
 72
     1
 10
40.21467915372223
 20
72.49985500000002
 11
19.99996000000022
 21
72.49985500000002
 97
        0
 75
     0
 76
     1
 52
0.0000093619841673
 41
25.4
 77
     0
 78
     1
 53
45.0
 43
-58.7472141212257
 44
-34.12232305656907
 45
-2.245064030267287
 46
2.245064030267288
 79
     0
 98
        1
 10
-58.7472141212257
 20
-34.12232305656907
  0
HATCH
  5
6B
330
A
100
AcDbEntity
  8
0
  6
Continuous
 62
     7
100
AcDbHatch
 10
0.0
 20
0.0
 30
0.0
210
0.0
220
0.0
230
1.0
  2
ANSI31
 70
     0
 71
     0
 91
        1
 92
        1
 93
        7
 72
     1
 10
67.49986500000023
 20
67.49986500000002
 11
67.49986500000023
 21
50.21465915372113
 72
     1
 10
67.49986500000023
 20
50.21465915372111
 11
72.49985500000019
 21
50.21465915372111
 72
     1
 10
72.49985500000019
 20
50.21465915372111
 11
72.49985500000019
 21
69.99986000000001
 72
     3
 10
69.99986000000021
 20
69.99986000000001
 11
2.499995
 21
0.0
 40
1.0
 50
0.0
 51
90.0
 73
     1
 72
     1
 10
69.99986000000021
 20
72.49985500000002
 11
50.2146591537213
 21
72.49985500000002
 72
     1
 10
50.21465915372132
 20
72.49985500000002
 11
50.21465915372132
 21
67.49986500000002
 72
     1
 10
50.21465915372132
 20
67.49986500000002
 11
67.49986500000023
 21
67.49986500000002
 97
        0
 75
     0
 76
     1
 52
0.0000093619841673
 41
25.4
 77
     0
 78
     1
 53
45.0
 43
-58.7472141212257
 44
-34.12232305656907
 45
-2.245064030267287
 46
2.245064030267288
 79
     0
 98
        1
 10
-58.7472141212257
 20
-34.12232305656907
  0
HATCH
  5
6C
330
A
100
AcDbEntity
  8
0
  6
Continuous
 62
     7
100
AcDbHatch
 10
0.0
 20
0.0
 30
0.0
210
0.0
220
0.0
230
1.0
  2
ANSI31
 70
     0
 71
     0
 91
        1
 92
        1
 93
        7
 72
     1
 10
67.49986500000023
 20
22.49995499999998
 11
50.21465915372132
 21
22.49995499999998
 72
     1
 10
50.21465915372132
 20
22.49995499999998
 11
50.21465915372132
 21
17.49996500000003
 72
     1
 10
50.21465915372132
 20
17.49996500000003
 11
69.99986000000021
 21
17.49996500000003
 72
     3
 10
69.99986000000021
 20
19.99996000000001
 11
2.499995
 21
0.0
 40
1.0
 50
270.0
 51
360.0
 73
     1
 72
     1
 10
72.49985500000019
 20
19.99996000000001
 11
72.49985500000019
 21
40.21467915372204
 72
     1
 10
72.49985500000019
 20
40.21467915372204
 11
67.49986500000021
 21
40.21467915372112
 72
     1
 10
67.49986500000023
 20
40.21467915372112
 11
67.49986500000023
 21
22.49995499999999
 97
        0
 75
     0
 76
     1
 52
0.0000093619841673
 41
25.4
 77
     0
 78
     1
 53
45.0
 43
-58.7472141212257
 44
-34.12232305656907
 45
-2.245064030267287
 46
2.245064030267288
 79
     0
 98
        1
 10
-58.7472141212257
 20
-34.12232305656907
  0
HATCH
  5
6D
330
A
100
AcDbEntity
  8
0
  6
Continuous
 62
     7
100
AcDbHatch
 10
0.0
 20
0.0
 30
0.0
210
0.0
220
0.0
230
1.0
  2
ANSI31
 70
     0
 71
     0
 91
        1
 92
        1
 93
        7
 72
     1
 10
22.49995500000022
 20
22.49995499999998
 11
22.49995500000022
 21
40.21467915372112
 72
     1
 10
22.49995500000022
 20
40.21467915372112
 11
17.49996500000022
 21
40.21467915372204
 72
     1
 10
17.49996500000022
 20
40.21467915372204
 11
17.49996500000022
 21
19.99996000000001
 72
     3
 10
19.99996000000022
 20
19.99996000000001
 11
2.499995
 21
0.0
 40
1.0
 50
180.0
 51
270.0
 73
     1
 72
     1
 10
19.99996000000022
 20
17.49996500000003
 11
40.21467915372223
 21
17.49996500000003
 72
     1
 10
40.21467915372223
 20
17.49996500000003
 11
40.21467915372133
 21
22.49995500000002
 72
     1
 10
40.21467915372133
 20
22.49995500000002
 11
22.49995500000022
 21
22.499955
 97
        0
 75
     0
 76
     1
 52
0.0000093619841673
 41
25.4
 77
     0
 78
     1
 53
45.0
 43
-58.7472141212257
 44
-34.12232305656907
 45
-2.245064030267287
 46
2.245064030267288
 79
     0
 98
        1
 10
-58.7472141212257
 20
-34.12232305656907
  0
HATCH
  5
6E
330
A
100
AcDbEntity
  8
0
  6
Continuous
 62
     7
100
AcDbHatch
 10
0.0
 20
0.0
 30
0.0
210
0.0
220
0.0
230
1.0
  2
ANSI31
 70
     0
 71
     0
 91
        1
 92
        1
 93
       12
 72
     3
 10
68.49986300000023
 20
73.499853
 11
0.9999979999999998
 21
0.0
 40
1.0
 50
270.0
 51
360.0
 73
     1
 72
     1
 10
68.49986300000023
 20
72.49985500000002
 11
69.99986000000022
 21
72.49985500000002
 72
     3
 10
69.99986000000021
 20
69.99986000000001
 11
2.499995
 21
0.0
 40
1.0
 50
0.0
 51
90.0
 73
     1
 72
     1
 10
72.49985500000019
 20
69.99986000000001
 11
72.49985500000019
 21
68.49986300000001
 72
     3
 10
73.4998530000002
 20
68.49986300000003
 11
0.9999979999999998
 21
0.0
 40
1.0
 50
90.0
 51
180.0
 73
     1
 72
     1
 10
73.4998530000002
 20
69.49986100000001
 11
89.9998200000002
 21
69.49986100000001
 72
     1
 10
89.9998200000002
 20
69.49986100000001
 11
89.9998200000002
 21
72.49985500000001
 72
     1
 10
89.9998200000002
 20
72.49985500000002
 11
73.4998530000002
 21
72.49985500000002
 72
     3
 10
73.4998530000002
 20
73.499853
 11
0.9999979999999998
 21
0.0
 40
1.0
 50
180.0000000000065
 51
270.0
 73
     1
 72
     1
 10
72.49985500000019
 20
73.499853
 11
72.49985500000019
 21
89.99982000000001
 72
     1
 10
72.49985500000019
 20
89.99982000000001
 11
69.49986100000021
 21
89.99982000000001
 72
     1
 10
69.49986100000024
 20
89.99982000000001
 11
69.49986100000024
 21
73.49985299999999
 97
        0
 75
     0
 76
     1
 52
0.0000093619841673
 41
25.4
 77
     0
 78
     1
 53
45.0
 43
-58.7472141212257
 44
-34.12232305656907
 45
-2.245064030267287
 46
2.245064030267288
 79
     0
 98
        1
 10
-58.7472141212257
 20
-34.12232305656907
  0
HATCH
  5
6F
330
A
100
AcDbEntity
  8
0
  6
Continuous
 62
     7
100
AcDbHatch
 10
0.0
 20
0.0
 30
0.0
210
0.0
220
0.0
230
1.0
  2
ANSI31
 70
     0
 71
     0
 91
        1
 92
        1
 93
       12
 72
     1
 10
20.49995900000022
 20
89.99982000000001
 11
17.49996500000024
 21
89.99982000000001
 72
     1
 10
17.49996500000022
 20
89.99982000000001
 11
17.49996500000022
 21
73.49985299999999
 72
     3
 10
16.49996700000023
 20
73.499853
 11
0.9999979999999998
 21
0.0
 40
1.0
 50
270.0
 51
360.0
 73
     1
 72
     1
 10
16.49996700000023
 20
72.49985500000002
 11
0.0000000000002345
 21
72.49985500000002
 72
     1
 10
0.0000000000002274
 20
72.49985500000002
 11
0.0000000000002345
 21
69.49986100000002
 72
     1
 10
0.0000000000002274
 20
69.49986100000001
 11
16.49996700000023
 21
69.49986100000001
 72
     3
 10
16.49996700000023
 20
68.49986300000003
 11
0.9999979999999998
 21
0.0
 40
1.0
 50
0.0
 51
90.0
 73
     1
 72
     1
 10
17.49996500000022
 20
68.49986300000003
 11
17.49996500000022
 21
69.99986000000004
 72
     3
 10
19.99996000000022
 20
69.99986000000001
 11
2.499995
 21
0.0
 40
1.0
 50
90.0
 51
180.0
 73
     1
 72
     1
 10
19.99996000000022
 20
72.49985500000002
 11
21.49995700000023
 21
72.49985500000002
 72
     3
 10
21.49995700000022
 20
73.499853
 11
0.9999979999999998
 21
0.0
 40
1.0
 50
180.0000000000065
 51
270.0
 73
     1
 72
     1
 10
20.49995900000022
 20
73.499853
 11
20.49995900000022
 21
89.99982000000001
 97
        0
 75
     0
 76
     1
 52
0.0000093619841673
 41
25.4
 77
     0
 78
     1
 53
45.0
 43
-58.7472141212257
 44
-34.12232305656907
 45
-2.245064030267287
 46
2.245064030267288
 79
     0
 98
        1
 10
-58.7472141212257
 20
-34.12232305656907
  0
HATCH
  5
70
330
A
100
AcDbEntity
  8
0
  6
Continuous
 62
     7
100
AcDbHatch
 10
0.0
 20
0.0
 30
0.0
210
0.0
220
0.0
230
1.0
  2
ANSI31
 70
     0
 71
     0
 91
        1
 92
        1
 93
       12
 72
     3
 10
21.49995700000022
 20
16.499967
 11
0.9999979999999998
 21
0.0
 40
1.0
 50
90.0
 51
180.0
 73
     1
 72
     1
 10
21.49995700000022
 20
17.49996500000003
 11
19.9999600000002
 21
17.49996500000003
 72
     3
 10
19.99996000000022
 20
19.99996000000001
 11
2.499995
 21
0.0
 40
1.0
 50
180.0000000000024
 51
270.0
 73
     1
 72
     1
 10
17.49996500000022
 20
19.99996000000001
 11
17.49996500000022
 21
21.49995700000001
 72
     3
 10
16.49996700000023
 20
21.49995700000002
 11
0.9999979999999998
 21
0.0
 40
1.0
 50
270.0
 51
360.0
 73
     1
 72
     1
 10
16.49996700000023
 20
20.49995900000001
 11
0.0000000000002345
 21
20.49995900000001
 72
     1
 10
0.0000000000002274
 20
20.49995900000001
 11
0.0000000000002274
 21
17.499965
 72
     1
 10
0.0000000000002274
 20
17.499965
 11
16.49996700000023
 21
17.49996500000001
 72
     3
 10
16.49996700000023
 20
16.499967
 11
0.9999979999999998
 21
0.0
 40
1.0
 50
0.0
 51
90.0
 73
     1
 72
     1
 10
17.49996500000022
 20
16.499967
 11
17.49996500000022
 21
0.0
 72
     1
 10
17.49996500000022
 20
0.0
 11
20.49995900000021
 21
0.0
 72
     1
 10
20.49995900000022
 20
0.0
 11
20.49995900000022
 21
16.499967
 97
        0
 75
     0
 76
     1
 52
0.0000093619841673
 41
25.4
 77
     0
 78
     1
 53
45.0
 43
-58.7472141212257
 44
-34.12232305656907
 45
-2.245064030267287
 46
2.245064030267288
 79
     0
 98
        1
 10
-58.7472141212257
 20
-34.12232305656907
  0
HATCH
  5
71
330
A
100
AcDbEntity
  8
0
  6
Continuous
 62
     7
100
AcDbHatch
 10
0.0
 20
0.0
 30
0.0
210
0.0
220
0.0
230
1.0
  2
ANSI31
 70
     0
 71
     0
 91
        1
 92
        1
 93
       12
 72
     3
 10
73.4998530000002
 20
16.499967
 11
0.9999979999999998
 21
0.0
 40
1.0
 50
90.0
 51
180.0
 73
     1
 72
     1
 10
73.4998530000002
 20
17.49996500000003
 11
89.9998200000002
 21
17.49996500000003
 72
     1
 10
89.9998200000002
 20
17.49996500000003
 11
89.9998200000002
 21
20.49995900000001
 72
     1
 10
89.99982000000022
 20
20.49995900000001
 11
73.4998530000002
 21
20.49995900000001
 72
     3
 10
73.4998530000002
 20
21.49995700000002
 11
0.9999979999999998
 21
0.0
 40
1.0
 50
180.0000000000065
 51
270.0
 73
     1
 72
     1
 10
72.49985500000019
 20
21.49995700000002
 11
72.49985500000019
 21
19.99996000000001
 72
     3
 10
69.99986000000021
 20
19.99996000000001
 11
2.499995
 21
0.0
 40
1.0
 50
270.0
 51
360.0
 73
     1
 72
     1
 10
69.99986000000021
 20
17.49996500000003
 11
68.4998630000002
 21
17.49996500000003
 72
     3
 10
68.49986300000023
 20
16.499967
 11
0.9999979999999998
 21
0.0
 40
1.0
 50
0.0
 51
90.0
 73
     1
 72
     1
 10
69.49986100000024
 20
16.499967
 11
69.49986100000024
 21
0.0
 72
     1
 10
69.49986100000024
 20
0.0
 11
72.49985500000022
 21
0.0000000000000426
 72
     1
 10
72.49985500000019
 20
0.0000000000000284
 11
72.49985500000019
 21
16.499967
 97
        0
 75
     0
 76
     1
 52
0.0000093619841673
 41
25.4
 77
     0
 78
     1
 53
45.0
 43
-58.7472141212257
 44
-34.12232305656907
 45
-2.245064030267287
 46
2.245064030267288
 79
     0
 98
        1
 10
-58.7472141212257
 20
-34.12232305656907
  0
HATCH
  5
72
330
A
100
AcDbEntity
  8
0
  6
Continuous
 62
     7
100
AcDbHatch
 10
0.0
 20
0.0
 30
0.0
210
0.0
220
0.0
230
1.0
  2
ANSI31
 70
     0
 71
     0
 91
        1
 92
        1
 93
        1
 72
     4
 94
        1
 73
     0
 74
     0
 95
        7
 96
        5
 40
0.0
 40
0.0
 40
0.25
 40
0.5
 40
0.75
 40
1.0
 40
1.0
 10
97.73662952007468
 20
17.49996500000003
 10
97.73662952007468
 20
20.49995900000001
 10
89.9998200000002
 20
20.49995900000001
 10
89.9998200000002
 20
17.499965
 10
97.73662952007468
 20
17.49996500000003
 97
        0
 75
     0
 76
     1
 52
0.0000093619841673
 41
25.4
 77
     0
 78
     1
 53
45.0
 43
-58.7472141212257
 44
-34.12232305656907
 45
-2.245064030267287
 46
2.245064030267288
 79
     0
 98
        1
 10
-58.7472141212257
 20
-34.12232305656907
  0
HATCH
  5
73
330
A
100
AcDbEntity
  8
0
  6
Continuous
 62
     7
100
AcDbHatch
 10
0.0
 20
0.0
 30
0.0
210
0.0
220
0.0
230
1.0
  2
ANSI31
 70
     0
 71
     0
 91
        1
 92
        1
 93
        1
 72
     4
 94
        1
 73
     0
 74
     0
 95
        7
 96
        5
 40
0.0
 40
0.0
 40
0.25
 40
0.5
 40
0.75
 40
1.0
 40
1.0
 10
97.73662952007468
 20
69.49986100000001
 10
97.73662952007558
 20
72.49985500000002
 10
89.9998200000002
 20
72.49985500000002
 10
89.99982000000022
 20
69.49986100000001
 10
97.73662952007468
 20
69.49986100000001
 97
        0
 75
     0
 76
     1
 52
0.0000093619841673
 41
25.4
 77
     0
 78
     1
 53
45.0
 43
-58.7472141212257
 44
-34.12232305656907
 45
-2.245064030267287
 46
2.245064030267288
 79
     0
 98
        1
 10
-58.7472141212257
 20
-34.12232305656907
  0
HATCH
  5
74
330
A
100
AcDbEntity
  8
0
  6
Continuous
 62
     7
100
AcDbHatch
 10
0.0
 20
0.0
 30
0.0
210
0.0
220
0.0
230
1.0
  2
ANSI31
 70
     0
 71
     0
 91
        1
 92
        1
 93
        1
 72
     4
 94
        1
 73
     0
 74
     0
 95
        7
 96
        5
 40
0.0
 40
0.0
 40
0.25
 40
0.5
 40
0.75
 40
1.0
 40
1.0
 10
69.49986100000024
 20
89.99982000000002
 10
72.49985500000019
 20
89.99982000000002
 10
72.49985500000019
 20
97.73980452000069
 10
69.49986100000024
 20
97.73980452000069
 10
69.49986100000024
 20
89.99982000000002
 97
        0
 75
     0
 76
     1
 52
0.0000093619841673
 41
25.4
 77
     0
 78
     1
 53
45.0
 43
-58.7472141212257
 44
-34.12232305656907
 45
-2.245064030267287
 46
2.245064030267288
 79
     0
 98
        1
 10
-58.7472141212257
 20
-34.12232305656907
  0
HATCH
  5
75
330
A
100
AcDbEntity
  8
0
  6
Continuous
 62
     7
100
AcDbHatch
 10
0.0
 20
0.0
 30
0.0
210
0.0
220
0.0
230
1.0
  2
ANSI31
 70
     0
 71
     0
 91
        1
 92
        1
 93
        1
 72
     4
 94
        1
 73
     0
 74
     0
 95
        7
 96
        5
 40
0.0
 40
0.0
 40
0.25
 40
0.5
 40
0.75
 40
1.0
 40
1.0
 10
17.49996500000021
 20
89.99982000000002
 10
20.49995900000022
 20
89.99982000000002
 10
20.49995900000022
 20
97.73980452000072
 10
17.49996500000021
 20
97.73980451999982
 10
17.49996500000021
 20
89.99982000000002
 97
        0
 75
     0
 76
     1
 52
0.0000093619841673
 41
25.4
 77
     0
 78
     1
 53
45.0
 43
-58.7472141212257
 44
-34.12232305656907
 45
-2.245064030267287
 46
2.245064030267288
 79
     0
 98
        1
 10
-58.7472141212257
 20
-34.12232305656907
  0
HATCH
  5
76
330
A
100
AcDbEntity
  8
0
  6
Continuous
 62
     7
100
AcDbHatch
 10
0.0
 20
0.0
 30
0.0
210
0.0
220
0.0
230
1.0
  2
ANSI31
 70
     0
 71
     0
 91
        1
 92
        1
 93
        1
 72
     4
 94
        1
 73
     0
 74
     0
 95
        7
 96
        5
 40
0.0
 40
0.0
 40
0.25
 40
0.5
 40
0.75
 40
1.0
 40
1.0
 10
0.0000000000002274
 20
69.49986100000001
 10
0.0000000000002274
 20
72.49985500000002
 10
-7.307291212632023
 20
72.49985500000002
 10
-7.30729121263203
 20
69.49986100000001
 10
0.0000000000002274
 20
69.49986100000001
 97
        0
 75
     0
 76
     1
 52
0.0000093619841673
 41
25.4
 77
     0
 78
     1
 53
45.0
 43
-58.7472141212257
 44
-34.12232305656907
 45
-2.245064030267287
 46
2.245064030267288
 79
     0
 98
        1
 10
-58.7472141212257
 20
-34.12232305656907
  0
HATCH
  5
77
330
A
100
AcDbEntity
  8
0
  6
Continuous
 62
     7
100
AcDbHatch
 10
0.0
 20
0.0
 30
0.0
210
0.0
220
0.0
230
1.0
  2
ANSI31
 70
     0
 71
     0
 91
        1
 92
        1
 93
        1
 72
     4
 94
        1
 73
     0
 74
     0
 95
        7
 96
        5
 40
0.0
 40
0.0
 40
0.25
 40
0.5
 40
0.75
 40
1.0
 40
1.0
 10
-7.307291212632023
 20
20.49995900000001
 10
-7.30729121263203
 20
17.49996499999997
 10
0.0000000000002274
 20
17.49996499999997
 10
0.0000000000002274
 20
20.49995900000001
 10
-7.307291212632023
 20
20.49995900000001
 97
        0
 75
     0
 76
     1
 52
0.0000093619841673
 41
25.4
 77
     0
 78
     1
 53
45.0
 43
-58.7472141212257
 44
-34.12232305656907
 45
-2.245064030267287
 46
2.245064030267288
 79
     0
 98
        1
 10
-58.7472141212257
 20
-34.12232305656907
  0
HATCH
  5
78
330
A
100
AcDbEntity
  8
0
  6
Continuous
 62
     7
100
AcDbHatch
 10
0.0
 20
0.0
 30
0.0
210
0.0
220
0.0
230
1.0
  2
ANSI31
 70
     0
 71
     0
 91
        1
 92
        1
 93
        1
 72
     4
 94
        1
 73
     0
 74
     0
 95
        7
 96
        5
 40
0.0
 40
0.0
 40
0.25
 40
0.5
 40
0.75
 40
1.0
 40
1.0
 10
20.49995900000022
 20
0.0
 10
17.49996500000022
 20
0.0000000000000284
 10
17.49996500000021
 20
-7.739984519999772
 10
20.49995900000022
 20
-7.739984519999772
 10
20.49995900000022
 20
0.0
 97
        0
 75
     0
 76
     1
 52
0.0000093619841673
 41
25.4
 77
     0
 78
     1
 53
45.0
 43
-58.7472141212257
 44
-34.12232305656907
 45
-2.245064030267287
 46
2.245064030267288
 79
     0
 98
        1
 10
-58.7472141212257
 20
-34.12232305656907
  0
HATCH
  5
79
330
A
100
AcDbEntity
  8
0
  6
Continuous
 62
     7
100
AcDbHatch
 10
0.0
 20
0.0
 30
0.0
210
0.0
220
0.0
230
1.0
  2
ANSI31
 70
     0
 71
     0
 91
        1
 92
        1
 93
        1
 72
     4
 94
        1
 73
     0
 74
     0
 95
        7
 96
        5
 40
0.0
 40
0.0
 40
0.25
 40
0.5
 40
0.75
 40
1.0
 40
1.0
 10
69.49986100000024
 20
-7.739984519999772
 10
72.49985500000019
 20
-7.739984519999772
 10
72.49985500000019
 20
0.0
 10
69.49986100000024
 20
0.0
 10
69.49986100000024
 20
-7.739984519999772
 97
        0
 75
     0
 76
     1
 52
0.0000093619841673
 41
25.4
 77
     0
 78
     1
 53
45.0
 43
-58.7472141212257
 44
-34.12232305656907
 45
-2.245064030267287
 46
2.245064030267288
 79
     0
 98
        1
 10
-58.7472141212257
 20
-34.12232305656907
  0
ARC
  5
7A
330
A
100
AcDbEntity
  8
0
  6
Continuous
 62
     7
370
     0
100
AcDbCircle
 10
68.49986300000011
 20
16.499967
 30
0.0
 40
0.9999979999999998
100
AcDbArc
 50
0.0
 51
90.0
  0
LINE
  5
7B
330
A
100
AcDbEntity
  8
CONTORNO
  6
Continuous
 62
     7
370
     0
100
AcDbLine
 10
72.49985500000019
 20
50.21465915372111
 30
0.0
 11
67.49986500000019
 21
50.21465915372111
 31
0.0
  0
LINE
  5
7C
330
A
100
AcDbEntity
  8
CONTORNO
  6
Continuous
 62
     7
370
     0
100
AcDbLine
 10
72.49985500000019
 20
40.21467915372204
 30
0.0
 11
67.49986500000019
 21
40.21467915372112
 31
0.0
  0
ARC
  5
7D
330
A
100
AcDbEntity
  8
0
  6
Continuous
 62
     7
370
     0
100
AcDbCircle
 10
68.49986300000011
 20
73.499853
 30
0.0
 40
0.9999979999999998
100
AcDbArc
 50
270.0
 51
0.0
  0
LINE
  5
7E
330
A
100
AcDbEntity
  8
0
  6
Continuous
 62
     7
370
     0
100
AcDbLine
 10
19.99996000000022
 20
17.49996500000003
 30
0.0
 11
69.99986000000021
 21
17.49996500000003
 31
0.0
  0
LINE
  5
7F
330
A
100
AcDbEntity
  8
0
  6
Continuous
 62
     7
370
     0
100
AcDbLine
 10
19.99996000000022
 20
72.49985500000002
 30
0.0
 11
69.99986000000021
 21
72.49985500000002
 31
0.0
  0
LINE
  5
80
330
A
100
AcDbEntity
  8
0
  6
Continuous
 62
     7
370
     0
100
AcDbLine
 10
89.9998200000002
 20
112.499775
 30
0.0
 11
0.0000000000002061
 21
112.499775
 31
0.0
  0
LINE
  5
81
330
A
100
AcDbEntity
  8
0
  6
Continuous
 62
     7
370
     0
100
AcDbLine
 10
0.0000000000002274
 20
-22.49995500000002
 30
0.0
 11
89.9998200000002
 21
-22.49995500000002
 31
0.0
  0
LINE
  5
85
330
A
100
AcDbEntity
  8
0
  6
Continuous
 62
     7
370
     0
100
AcDbLine
 10
-22.28519584627868
 20
136.4689520265215
 30
0.0
 11
112.7145341537213
 21
136.4689520265215
 31
0.0
  0
LINE
  5
86
330
A
100
AcDbEntity
  8
0
  6
Continuous
 62
     7
370
     0
100
AcDbLine
 10
-21.28519784627865
 20
142.4689400265215
 30
0.0
 11
111.7145361537213
 21
142.4689400265215
 31
0.0
  0
LINE
  5
87
330
A
100
AcDbEntity
  8
0
  6
Continuous
 62
     7
370
     0
100
AcDbLine
 10
20.21471915372131
 20
241.4687420265215
 30
0.0
 11
70.21461915372132
 21
241.4687420265215
 31
0.0
  0
LINE
  5
88
330
A
100
AcDbEntity
  8
0
  6
Continuous
 62
     7
370
     0
100
AcDbLine
 10
17.49996500000022
 20
16.499967
 30
0.0
 11
17.49996500000022
 21
-20.99995800000001
 31
0.0
  0
LINE
  5
89
330
A
100
AcDbEntity
  8
0
  6
Continuous
 62
     7
370
     0
100
AcDbLine
 10
20.49995900000022
 20
16.499967
 30
0.0
 11
20.49995900000022
 21
-20.99995800000001
 31
0.0
  0
ARC
  5
8A
330
A
100
AcDbEntity
  8
0
  6
Continuous
 62
     7
370
     0
100
AcDbCircle
 10
0.0
 20
0.0
 30
0.0
 40
22.499955
100
AcDbArc
 50
180.0
 51
270.0
  0
ARC
  5
8D
330
A
100
AcDbEntity
  8
0
  6
Continuous
 62
     7
370
     0
100
AcDbCircle
 10
18.9999620000001
 20
-20.99995800000002
 30
0.0
 40
1.499996999999999
100
AcDbArc
 50
180.0
 51
0.0
  0
LINE
  5
8E
330
A
100
AcDbEntity
  8
0
  6
Continuous
 62
     7
370
     0
100
AcDbLine
 10
16.49996700000023
 20
69.49986100000001
 30
0.0
 11
-20.99995799999977
 21
69.49986100000001
 31
0.0
  0
LINE
  5
8F
330
A
100
AcDbEntity
  8
0
  6
Continuous
 62
     7
370
     0
100
AcDbLine
 10
16.49996700000023
 20
72.49985500000002
 30
0.0
 11
-20.99995799999977
 21
72.49985500000002
 31
0.0
  0
ARC
  5
90
330
A
100
AcDbEntity
  8
0
  6
Continuous
 62
     7
370
     0
100
AcDbCircle
 10
0.0000000000002274
 20
89.99982000000001
 30
0.0
 40
22.499955
100
AcDbArc
 50
90.0
 51
180.0
  0
LINE
  5
91
330
A
100
AcDbEntity
  8
0
  6
Continuous
 62
     7
370
     0
100
AcDbLine
 10
16.49996700000023
 20
17.49996500000003
 30
0.0
 11
-20.99995799999977
 21
17.49996500000003
 31
0.0
  0
LINE
  5
92
330
A
100
AcDbEntity
  8
0
  6
Continuous
 62
     7
370
     0
100
AcDbLine
 10
16.49996700000023
 20
20.49995900000001
 30
0.0
 11
-20.99995799999977
 21
20.49995900000001
 31
0.0
  0
LINE
  5
93
330
A
100
AcDbEntity
  8
0
  6
Continuous
 62
     7
370
     0
100
AcDbLine
 10
17.71472415372133
 20
213.4687980265216
 30
0.0
 11
-22.15644410378303
 21
142.6974745694517
 31
0.0
  0
LINE
  5
94
330
A
100
AcDbEntity
  8
0
  6
Continuous
 62
     7
370
     0
100
AcDbLine
 10
-22.49995499999978
 20
89.99982000000001
 30
0.0
 11
-22.49995499999978
 21
0.0000000000000071
 31
0.0
  0
ARC
  5
95
330
A
100
AcDbEntity
  8
0
  6
Continuous
 62
     7
370
     0
100
AcDbCircle
 10
-20.99995799999978
 20
18.99996200000001
 30
0.0
 40
1.499996999999999
100
AcDbArc
 50
90.0
 51
270.0
  0
ARC
  5
96
330
A
100
AcDbEntity
  8
0
  6
Continuous
 62
     7
370
     0
100
AcDbCircle
 10
-20.99995799999978
 20
70.99985800000002
 30
0.0
 40
1.499996999999999
100
AcDbArc
 50
90.0
 51
270.0
  0
LINE
  5
97
330
A
100
AcDbEntity
  8
0
  6
Continuous
 62
     7
370
     0
100
AcDbLine
 10
-22.28519584627866
 20
142.2066325511372
 30
0.0
 11
-22.28519584627868
 21
136.4689520265215
 31
0.0
  0
ARC
  5
98
330
A
100
AcDbEntity
  8
0
  6
Continuous
 62
     7
370
     0
100
AcDbCircle
 10
-21.28519784627865
 20
141.4689420265215
 30
0.0
 40
0.9999979999999998
100
AcDbArc
 50
90.0
 51
180.0
  0
ARC
  5
99
330
A
100
AcDbEntity
  8
0
  6
Continuous
 62
     7
370
     0
100
AcDbCircle
 10
-21.28519784627865
 20
142.2066325511372
 30
0.0
 40
0.9999979999999998
100
AcDbArc
 50
150.6039469999995
 51
180.0
  0
LINE
  5
9A
330
A
100
AcDbEntity
  8
0
  6
Continuous
 62
     7
370
     0
100
AcDbLine
 10
22.49995500000022
 20
67.49986500000002
 30
0.0
 11
67.49986500000023
 21
67.49986500000002
 31
0.0
  0
LINE
  5
9B
330
A
100
AcDbEntity
  8
0
  6
Continuous
 62
     7
370
     0
100
AcDbLine
 10
22.49995500000022
 20
22.49995500000002
 30
0.0
 11
67.49986500000023
 21
22.49995500000002
 31
0.0
  0
LINE
  5
9C
330
A
100
AcDbEntity
  8
0
  6
Continuous
 62
     7
370
     0
100
AcDbLine
 10
22.49995500000022
 20
67.49986500000002
 30
0.0
 11
22.49995500000022
 21
22.49995500000002
 31
0.0
  0
LINE
  5
9D
330
A
100
AcDbEntity
  8
0
  6
Continuous
 62
     7
370
     0
100
AcDbLine
 10
17.49996500000022
 20
69.99986000000001
 30
0.0
 11
17.49996500000022
 21
19.99996000000003
 31
0.0
  0
LINE
  5
9E
330
A
100
AcDbEntity
  8
0
  6
Continuous
 62
     7
370
     0
100
AcDbLine
 10
7.499985000000215
 20
52.49989500000001
 30
0.0
 11
17.49996500000022
 21
52.49989500000001
 31
0.0
  0
LINE
  5
9F
330
A
100
AcDbEntity
  8
0
  6
Continuous
 62
     7
370
     0
100
AcDbLine
 10
7.499985000000215
 20
37.49992500000001
 30
0.0
 11
17.49996500000022
 21
37.49992500000001
 31
0.0
  0
CIRCLE
  5
A0
330
A
100
AcDbEntity
  8
0
  6
Continuous
 62
     7
370
     0
100
AcDbCircle
 10
0.0
 20
0.0
 30
0.0
 40
4.499990999999999
  0
LINE
  5
A1
330
A
100
AcDbEntity
  8
CONTORNO
  6
Continuous
 62
     7
370
     0
100
AcDbLine
 10
-7.307291212632023
 20
20.49995900000001
 30
0.0
 11
-7.307291212632023
 21
17.49996500000002
 31
0.0
  0
LINE
  5
A2
330
A
100
AcDbEntity
  8
0
  6
Continuous
 62
     7
370
     0
100
AcDbLine
 10
7.499985000000215
 20
37.49992500000001
 30
0.0
 11
7.499985000000215
 21
52.49989500000093
 31
0.0
  0
ARC
  5
A3
330
A
100
AcDbEntity
  8
0
  6
Continuous
 62
     7
370
     0
100
AcDbCircle
 10
21.49995700000012
 20
16.499967
 30
0.0
 40
0.9999979999999998
100
AcDbArc
 50
90.0
 51
180.0
  0
LINE
  5
A4
330
A
100
AcDbEntity
  8
CONTORNO
  6
Continuous
 62
     7
370
     0
100
AcDbLine
 10
20.49995900000114
 20
-7.739984519999772
 30
0.0
 11
17.49996500000022
 21
-7.739984519999772
 31
0.0
  0
ARC
  5
A5
330
A
100
AcDbEntity
  8
0
  6
Continuous
 62
     7
370
     0
100
AcDbCircle
 10
19.99996000000011
 20
19.99996000000001
 30
0.0
 40
2.499995
100
AcDbArc
 50
180.0
 51
270.0
  0
ARC
  5
A6
330
A
100
AcDbEntity
  8
0
  6
Continuous
 62
     7
370
     0
100
AcDbCircle
 10
16.49996700000023
 20
16.499967
 30
0.0
 40
0.9999979999999998
100
AcDbArc
 50
0.0
 51
90.0
  0
ARC
  5
A7
330
A
100
AcDbEntity
  8
0
  6
Continuous
 62
     7
370
     0
100
AcDbCircle
 10
16.49996700000023
 20
21.49995700000002
 30
0.0
 40
0.9999979999999998
100
AcDbArc
 50
270.0
 51
0.0
  0
LINE
  5
A8
330
A
100
AcDbEntity
  8
CONTORNO
  6
Continuous
 62
     7
370
     0
100
AcDbLine
 10
17.49996500000022
 20
50.21465915372111
 30
0.0
 11
22.49995500000022
 21
50.21465915372111
 31
0.0
  0
LINE
  5
A9
330
A
100
AcDbEntity
  8
CONTORNO
  6
Continuous
 62
     7
370
     0
100
AcDbLine
 10
17.49996500000022
 20
40.21467915372204
 30
0.0
 11
22.49995500000022
 21
40.21467915372112
 31
0.0
  0
CIRCLE
  5
AA
330
A
100
AcDbEntity
  8
0
  6
Continuous
 62
     7
370
     0
100
AcDbCircle
 10
0.0000000000002274
 20
89.99982000000001
 30
0.0
 40
4.499990999999999
  0
LINE
  5
AB
330
A
100
AcDbEntity
  8
CONTORNO
  6
Continuous
 62
     7
370
     0
100
AcDbLine
 10
-7.307291212632023
 20
72.49985500000002
 30
0.0
 11
-7.307291212632023
 21
69.49986100000003
 31
0.0
  0
LINE
  5
AC
330
A
100
AcDbEntity
  8
0
  6
Continuous
 62
     7
370
     0
100
AcDbLine
 10
20.49995900000022
 20
73.499853
 30
0.0
 11
20.49995900000022
 21
110.999778
 31
0.0
  0
LINE
  5
AD
330
A
100
AcDbEntity
  8
0
  6
Continuous
 62
     7
370
     0
100
AcDbLine
 10
17.49996500000022
 20
73.499853
 30
0.0
 11
17.49996500000022
 21
110.999778
 31
0.0
  0
ARC
  5
AE
330
A
100
AcDbEntity
  8
0
  6
Continuous
 62
     7
370
     0
100
AcDbCircle
 10
21.49995700000012
 20
73.499853
 30
0.0
 40
0.9999979999999998
100
AcDbArc
 50
180.0
 51
270.0
  0
ARC
  5
AF
330
A
100
AcDbEntity
  8
0
  6
Continuous
 62
     7
370
     0
100
AcDbCircle
 10
19.99996000000011
 20
69.99986000000001
 30
0.0
 40
2.499995
100
AcDbArc
 50
90.0
 51
180.0
  0
ARC
  5
B0
330
A
100
AcDbEntity
  8
0
  6
Continuous
 62
     7
370
     0
100
AcDbCircle
 10
16.49996700000023
 20
68.49986300000003
 30
0.0
 40
0.9999979999999998
100
AcDbArc
 50
0.0
 51
90.0
  0
ARC
  5
B1
330
A
100
AcDbEntity
  8
0
  6
Continuous
 62
     7
370
     0
100
AcDbCircle
 10
16.49996700000023
 20
73.499853
 30
0.0
 40
0.9999979999999998
100
AcDbArc
 50
270.0
 51
0.0
  0
LINE
  5
B2
330
A
100
AcDbEntity
  8
CONTORNO
  6
Continuous
 62
     7
370
     0
100
AcDbLine
 10
17.49996499999931
 20
97.73980451999978
 30
0.0
 11
20.49995900000022
 21
97.73980452000069
 31
0.0
  0
ARC
  5
B3
330
A
100
AcDbEntity
  8
0
  6
Continuous
 62
     7
370
     0
100
AcDbCircle
 10
18.9999620000001
 20
110.999778
 30
0.0
 40
1.499996999999999
100
AcDbArc
 50
0.0
 51
180.0
  0
LINE
  5
B4
330
A
100
AcDbEntity
  8
0
  6
Continuous
 62
     7
370
     0
100
AcDbLine
 10
67.49986500000023
 20
67.49986500000002
 30
0.0
 11
67.49986500000023
 21
22.49995500000002
 31
0.0
  0
LINE
  5
B5
330
A
100
AcDbEntity
  8
0
  6
Continuous
 62
     7
370
     0
100
AcDbLine
 10
37.49992500000022
 20
7.499985000000016
 30
0.0
 11
52.49989500000114
 21
7.499985000000016
 31
0.0
  0
LINE
  5
B6
330
A
100
AcDbEntity
  8
0
  6
Continuous
 62
     7
370
     0
100
AcDbLine
 10
37.49992500000022
 20
7.499985000000016
 30
0.0
 11
37.49992500000022
 21
17.49996500000001
 31
0.0
  0
LINE
  5
B7
330
A
100
AcDbEntity
  8
CONTORNO
  6
Continuous
 62
     7
370
     0
100
AcDbLine
 10
40.21467915372223
 20
17.49996500000003
 30
0.0
 11
40.21467915372133
 21
22.49995500000002
 31
0.0
  0
LINE
  5
B8
330
A
100
AcDbEntity
  8
CONTORNO
  6
Continuous
 62
     7
370
     0
100
AcDbLine
 10
50.21465915372132
 20
17.49996500000003
 30
0.0
 11
50.21465915372132
 21
22.49995500000002
 31
0.0
  0
LINE
  5
B9
330
A
100
AcDbEntity
  8
0
  6
Continuous
 62
     7
370
     0
100
AcDbLine
 10
52.49989500000022
 20
7.499985000000016
 30
0.0
 11
52.49989500000022
 21
17.49996500000001
 31
0.0
  0
LINE
  5
BA
330
A
100
AcDbEntity
  8
0
  6
Continuous
 62
     7
370
     0
100
AcDbLine
 10
37.49992500000022
 20
82.49983500000002
 30
0.0
 11
52.49989500000114
 21
82.49983500000002
 31
0.0
  0
LINE
  5
BB
330
A
100
AcDbEntity
  8
0
  6
Continuous
 62
     7
370
     0
100
AcDbLine
 10
37.49992500000022
 20
82.49983500000002
 30
0.0
 11
37.49992500000022
 21
72.49985500000002
 31
0.0
  0
LINE
  5
BC
330
A
100
AcDbEntity
  8
CONTORNO
  6
Continuous
 62
     7
370
     0
100
AcDbLine
 10
40.21467915372223
 20
72.49985500000002
 30
0.0
 11
40.21467915372133
 21
67.49986500000002
 31
0.0
  0
LINE
  5
BD
330
A
100
AcDbEntity
  8
CONTORNO
  6
Continuous
 62
     7
370
     0
100
AcDbLine
 10
50.21465915372132
 20
72.49985500000002
 30
0.0
 11
50.21465915372132
 21
67.49986500000002
 31
0.0
  0
LINE
  5
BE
330
A
100
AcDbEntity
  8
0
  6
Continuous
 62
     7
370
     0
100
AcDbLine
 10
52.49989500000022
 20
82.49983500000002
 30
0.0
 11
52.49989500000022
 21
72.49985500000002
 31
0.0
  0
LINE
  5
BF
330
A
100
AcDbEntity
  8
0
  6
Continuous
 62
     7
370
     0
100
AcDbLine
 10
20.71471815372131
 20
211.9688010265215
 30
0.0
 11
20.71471815372131
 21
142.4689400265215
 31
0.0
  0
LINE
  5
C0
330
A
100
AcDbEntity
  8
0
  6
Continuous
 62
     7
370
     0
100
AcDbLine
 10
17.71472415372133
 20
238.9687470265215
 30
0.0
 11
17.71472415372133
 21
142.4689400265215
 31
0.0
  0
LINE
  5
C1
330
A
100
AcDbEntity
  8
7
  6
HIDDEN2
 62
     7
370
     0
100
AcDbLine
 10
22.71471415372133
 20
241.4687420265215
 30
0.0
 11
22.71471415372133
 21
142.4689400265215
 31
0.0
  0
LINE
  5
C3
330
A
100
AcDbEntity
  8
7
  6
HIDDEN2
 62
     7
370
     0
100
AcDbLine
 10
-4.499990999999546
 20
136.4689520265215
 30
0.0
 11
-4.499990999999745
 21
142.4689400265215
 31
0.0
  0
LINE
  5
C4
330
A
100
AcDbEntity
  8
7
  6
HIDDEN2
 62
     7
370
     0
100
AcDbLine
 10
4.499991000000214
 20
136.4689520265215
 30
0.0
 11
4.499991000000214
 21
142.4689400265215
 31
0.0
  0
ARC
  5
C5
330
A
100
AcDbEntity
  8
0
  6
Continuous
 62
     7
370
     0
100
AcDbCircle
 10
19.21472115372121
 20
211.9688010265215
 30
0.0
 40
1.499996999999999
100
AcDbArc
 50
0.0
 51
180.0
  0
ARC
  5
C6
330
A
100
AcDbEntity
  8
0
  6
Continuous
 62
     7
370
     0
100
AcDbCircle
 10
20.21471915372121
 20
238.9687470265215
 30
0.0
 40
2.499995
100
AcDbArc
 50
90.0
 51
180.0
  0
LINE
  5
C8
330
A
100
AcDbEntity
  8
7
  6
HIDDEN2
 62
     7
370
     0
100
AcDbLine
 10
67.71462415372136
 20
241.4687420265215
 30
0.0
 11
67.71462415372133
 21
142.4689400265215
 31
0.0
  0
ARC
  5
C9
330
A
100
AcDbEntity
  8
0
  6
Continuous
 62
     7
370
     0
100
AcDbCircle
 10
45.21466915372121
 20
181.4688620265215
 30
0.0
 40
4.99999
100
AcDbArc
 50
0.0
 51
180.0
  0
LINE
  5
CA
330
A
100
AcDbEntity
  8
ASSE
  6
CENTER2
 62
     7
370
     0
100
AcDbLine
 10
39.21468115372132
 20
181.4688620265215
 30
0.0
 11
51.21465715372131
 21
181.4688620265215
 31
0.0
  0
LINE
  5
CB
330
A
100
AcDbEntity
  8
0
  6
Continuous
 62
     7
370
     0
100
AcDbLine
 10
40.21467915372133
 20
142.4689400265215
 30
0.0
 11
40.21467915372133
 21
181.4688620265215
 31
0.0
  0
LINE
  5
CC
330
A
100
AcDbEntity
  8
7
  6
HIDDEN2
 62
     7
370
     0
100
AcDbLine
 10
37.49992500000022
 20
136.4689520265215
 30
0.0
 11
37.49992500000022
 21
142.4689400265215
 31
0.0
  0
LINE
  5
CD
330
A
100
AcDbEntity
  8
0
  6
Continuous
 62
     7
370
     0
100
AcDbLine
 10
50.21465915372132
 20
142.4689400265215
 30
0.0
 11
50.21465915372132
 21
181.4688620265215
 31
0.0
  0
LINE
  5
CE
330
A
100
AcDbEntity
  8
7
  6
HIDDEN2
 62
     7
370
     0
100
AcDbLine
 10
52.49989500000022
 20
136.4689520265215
 30
0.0
 11
52.49989500000022
 21
142.4689400265215
 31
0.0
  0
LINE
  5
CF
330
A
100
AcDbEntity
  8
0
  6
Continuous
 62
     7
370
     0
100
AcDbLine
 10
72.49985500000019
 20
16.499967
 30
0.0
 11
72.49985500000019
 21
-20.99995800000001
 31
0.0
  0
LINE
  5
D0
330
A
100
AcDbEntity
  8
0
  6
Continuous
 62
     7
370
     0
100
AcDbLine
 10
69.49986100000024
 20
16.499967
 30
0.0
 11
69.49986100000024
 21
-20.99995800000001
 31
0.0
  0
ARC
  5
D1
330
A
100
AcDbEntity
  8
0
  6
Continuous
 62
     7
370
     0
100
AcDbCircle
 10
89.99982000000008
 20
0.0
 30
0.0
 40
22.499955
100
AcDbArc
 50
270.0
 51
0.0
  0
ARC
  5
D3
330
A
100
AcDbEntity
  8
0
  6
Continuous
 62
     7
370
     0
100
AcDbCircle
 10
70.9998580000001
 20
-20.99995800000002
 30
0.0
 40
1.499996999999999
100
AcDbArc
 50
180.0
 51
0.0
  0
ARC
  5
D4
330
A
100
AcDbEntity
  8
0
  6
Continuous
 62
     7
370
     0
100
AcDbCircle
 10
89.99982000000008
 20
89.99982000000001
 30
0.0
 40
22.499955
100
AcDbArc
 50
0.0
 51
90.0
  0
LINE
  5
D5
330
A
100
AcDbEntity
  8
0
  6
Continuous
 62
     7
370
     0
100
AcDbLine
 10
73.4998530000002
 20
72.49985500000002
 30
0.0
 11
110.9997780000002
 21
72.49985500000002
 31
0.0
  0
LINE
  5
D6
330
A
100
AcDbEntity
  8
0
  6
Continuous
 62
     7
370
     0
100
AcDbLine
 10
73.4998530000002
 20
69.49986100000001
 30
0.0
 11
110.9997780000002
 21
69.49986100000001
 31
0.0
  0
LINE
  5
D7
330
A
100
AcDbEntity
  8
0
  6
Continuous
 62
     7
370
     0
100
AcDbLine
 10
73.4998530000002
 20
20.49995900000001
 30
0.0
 11
110.9997780000002
 21
20.49995900000001
 31
0.0
  0
LINE
  5
D8
330
A
100
AcDbEntity
  8
0
  6
Continuous
 62
     7
370
     0
100
AcDbLine
 10
73.4998530000002
 20
17.49996500000003
 30
0.0
 11
110.9997780000002
 21
17.49996500000003
 31
0.0
  0
LINE
  5
D9
330
A
100
AcDbEntity
  8
0
  6
Continuous
 62
     7
370
     0
100
AcDbLine
 10
72.49985500000019
 20
69.99986000000001
 30
0.0
 11
72.49985500000019
 21
19.99996000000003
 31
0.0
  0
CIRCLE
  5
DA
330
A
100
AcDbEntity
  8
0
  6
Continuous
 62
     7
370
     0
100
AcDbCircle
 10
89.99982000000008
 20
0.0
 30
0.0
 40
4.499990999999999
  0
LINE
  5
DB
330
A
100
AcDbEntity
  8
CONTORNO
  6
Continuous
 62
     7
370
     0
100
AcDbLine
 10
69.4998609999993
 20
-7.739984519999772
 30
0.0
 11
72.49985500000019
 21
-7.739984519999772
 31
0.0
  0
ARC
  5
DC
330
A
100
AcDbEntity
  8
0
  6
Continuous
 62
     7
370
     0
100
AcDbCircle
 10
73.49985300000009
 20
21.49995700000002
 30
0.0
 40
0.9999979999999998
100
AcDbArc
 50
180.0
 51
270.0
  0
ARC
  5
DD
330
A
100
AcDbEntity
  8
0
  6
Continuous
 62
     7
370
     0
100
AcDbCircle
 10
73.49985300000009
 20
16.499967
 30
0.0
 40
0.9999979999999998
100
AcDbArc
 50
90.0
 51
180.0
  0
ARC
  5
DE
330
A
100
AcDbEntity
  8
0
  6
Continuous
 62
     7
370
     0
100
AcDbCircle
 10
69.99986000000013
 20
19.99996000000001
 30
0.0
 40
2.499995
100
AcDbArc
 50
270.0
 51
0.0
  0
LINE
  5
DF
330
A
100
AcDbEntity
  8
0
  6
Continuous
 62
     7
370
     0
100
AcDbLine
 10
82.49983500000022
 20
52.49989500000001
 30
0.0
 11
72.49985500000022
 21
52.49989500000001
 31
0.0
  0
LINE
  5
E0
330
A
100
AcDbEntity
  8
0
  6
Continuous
 62
     7
370
     0
100
AcDbLine
 10
82.49983500000022
 20
37.49992500000001
 30
0.0
 11
72.49985500000022
 21
37.49992500000001
 31
0.0
  0
LINE
  5
E1
330
A
100
AcDbEntity
  8
0
  6
Continuous
 62
     7
370
     0
100
AcDbLine
 10
82.49983500000022
 20
37.49992500000001
 30
0.0
 11
82.49983500000022
 21
52.49989500000093
 31
0.0
  0
LINE
  5
E2
330
A
100
AcDbEntity
  8
CONTORNO
  6
Continuous
 62
     7
370
     0
100
AcDbLine
 10
97.73662952007468
 20
20.49995900000001
 30
0.0
 11
97.73662952007468
 21
17.49996500000002
 31
0.0
  0
CIRCLE
  5
E3
330
A
100
AcDbEntity
  8
0
  6
Continuous
 62
     7
370
     0
100
AcDbCircle
 10
89.99982000000008
 20
89.99982000000001
 30
0.0
 40
4.499990999999999
  0
LINE
  5
E4
330
A
100
AcDbEntity
  8
0
  6
Continuous
 62
     7
370
     0
100
AcDbLine
 10
72.49985500000019
 20
73.499853
 30
0.0
 11
72.49985500000019
 21
110.999778
 31
0.0
  0
LINE
  5
E5
330
A
100
AcDbEntity
  8
0
  6
Continuous
 62
     7
370
     0
100
AcDbLine
 10
69.49986100000024
 20
73.499853
 30
0.0
 11
69.49986100000024
 21
110.999778
 31
0.0
  0
ARC
  5
E6
330
A
100
AcDbEntity
  8
0
  6
Continuous
 62
     7
370
     0
100
AcDbCircle
 10
69.99986000000013
 20
69.99986000000001
 30
0.0
 40
2.499995
100
AcDbArc
 50
0.0
 51
90.0
  0
ARC
  5
E7
330
A
100
AcDbEntity
  8
0
  6
Continuous
 62
     7
370
     0
100
AcDbCircle
 10
73.49985300000009
 20
68.49986300000003
 30
0.0
 40
0.9999979999999998
100
AcDbArc
 50
90.0
 51
180.0
  0
ARC
  5
E8
330
A
100
AcDbEntity
  8
0
  6
Continuous
 62
     7
370
     0
100
AcDbCircle
 10
73.49985300000009
 20
73.499853
 30
0.0
 40
0.9999979999999998
100
AcDbArc
 50
180.0
 51
270.0
  0
LINE
  5
E9
330
A
100
AcDbEntity
  8
CONTORNO
  6
Continuous
 62
     7
370
     0
100
AcDbLine
 10
69.49986100000024
 20
97.73980452000069
 30
0.0
 11
72.49985499999931
 21
97.73980452000069
 31
0.0
  0
ARC
  5
EA
330
A
100
AcDbEntity
  8
0
  6
Continuous
 62
     7
370
     0
100
AcDbCircle
 10
70.9998580000001
 20
110.999778
 30
0.0
 40
1.499996999999999
100
AcDbArc
 50
0.0
 51
180.0
  0
LINE
  5
EB
330
A
100
AcDbEntity
  8
CONTORNO
  6
Continuous
 62
     7
370
     0
100
AcDbLine
 10
97.73662952007558
 20
72.49985500000002
 30
0.0
 11
97.73662952007468
 21
69.49986100000003
 31
0.0
  0
LINE
  5
EC
330
A
100
AcDbEntity
  8
0
  6
Continuous
 62
     7
370
     0
100
AcDbLine
 10
112.4997750000002
 20
0.0
 30
0.0
 11
112.4997750000002
 21
89.99982000000001
 31
0.0
  0
ARC
  5
ED
330
A
100
AcDbEntity
  8
0
  6
Continuous
 62
     7
370
     0
100
AcDbCircle
 10
110.9997780000001
 20
18.99996200000001
 30
0.0
 40
1.499996999999999
100
AcDbArc
 50
270.0
 51
90.0
  0
ARC
  5
EE
330
A
100
AcDbEntity
  8
0
  6
Continuous
 62
     7
370
     0
100
AcDbCircle
 10
110.9997780000001
 20
70.99985800000002
 30
0.0
 40
1.499996999999999
100
AcDbArc
 50
270.0
 51
90.0
  0
LINE
  5
EF
330
A
100
AcDbEntity
  8
0
  6
Continuous
 62
     7
370
     0
100
AcDbLine
 10
72.71461415372136
 20
213.4687980265216
 30
0.0
 11
112.5857824112257
 21
142.6974745694517
 31
0.0
  0
LINE
  5
F0
330
A
100
AcDbEntity
  8
0
  6
Continuous
 62
     7
370
     0
100
AcDbLine
 10
69.71462015372134
 20
211.9688010265215
 30
0.0
 11
69.71462015372131
 21
142.4689400265215
 31
0.0
  0
LINE
  5
F1
330
A
100
AcDbEntity
  8
0
  6
Continuous
 62
     7
370
     0
100
AcDbLine
 10
72.71461415372136
 20
238.9687470265215
 30
0.0
 11
72.71461415372133
 21
142.4689400265215
 31
0.0
  0
LINE
  5
F2
330
A
100
AcDbEntity
  8
7
  6
HIDDEN2
 62
     7
370
     0
100
AcDbLine
 10
85.49982900000022
 20
136.4689520265215
 30
0.0
 11
85.49982900000022
 21
142.4689400265215
 31
0.0
  0
LINE
  5
F4
330
A
100
AcDbEntity
  8
7
  6
HIDDEN2
 62
     7
370
     0
100
AcDbLine
 10
94.499811
 20
136.4689520265215
 30
0.0
 11
94.49981100000021
 21
142.4689400265215
 31
0.0
  0
ARC
  5
F5
330
A
100
AcDbEntity
  8
0
  6
Continuous
 62
     7
370
     0
100
AcDbCircle
 10
71.2146171537212
 20
211.9688010265215
 30
0.0
 40
1.499996999999999
100
AcDbArc
 50
0.0
 51
180.0
  0
ARC
  5
F6
330
A
100
AcDbEntity
  8
0
  6
Continuous
 62
     7
370
     0
100
AcDbCircle
 10
70.2146191537212
 20
238.9687470265215
 30
0.0
 40
2.499995
100
AcDbArc
 50
0.0
 51
90.0
  0
ARC
  5
F7
330
A
100
AcDbEntity
  8
0
  6
Continuous
 62
     7
370
     0
100
AcDbCircle
 10
111.7145361537212
 20
141.4689420265215
 30
0.0
 40
0.9999979999999998
100
AcDbArc
 50
0.0
 51
90.0
  0
LINE
  5
F8
330
A
100
AcDbEntity
  8
0
  6
Continuous
 62
     7
370
     0
100
AcDbLine
 10
112.7145341537213
 20
136.4689520265215
 30
0.0
 11
112.7145341537213
 21
142.2066325511372
 31
0.0
  0
ARC
  5
F9
330
A
100
AcDbEntity
  8
0
  6
Continuous
 62
     7
370
     0
100
AcDbCircle
 10
111.7145361537212
 20
142.2066325511372
 30
0.0
 40
0.9999979999999998
100
AcDbArc
 50
0.0
 51
29.3960529999987
  0
LWPOLYLINE
  5
FA
330
A
100
AcDbEntity
  8
PREDEFINITO
  6
Continuous
 62
     7
370
     0
100
AcDbPolyline
 90
        8
 70
     1
 43
0.0
 10
19.99996000000022
 20
72.49985500000002
 42
0.4142135623730818
 10
17.49996500000022
 20
69.99986000000001
 10
17.49996500000022
 20
50.21465915372111
 10
22.49995500000022
 20
50.21465915372111
 10
22.49995500000022
 20
67.49986500000002
 10
40.21467915372133
 20
67.49986500000002
 10
40.21467915372223
 20
72.49985500000002
 10
19.99996000000011
 20
72.49985500000002
  0
LWPOLYLINE
  5
FB
330
A
100
AcDbEntity
  8
PREDEFINITO
  6
Continuous
 62
     7
370
     0
100
AcDbPolyline
 90
        8
 70
     1
 43
0.0
 10
67.49986500000023
 20
67.49986500000002
 10
67.49986500000023
 20
50.21465915372111
 10
72.49985500000019
 20
50.21465915372111
 10
72.49985500000022
 20
69.99986000000001
 42
0.4142135623730951
 10
69.99986000000021
 20
72.49985500000002
 10
50.21465915372132
 20
72.49985500000002
 10
50.21465915372132
 20
67.49986500000002
 10
67.49986500000023
 20
67.49986500000002
  0
LWPOLYLINE
  5
FC
330
A
100
AcDbEntity
  8
PREDEFINITO
  6
Continuous
 62
     7
370
     0
100
AcDbPolyline
 90
        8
 70
     1
 43
0.0
 10
67.49986500000023
 20
22.49995499999998
 10
50.21465915372132
 20
22.49995499999998
 10
50.21465915372132
 20
17.49996500000003
 10
69.99986000000021
 20
17.49996500000001
 42
0.4142135623730951
 10
72.49985500000019
 20
19.99996000000001
 10
72.49985500000019
 20
40.21467915372204
 10
67.49986500000023
 20
40.21467915372112
 10
67.49986500000023
 20
22.49995500000002
  0
LWPOLYLINE
  5
FD
330
A
100
AcDbEntity
  8
PREDEFINITO
  6
Continuous
 62
     7
370
     0
100
AcDbPolyline
 90
        8
 70
     1
 43
0.0
 10
22.49995500000022
 20
22.49995499999998
 10
22.49995500000022
 20
40.21467915372112
 10
17.49996500000022
 20
40.21467915372204
 10
17.49996500000022
 20
19.99996000000001
 42
0.4142135623730951
 10
19.99996000000022
 20
17.49996500000003
 10
40.21467915372223
 20
17.49996500000003
 10
40.21467915372133
 20
22.49995500000002
 10
22.49995500000022
 20
22.499955
  0
LWPOLYLINE
  5
FE
330
A
100
AcDbEntity
  8
PREDEFINITO
  6
Continuous
 62
     7
370
     0
100
AcDbPolyline
 90
       13
 70
     1
 43
0.0
 10
69.49986100000021
 20
73.499853
 42
-0.4142135623730951
 10
68.49986300000023
 20
72.49985500000002
 10
69.99986000000021
 20
72.49985500000002
 42
-0.4142135623730951
 10
72.49985500000019
 20
69.99986000000001
 10
72.49985500000019
 20
68.49986300000003
 42
-0.4142135623730951
 10
73.4998530000002
 20
69.49986100000001
 10
89.9998200000002
 20
69.49986100000001
 10
89.9998200000002
 20
72.49985500000002
 10
73.4998530000002
 20
72.499855
 42
-0.4142135623730617
 10
72.49985500000019
 20
73.499853
 10
72.49985500000019
 20
89.99982000000001
 10
69.49986100000024
 20
89.99982000000001
 10
69.49986100000024
 20
73.499853
  0
LWPOLYLINE
  5
FF
330
A
100
AcDbEntity
  8
PREDEFINITO
  6
Continuous
 62
     7
370
     0
100
AcDbPolyline
 90
       13
 70
     1
 43
0.0
 10
20.49995900000022
 20
89.99982000000001
 10
17.49996500000022
 20
89.99982000000001
 10
17.49996500000024
 20
73.499853
 42
-0.4142135623730951
 10
16.49996700000023
 20
72.49985500000002
 10
0.0000000000002274
 20
72.49985500000002
 10
0.0000000000002274
 20
69.49986100000001
 10
16.49996700000023
 20
69.49986100000003
 42
-0.4142135623730951
 10
17.49996500000022
 20
68.49986300000003
 10
17.49996500000022
 20
69.99986000000001
 42
-0.4142135623730951
 10
19.99996000000022
 20
72.49985500000002
 10
21.49995700000022
 20
72.499855
 42
-0.4142135623730617
 10
20.49995900000022
 20
73.499853
 10
20.49995900000022
 20
89.99982000000002
  0
LWPOLYLINE
  5
100
330
A
100
AcDbEntity
  8
PREDEFINITO
  6
Continuous
 62
     7
370
     0
100
AcDbPolyline
 90
       13
 70
     1
 43
0.0
 10
20.49995900000021
 20
16.499967
 42
-0.4142135623730951
 10
21.49995700000022
 20
17.49996500000003
 10
19.99996000000022
 20
17.49996500000001
 42
-0.4142135623730826
 10
17.49996500000022
 20
19.99996000000001
 10
17.49996500000024
 20
21.49995700000002
 42
-0.4142135623730951
 10
16.49996700000023
 20
20.49995900000001
 10
0.0000000000002274
 20
20.49995900000001
 10
0.0000000000002274
 20
17.499965
 10
16.49996700000023
 20
17.499965
 42
-0.4142135623730951
 10
17.49996500000022
 20
16.499967
 10
17.49996500000022
 20
0.0
 10
20.49995900000022
 20
0.0
 10
20.49995900000022
 20
16.49996699999999
  0
LWPOLYLINE
  5
101
330
A
100
AcDbEntity
  8
PREDEFINITO
  6
Continuous
 62
     7
370
     0
100
AcDbPolyline
 90
       13
 70
     1
 43
0.0
 10
72.49985500000019
 20
16.499967
 42
-0.4142135623730951
 10
73.4998530000002
 20
17.49996500000003
 10
89.9998200000002
 20
17.49996500000003
 10
89.99982000000022
 20
20.49995900000001
 10
73.4998530000002
 20
20.49995900000002
 42
-0.4142135623730617
 10
72.49985500000019
 20
21.49995700000002
 10
72.49985500000022
 20
19.99996000000001
 42
-0.4142135623730951
 10
69.99986000000021
 20
17.49996500000003
 10
68.49986300000023
 20
17.499965
 42
-0.4142135623730951
 10
69.49986100000024
 20
16.499967
 10
69.49986100000024
 20
0.0
 10
72.49985500000019
 20
0.0000000000000284
 10
72.49985500000019
 20
16.499967
  0
POLYLINE
  5
102
330
A
100
AcDbEntity
  8
PREDEFINITO
  6
Continuous
 62
     7
370
     0
100
AcDb2dPolyline
 66
     1
 10
0.0
 20
0.0
 30
0.0
 70
     1
  0
VERTEX
  5
103
330
102
100
AcDbEntity
  8
PREDEFINITO
  6
Continuous
 62
     7
370
     0
100
AcDbVertex
100
AcDb2dVertex
 10
97.73662952007468
 20
17.49996500000003
 30
0.0
 70
     8
  0
VERTEX
  5
104
330
102
100
AcDbEntity
  8
PREDEFINITO
  6
Continuous
 62
     7
370
     0
100
AcDbVertex
100
AcDb2dVertex
 10
97.73662952007468
 20
20.49995900000001
 30
0.0
 70
     8
  0
VERTEX
  5
105
330
102
100
AcDbEntity
  8
PREDEFINITO
  6
Continuous
 62
     7
370
     0
100
AcDbVertex
100
AcDb2dVertex
 10
89.9998200000002
 20
20.49995900000001
 30
0.0
 70
     8
  0
VERTEX
  5
106
330
102
100
AcDbEntity
  8
PREDEFINITO
  6
Continuous
 62
     7
370
     0
100
AcDbVertex
100
AcDb2dVertex
 10
89.9998200000002
 20
17.499965
 30
0.0
 70
     8
  0
VERTEX
  5
107
330
102
100
AcDbEntity
  8
PREDEFINITO
  6
Continuous
 62
     7
370
     0
100
AcDbVertex
100
AcDb2dVertex
 10
97.73662952007468
 20
17.49996500000003
 30
0.0
 70
     8
  0
SEQEND
  5
108
330
102
100
AcDbEntity
  8
PREDEFINITO
  6
Continuous
 62
     7
370
     0
  0
POLYLINE
  5
109
330
A
100
AcDbEntity
  8
PREDEFINITO
  6
Continuous
 62
     7
370
     0
100
AcDb2dPolyline
 66
     1
 10
0.0
 20
0.0
 30
0.0
 70
     1
  0
VERTEX
  5
10A
330
109
100
AcDbEntity
  8
PREDEFINITO
  6
Continuous
 62
     7
370
     0
100
AcDbVertex
100
AcDb2dVertex
 10
97.73662952007468
 20
69.49986100000001
 30
0.0
 70
     8
  0
VERTEX
  5
10B
330
109
100
AcDbEntity
  8
PREDEFINITO
  6
Continuous
 62
     7
370
     0
100
AcDbVertex
100
AcDb2dVertex
 10
97.73662952007558
 20
72.49985500000002
 30
0.0
 70
     8
  0
VERTEX
  5
10C
330
109
100
AcDbEntity
  8
PREDEFINITO
  6
Continuous
 62
     7
370
     0
100
AcDbVertex
100
AcDb2dVertex
 10
89.9998200000002
 20
72.49985500000002
 30
0.0
 70
     8
  0
VERTEX
  5
10D
330
109
100
AcDbEntity
  8
PREDEFINITO
  6
Continuous
 62
     7
370
     0
100
AcDbVertex
100
AcDb2dVertex
 10
89.99982000000022
 20
69.49986100000001
 30
0.0
 70
     8
  0
VERTEX
  5
10E
330
109
100
AcDbEntity
  8
PREDEFINITO
  6
Continuous
 62
     7
370
     0
100
AcDbVertex
100
AcDb2dVertex
 10
97.73662952007468
 20
69.49986100000001
 30
0.0
 70
     8
  0
SEQEND
  5
10F
330
109
100
AcDbEntity
  8
PREDEFINITO
  6
Continuous
 62
     7
370
     0
  0
POLYLINE
  5
110
330
A
100
AcDbEntity
  8
PREDEFINITO
  6
Continuous
 62
     7
370
     0
100
AcDb2dPolyline
 66
     1
 10
0.0
 20
0.0
 30
0.0
 70
     1
  0
VERTEX
  5
111
330
110
100
AcDbEntity
  8
PREDEFINITO
  6
Continuous
 62
     7
370
     0
100
AcDbVertex
100
AcDb2dVertex
 10
69.49986100000024
 20
89.99982000000002
 30
0.0
 70
     8
  0
VERTEX
  5
112
330
110
100
AcDbEntity
  8
PREDEFINITO
  6
Continuous
 62
     7
370
     0
100
AcDbVertex
100
AcDb2dVertex
 10
72.49985500000019
 20
89.99982000000002
 30
0.0
 70
     8
  0
VERTEX
  5
113
330
110
100
AcDbEntity
  8
PREDEFINITO
  6
Continuous
 62
     7
370
     0
100
AcDbVertex
100
AcDb2dVertex
 10
72.49985500000019
 20
97.73980452000069
 30
0.0
 70
     8
  0
VERTEX
  5
114
330
110
100
AcDbEntity
  8
PREDEFINITO
  6
Continuous
 62
     7
370
     0
100
AcDbVertex
100
AcDb2dVertex
 10
69.49986100000024
 20
97.73980452000069
 30
0.0
 70
     8
  0
VERTEX
  5
115
330
110
100
AcDbEntity
  8
PREDEFINITO
  6
Continuous
 62
     7
370
     0
100
AcDbVertex
100
AcDb2dVertex
 10
69.49986100000024
 20
89.99982000000002
 30
0.0
 70
     8
  0
SEQEND
  5
116
330
110
100
AcDbEntity
  8
PREDEFINITO
  6
Continuous
 62
     7
370
     0
  0
POLYLINE
  5
117
330
A
100
AcDbEntity
  8
PREDEFINITO
  6
Continuous
 62
     7
370
     0
100
AcDb2dPolyline
 66
     1
 10
0.0
 20
0.0
 30
0.0
 70
     1
  0
VERTEX
  5
118
330
117
100
AcDbEntity
  8
PREDEFINITO
  6
Continuous
 62
     7
370
     0
100
AcDbVertex
100
AcDb2dVertex
 10
17.49996500000021
 20
89.99982000000002
 30
0.0
 70
     8
  0
VERTEX
  5
119
330
117
100
AcDbEntity
  8
PREDEFINITO
  6
Continuous
 62
     7
370
     0
100
AcDbVertex
100
AcDb2dVertex
 10
20.49995900000022
 20
89.99982000000002
 30
0.0
 70
     8
  0
VERTEX
  5
11A
330
117
100
AcDbEntity
  8
PREDEFINITO
  6
Continuous
 62
     7
370
     0
100
AcDbVertex
100
AcDb2dVertex
 10
20.49995900000022
 20
97.73980452000072
 30
0.0
 70
     8
  0
VERTEX
  5
11B
330
117
100
AcDbEntity
  8
PREDEFINITO
  6
Continuous
 62
     7
370
     0
100
AcDbVertex
100
AcDb2dVertex
 10
17.49996500000021
 20
97.73980451999982
 30
0.0
 70
     8
  0
VERTEX
  5
11C
330
117
100
AcDbEntity
  8
PREDEFINITO
  6
Continuous
 62
     7
370
     0
100
AcDbVertex
100
AcDb2dVertex
 10
17.49996500000021
 20
89.99982000000002
 30
0.0
 70
     8
  0
SEQEND
  5
11D
330
117
100
AcDbEntity
  8
PREDEFINITO
  6
Continuous
 62
     7
370
     0
  0
POLYLINE
  5
11E
330
A
100
AcDbEntity
  8
PREDEFINITO
  6
Continuous
 62
     7
370
     0
100
AcDb2dPolyline
 66
     1
 10
0.0
 20
0.0
 30
0.0
 70
     1
  0
VERTEX
  5
11F
330
11E
100
AcDbEntity
  8
PREDEFINITO
  6
Continuous
 62
     7
370
     0
100
AcDbVertex
100
AcDb2dVertex
 10
0.0000000000002274
 20
69.49986100000001
 30
0.0
 70
     8
  0
VERTEX
  5
120
330
11E
100
AcDbEntity
  8
PREDEFINITO
  6
Continuous
 62
     7
370
     0
100
AcDbVertex
100
AcDb2dVertex
 10
0.0000000000002274
 20
72.49985500000002
 30
0.0
 70
     8
  0
VERTEX
  5
121
330
11E
100
AcDbEntity
  8
PREDEFINITO
  6
Continuous
 62
     7
370
     0
100
AcDbVertex
100
AcDb2dVertex
 10
-7.307291212632023
 20
72.49985500000002
 30
0.0
 70
     8
  0
VERTEX
  5
122
330
11E
100
AcDbEntity
  8
PREDEFINITO
  6
Continuous
 62
     7
370
     0
100
AcDbVertex
100
AcDb2dVertex
 10
-7.30729121263203
 20
69.49986100000001
 30
0.0
 70
     8
  0
VERTEX
  5
123
330
11E
100
AcDbEntity
  8
PREDEFINITO
  6
Continuous
 62
     7
370
     0
100
AcDbVertex
100
AcDb2dVertex
 10
0.0000000000002274
 20
69.49986100000001
 30
0.0
 70
     8
  0
SEQEND
  5
124
330
11E
100
AcDbEntity
  8
PREDEFINITO
  6
Continuous
 62
     7
370
     0
  0
POLYLINE
  5
125
330
A
100
AcDbEntity
  8
PREDEFINITO
  6
Continuous
 62
     7
370
     0
100
AcDb2dPolyline
 66
     1
 10
0.0
 20
0.0
 30
0.0
 70
     1
  0
VERTEX
  5
126
330
125
100
AcDbEntity
  8
PREDEFINITO
  6
Continuous
 62
     7
370
     0
100
AcDbVertex
100
AcDb2dVertex
 10
-7.307291212632023
 20
20.49995900000001
 30
0.0
 70
     8
  0
VERTEX
  5
127
330
125
100
AcDbEntity
  8
PREDEFINITO
  6
Continuous
 62
     7
370
     0
100
AcDbVertex
100
AcDb2dVertex
 10
-7.30729121263203
 20
17.49996499999997
 30
0.0
 70
     8
  0
VERTEX
  5
128
330
125
100
AcDbEntity
  8
PREDEFINITO
  6
Continuous
 62
     7
370
     0
100
AcDbVertex
100
AcDb2dVertex
 10
0.0000000000002274
 20
17.49996499999997
 30
0.0
 70
     8
  0
VERTEX
  5
129
330
125
100
AcDbEntity
  8
PREDEFINITO
  6
Continuous
 62
     7
370
     0
100
AcDbVertex
100
AcDb2dVertex
 10
0.0000000000002274
 20
20.49995900000001
 30
0.0
 70
     8
  0
VERTEX
  5
12A
330
125
100
AcDbEntity
  8
PREDEFINITO
  6
Continuous
 62
     7
370
     0
100
AcDbVertex
100
AcDb2dVertex
 10
-7.307291212632023
 20
20.49995900000001
 30
0.0
 70
     8
  0
SEQEND
  5
12B
330
125
100
AcDbEntity
  8
PREDEFINITO
  6
Continuous
 62
     7
370
     0
  0
POLYLINE
  5
12C
330
A
100
AcDbEntity
  8
PREDEFINITO
  6
Continuous
 62
     7
370
     0
100
AcDb2dPolyline
 66
     1
 10
0.0
 20
0.0
 30
0.0
 70
     1
  0
VERTEX
  5
12D
330
12C
100
AcDbEntity
  8
PREDEFINITO
  6
Continuous
 62
     7
370
     0
100
AcDbVertex
100
AcDb2dVertex
 10
20.49995900000022
 20
0.0
 30
0.0
 70
     8
  0
VERTEX
  5
12E
330
12C
100
AcDbEntity
  8
PREDEFINITO
  6
Continuous
 62
     7
370
     0
100
AcDbVertex
100
AcDb2dVertex
 10
17.49996500000022
 20
0.0000000000000284
 30
0.0
 70
     8
  0
VERTEX
  5
12F
330
12C
100
AcDbEntity
  8
PREDEFINITO
  6
Continuous
 62
     7
370
     0
100
AcDbVertex
100
AcDb2dVertex
 10
17.49996500000021
 20
-7.739984519999772
 30
0.0
 70
     8
  0
VERTEX
  5
130
330
12C
100
AcDbEntity
  8
PREDEFINITO
  6
Continuous
 62
     7
370
     0
100
AcDbVertex
100
AcDb2dVertex
 10
20.49995900000022
 20
-7.739984519999772
 30
0.0
 70
     8
  0
VERTEX
  5
131
330
12C
100
AcDbEntity
  8
PREDEFINITO
  6
Continuous
 62
     7
370
     0
100
AcDbVertex
100
AcDb2dVertex
 10
20.49995900000022
 20
0.0
 30
0.0
 70
     8
  0
SEQEND
  5
132
330
12C
100
AcDbEntity
  8
PREDEFINITO
  6
Continuous
 62
     7
370
     0
  0
POLYLINE
  5
133
330
A
100
AcDbEntity
  8
PREDEFINITO
  6
Continuous
 62
     7
370
     0
100
AcDb2dPolyline
 66
     1
 10
0.0
 20
0.0
 30
0.0
 70
     1
  0
VERTEX
  5
134
330
133
100
AcDbEntity
  8
PREDEFINITO
  6
Continuous
 62
     7
370
     0
100
AcDbVertex
100
AcDb2dVertex
 10
69.49986100000024
 20
-7.739984519999772
 30
0.0
 70
     8
  0
VERTEX
  5
135
330
133
100
AcDbEntity
  8
PREDEFINITO
  6
Continuous
 62
     7
370
     0
100
AcDbVertex
100
AcDb2dVertex
 10
72.49985500000019
 20
-7.739984519999772
 30
0.0
 70
     8
  0
VERTEX
  5
136
330
133
100
AcDbEntity
  8
PREDEFINITO
  6
Continuous
 62
     7
370
     0
100
AcDbVertex
100
AcDb2dVertex
 10
72.49985500000019
 20
0.0
 30
0.0
 70
     8
  0
VERTEX
  5
137
330
133
100
AcDbEntity
  8
PREDEFINITO
  6
Continuous
 62
     7
370
     0
100
AcDbVertex
100
AcDb2dVertex
 10
69.49986100000024
 20
0.0
 30
0.0
 70
     8
  0
VERTEX
  5
138
330
133
100
AcDbEntity
  8
PREDEFINITO
  6
Continuous
 62
     7
370
     0
100
AcDbVertex
100
AcDb2dVertex
 10
69.49986100000024
 20
-7.739984519999772
 30
0.0
 70
     8
  0
SEQEND
  5
139
330
133
100
AcDbEntity
  8
PREDEFINITO
  6
Continuous
 62
     7
370
     0
  0
ENDSEC
  0
SECTION
  2
OBJECTS
  0
DICTIONARY
  5
19
330
0
100
AcDbDictionary
281
     1
  3
ACAD_COLOR
350
24D
  3
ACAD_GROUP
350
1A
  3
ACAD_LAYOUT
350
1E
  3
ACAD_MATERIAL
350
220
  3
ACAD_MLEADERSTYLE
350
292
  3
ACAD_MLINESTYLE
350
1B
  3
ACAD_PLOTSETTINGS
350
22
  3
ACAD_PLOTSTYLENAME
350
1F
  3
ACAD_SCALELIST
350
24E
  3
ACAD_TABLESTYLE
350
28C
  3
ACAD_VISUALSTYLE
350
239
  3
ACAD_WIPEOUT_VARS
350
23
  3
ACDB_RECOMPOSE_DATA
350
435
  3
AcDbVariableDictionary
350
21E
  3
AEC_PROPERTY_SET_DEFS
350
3AF
  3
ASE_INDEX_DICTIONARY
350
3D2
  3
DWGPROPS
350
436
  3
qs_topprt_diz
350
387
  3
QSCATDICT
350
384
  3
QsPallStyleDict
350
386
  3
QsTop499
350
3CE
  3
TopSpotLight
350
38E
  0
DICTIONARY
  5
3DB
330
7
100
AcDbDictionary
280
     1
281
     1
  0
DICTIONARY
  5
3B0
330
14
100
AcDbDictionary
280
     1
281
     1
  3
ADSK_XREC_LAYER_RECONCILED
360
3B1
  0
DICTIONARY
  5
3B2
330
2D
100
AcDbDictionary
280
     1
281
     1
  3
ADSK_XREC_LAYER_RECONCILED
360
3B3
  0
DICTIONARY
  5
3B4
330
2F
100
AcDbDictionary
280
     1
281
     1
  3
ADSK_XREC_LAYER_RECONCILED
360
3B5
  0
DICTIONARY
  5
3B6
330
31
100
AcDbDictionary
280
     1
281
     1
  3
ADSK_XREC_LAYER_RECONCILED
360
3B7
  0
DICTIONARY
  5
3B8
330
33
100
AcDbDictionary
280
     1
281
     1
  3
ADSK_XREC_LAYER_RECONCILED
360
3B9
  0
DICTIONARY
  5
3BA
330
35
100
AcDbDictionary
280
     1
281
     1
  3
ADSK_XREC_LAYER_RECONCILED
360
3BB
  0
DICTIONARY
  5
3BC
330
37
100
AcDbDictionary
280
     1
281
     1
  3
ADSK_XREC_LAYER_RECONCILED
360
3BD
  0
DICTIONARY
  5
3BE
330
39
100
AcDbDictionary
280
     1
281
     1
  3
ADSK_XREC_LAYER_RECONCILED
360
3BF
  0
DICTIONARY
  5
3C0
330
3B
100
AcDbDictionary
280
     1
281
     1
  3
ADSK_XREC_LAYER_RECONCILED
360
3C1
  0
DICTIONARY
  5
3C2
330
3D
100
AcDbDictionary
280
     1
281
     1
  3
ADSK_XREC_LAYER_RECONCILED
360
3C3
  0
DICTIONARY
  5
3C4
330
3F
100
AcDbDictionary
280
     1
281
     1
  3
ADSK_XREC_LAYER_RECONCILED
360
3C5
  0
DICTIONARY
  5
3C6
330
41
100
AcDbDictionary
280
     1
281
     1
  3
ADSK_XREC_LAYER_RECONCILED
360
3C7
  0
DICTIONARY
  5
3C8
330
43
100
AcDbDictionary
280
     1
281
     1
  3
ADSK_XREC_LAYER_RECONCILED
360
3C9
  0
DICTIONARY
  5
3CA
330
45
100
AcDbDictionary
280
     1
281
     1
  3
ADSK_XREC_LAYER_RECONCILED
360
3CB
  0
DICTIONARY
  5
3CC
330
389
100
AcDbDictionary
280
     1
281
     1
  3
ADSK_XREC_LAYER_RECONCILED
360
3CD
  0
DICTIONARY
  5
465
330
37C
100
AcDbDictionary
280
     1
281
     1
  3
ACAD_MTEXT_RT
360
466
  0
DICTIONARY
  5
24D
102
{ACAD_REACTORS
330
19
102
}
330
19
100
AcDbDictionary
281
     1
  0
DICTIONARY
  5
1A
102
{ACAD_REACTORS
330
19
102
}
330
19
100
AcDbDictionary
281
     1
  0
DICTIONARY
  5
1E
102
{ACAD_REACTORS
330
19
102
}
330
19
100
AcDbDictionary
281
     1
  3
Layout1
350
21
  3
Model
350
20
  0
DICTIONARY
  5
220
102
{ACAD_REACTORS
330
19
102
}
330
19
100
AcDbDictionary
281
     1
  3
ByBlock
350
229
  3
ByLayer
350
221
  3
Global
350
231
  0
DICTIONARY
  5
292
102
{ACAD_REACTORS
330
19
102
}
330
19
100
AcDbDictionary
281
     1
  3
Standard
350
293
  0
DICTIONARY
  5
1B
102
{ACAD_REACTORS
330
19
102
}
330
19
100
AcDbDictionary
281
     1
  3
Standard
350
1C
  0
DICTIONARY
  5
22
102
{ACAD_REACTORS
330
19
102
}
330
19
100
AcDbDictionary
281
     1
  3
Kyocera_1010 OR
350
3A3
  3
Kyocera_1010 VER
350
3A4
  3
Olivetti_200 A3
350
3A5
  3
Olivetti_200 A4
350
3A6
  3
PLOTTER
350
3A7
  0
ACDBDICTIONARYWDFLT
  5
1F
102
{ACAD_REACTORS
330
19
102
}
330
19
100
AcDbDictionary
281
     1
  3
Normal
350
1D
100
AcDbDictionaryWithDefault
340
1D
  0
DICTIONARY
  5
24E
102
{ACAD_REACTORS
330
19
102
}
330
19
100
AcDbDictionary
281
     1
  3
A0
350
24F
  3
A1
350
250
  3
A2
350
251
  3
A3
350
252
  3
A4
350
253
  3
A5
350
254
  3
A6
350
255
  3
A7
350
256
  3
A8
350
257
  3
A9
350
258
  3
B0
350
259
  3
B1
350
25A
  3
B2
350
25B
  3
B3
350
25C
  3
B4
350
25D
  3
B5
350
25E
  3
B6
350
25F
  3
B7
350
260
  3
B8
350
261
  3
B9
350
262
  3
C0
350
263
  3
C1
350
264
  3
C2
350
265
  3
C3
350
266
  3
C4
350
267
  3
C5
350
268
  3
C6
350
269
  3
C7
350
26A
  3
C8
350
26B
  3
C9
350
26C
  3
D0
350
26D
  3
D1
350
26E
  3
D2
350
26F
  0
DICTIONARY
  5
28C
102
{ACAD_REACTORS
330
19
102
}
330
19
100
AcDbDictionary
281
     1
  3
QSTABFORI
350
3A8
  3
QSTABREGION
350
3AA
  3
Standard
350
28D
  0
DICTIONARY
  5
239
102
{ACAD_REACTORS
330
19
102
}
330
19
100
AcDbDictionary
281
     1
  3
2dWireframe
350
23F
  3
3D Hidden
350
241
  3
3dWireframe
350
240
  3
Basic
350
23E
  3
Brighten
350
245
  3
ColorChange
350
249
  3
Conceptual
350
242
  3
Dim
350
244
  3
EdgeColorOff
350
24C
  3
Facepattern
350
248
  3
Flat
350
23A
  3
FlatWithEdges
350
23B
  3
Gouraud
350
23C
  3
GouraudWithEdges
350
23D
  3
Hidden
350
422
  3
JitterOff
350
24A
  3
Linepattern
350
247
  3
OverhangOff
350
24B
  3
Realistic
350
243
  3
Shaded
350
427
  3
Shaded with edges
350
426
  3
Shades of Gray
350
423
  3
Sketchy
350
424
  3
Thicken
350
246
  3
Wireframe
350
421
  3
X-Ray
350
425
  0
WIPEOUTVARIABLES
  5
23
330
19
100
AcDbWipeoutVariables
 70
     1
  0
XRECORD
  5
435
102
{ACAD_REACTORS
330
19
102
}
330
19
100
AcDbXrecord
280
     1
 90
        1
330
28D
330
3A8
330
3AA
  0
DICTIONARY
  5
21E
330
19
100
AcDbDictionary
281
     0
  3
CANNOSCALE
350
41C
  3
CMLEADERSTYLE
350
41A
  3
CTABLESTYLE
350
419
  3
DIMASSOC
350
21F
  3
DRAWORDERCTL
350
41B
  3
INDEXCTL
350
41E
  3
SORTENTS
350
41D
  3
XCLIPFRAME
350
431
  0
DICTIONARY
  5
3AF
102
{ACAD_REACTORS
330
19
102
}
330
19
100
AcDbDictionary
281
     1
  0
DICTIONARY
  5
3D2
102
{ACAD_REACTORS
330
19
102
}
330
19
100
AcDbDictionary
281
     1
  3
ASEBlockHierarchyIndexRecord
350
3D4
1001
DCO15
1040
1713240036.214
  0
XRECORD
  5
436
102
{ACAD_REACTORS
330
19
102
}
330
19
100
AcDbXrecord
280
     1
  1
DWGPROPS COOKIE
  2

  3

  4

  6

  7

  8
mpistoia
  9

300
=
301
=
302
=
303
=
304
=
305
=
306
=
307
=
308
=
309
=
 40
0.0015816550925926
 41
2455558.652338993
 42
2455632.378937662
  1

 90
        0
  0
DICTIONARY
  5
387
102
{ACAD_REACTORS
330
19
102
}
330
19
100
AcDbDictionary
281
     1
  3
UCNT
350
388
  0
DICTIONARY
  5
384
102
{ACAD_REACTORS
330
19
102
}
330
19
100
AcDbDictionary
281
     1
  3
DEFAULT
350
385
  0
DICTIONARY
  5
386
102
{ACAD_REACTORS
330
19
102
}
330
19
100
AcDbDictionary
281
     1
  0
DICTIONARY
  5
3CE
102
{ACAD_REACTORS
330
19
102
}
330
19
100
AcDbDictionary
281
     1
  3
TOP
350
3D0
  3
X6c89
350
3CF
  0
DICTIONARY
  5
38E
102
{ACAD_REACTORS
330
19
102
}
330
19
100
AcDbDictionary
281
     1
  3
colors
350
38F
  0
XRECORD
  5
3B1
102
{ACAD_REACTORS
330
3B0
102
}
330
3B0
100
AcDbXrecord
280
     1
290
     1
  0
XRECORD
  5
3B3
102
{ACAD_REACTORS
330
3B2
102
}
330
3B2
100
AcDbXrecord
280
     1
290
     1
  0
XRECORD
  5
3B5
102
{ACAD_REACTORS
330
3B4
102
}
330
3B4
100
AcDbXrecord
280
     1
290
     1
  0
XRECORD
  5
3B7
102
{ACAD_REACTORS
330
3B6
102
}
330
3B6
100
AcDbXrecord
280
     1
290
     1
  0
XRECORD
  5
3B9
102
{ACAD_REACTORS
330
3B8
102
}
330
3B8
100
AcDbXrecord
280
     1
290
     1
  0
XRECORD
  5
3BB
102
{ACAD_REACTORS
330
3BA
102
}
330
3BA
100
AcDbXrecord
280
     1
290
     1
  0
XRECORD
  5
3BD
102
{ACAD_REACTORS
330
3BC
102
}
330
3BC
100
AcDbXrecord
280
     1
290
     1
  0
XRECORD
  5
3BF
102
{ACAD_REACTORS
330
3BE
102
}
330
3BE
100
AcDbXrecord
280
     1
290
     1
  0
XRECORD
  5
3C1
102
{ACAD_REACTORS
330
3C0
102
}
330
3C0
100
AcDbXrecord
280
     1
290
     1
  0
XRECORD
  5
3C3
102
{ACAD_REACTORS
330
3C2
102
}
330
3C2
100
AcDbXrecord
280
     1
290
     1
  0
XRECORD
  5
3C5
102
{ACAD_REACTORS
330
3C4
102
}
330
3C4
100
AcDbXrecord
280
     1
290
     1
  0
XRECORD
  5
3C7
102
{ACAD_REACTORS
330
3C6
102
}
330
3C6
100
AcDbXrecord
280
     1
290
     1
  0
XRECORD
  5
3C9
102
{ACAD_REACTORS
330
3C8
102
}
330
3C8
100
AcDbXrecord
280
     1
290
     1
  0
XRECORD
  5
3CB
102
{ACAD_REACTORS
330
3CA
102
}
330
3CA
100
AcDbXrecord
280
     1
290
     1
  0
XRECORD
  5
3CD
102
{ACAD_REACTORS
330
3CC
102
}
330
3CC
100
AcDbXrecord
280
     1
290
     1
  0
XRECORD
  5
466
102
{ACAD_REACTORS
330
465
102
}
330
465
100
AcDbXrecord
280
     1
 40
8050.0
  1
\A1;\A1;\U+22059
  0
LAYOUT
  5
21
102
{ACAD_XDICTIONARY
360
439
102
}
102
{ACAD_REACTORS
330
1E
102
}
330
1E
100
AcDbPlotSettings
  1

  2

  4

  6

 40
0.0
 41
0.0
 42
0.0
 43
0.0
 44
0.0
 45
0.0
 46
0.0
 47
0.0
 48
0.0
 49
0.0
140
0.0
141
0.0
142
1.0
143
1.0
 70
     0
 72
     0
 73
     0
 74
     0
  7

 75
     0
147
1.0
148
0.0
149
0.0
100
AcDbLayout
  1
Layout1
 70
     0
 71
     1
 10
0.0
 20
0.0
 11
12.0
 21
9.0
 12
0.0
 22
0.0
 32
0.0
 14
1.000000000000000E+20
 24
1.000000000000000E+20
 34
1.000000000000000E+20
 15
-1.000000000000000E+20
 25
-1.000000000000000E+20
 35
-1.000000000000000E+20
146
0.0
 13
0.0
 23
0.0
 33
0.0
 16
1.0
 26
0.0
 36
0.0
 17
0.0
 27
1.0
 37
0.0
 76
     0
330
B
  0
LAYOUT
  5
20
102
{ACAD_XDICTIONARY
360
437
102
}
102
{ACAD_REACTORS
330
1E
102
}
330
1E
100
AcDbPlotSettings
  1

  2

  4

  6

 40
0.0
 41
0.0
 42
0.0
 43
0.0
 44
0.0
 45
0.0
 46
0.0
 47
0.0
 48
0.0
 49
0.0
140
0.0
141
0.0
142
1.0
143
1.0
 70
  1024
 72
     0
 73
     0
 74
     0
  7

 75
     0
147
1.0
148
0.0
149
0.0
100
AcDbLayout
  1
Model
 70
     0
 71
     0
 10
0.0
 20
0.0
 11
0.0
 21
0.0
 12
0.0
 22
0.0
 32
0.0
 14
0.0
 24
0.0
 34
0.0
 15
0.0
 25
0.0
 35
0.0
146
0.0
 13
0.0
 23
0.0
 33
0.0
 16
0.0
 26
0.0
 36
0.0
 17
0.0
 27
0.0
 37
0.0
 76
     0
330
A
331
15
  0
MATERIAL
  5
229
102
{ACAD_XDICTIONARY
360
22A
102
}
102
{ACAD_REACTORS
330
220
102
}
330
220
100
AcDbMaterial
  1
ByBlock
 72
     0
 43
0.0208333333333333
 43
0.0
 43
0.0
 43
0.0
 43
0.0
 43
0.0208333333333333
 43
0.0
 43
0.0
 43
0.0
 43
0.0
 43
1.0
 43
0.0
 43
0.0
 43
0.0
 43
0.0
 43
1.0
 77
     0
 47
0.0208333333333333
 47
0.0
 47
0.0
 47
0.0
 47
0.0
 47
0.0208333333333333
 47
0.0
 47
0.0
 47
0.0
 47
0.0
 47
1.0
 47
0.0
 47
0.0
 47
0.0
 47
0.0
 47
1.0
171
     0
 49
0.0208333333333333
 49
0.0
 49
0.0
 49
0.0
 49
0.0
 49
0.0208333333333333
 49
0.0
 49
0.0
 49
0.0
 49
0.0
 49
1.0
 49
0.0
 49
0.0
 49
0.0
 49
0.0
 49
1.0
175
     0
142
0.0208333333333333
142
0.0
142
0.0
142
0.0
142
0.0
142
0.0208333333333333
142
0.0
142
0.0
142
0.0
142
0.0
142
1.0
142
0.0
142
0.0
142
0.0
142
0.0
142
1.0
179
     0
144
0.0208333333333333
144
0.0
144
0.0
144
0.0
144
0.0
144
0.0208333333333333
144
0.0
144
0.0
144
0.0
144
0.0
144
1.0
144
0.0
144
0.0
144
0.0
144
0.0
144
1.0
147
0.0208333333333333
147
0.0
147
0.0
147
0.0
147
0.0
147
0.0208333333333333
147
0.0
147
0.0
147
0.0
147
0.0
147
1.0
147
0.0
147
0.0
147
0.0
147
0.0
147
1.0
  0
MATERIAL
  5
221
102
{ACAD_XDICTIONARY
360
222
102
}
102
{ACAD_REACTORS
330
220
102
}
330
220
100
AcDbMaterial
  1
ByLayer
 72
     0
 43
0.0208333333333333
 43
0.0
 43
0.0
 43
0.0
 43
0.0
 43
0.0208333333333333
 43
0.0
 43
0.0
 43
0.0
 43
0.0
 43
1.0
 43
0.0
 43
0.0
 43
0.0
 43
0.0
 43
1.0
 77
     0
 47
0.0208333333333333
 47
0.0
 47
0.0
 47
0.0
 47
0.0
 47
0.0208333333333333
 47
0.0
 47
0.0
 47
0.0
 47
0.0
 47
1.0
 47
0.0
 47
0.0
 47
0.0
 47
0.0
 47
1.0
171
     0
 49
0.0208333333333333
 49
0.0
 49
0.0
 49
0.0
 49
0.0
 49
0.0208333333333333
 49
0.0
 49
0.0
 49
0.0
 49
0.0
 49
1.0
 49
0.0
 49
0.0
 49
0.0
 49
0.0
 49
1.0
175
     0
142
0.0208333333333333
142
0.0
142
0.0
142
0.0
142
0.0
142
0.0208333333333333
142
0.0
142
0.0
142
0.0
142
0.0
142
1.0
142
0.0
142
0.0
142
0.0
142
0.0
142
1.0
179
     0
144
0.0208333333333333
144
0.0
144
0.0
144
0.0
144
0.0
144
0.0208333333333333
144
0.0
144
0.0
144
0.0
144
0.0
144
1.0
144
0.0
144
0.0
144
0.0
144
0.0
144
1.0
147
0.0208333333333333
147
0.0
147
0.0
147
0.0
147
0.0
147
0.0208333333333333
147
0.0
147
0.0
147
0.0
147
0.0
147
1.0
147
0.0
147
0.0
147
0.0
147
0.0
147
1.0
  0
MATERIAL
  5
231
102
{ACAD_XDICTIONARY
360
232
102
}
102
{ACAD_REACTORS
330
220
102
}
330
220
100
AcDbMaterial
  1
Global
 72
     0
 43
0.0208333333333333
 43
0.0
 43
0.0
 43
0.0
 43
0.0
 43
0.0208333333333333
 43
0.0
 43
0.0
 43
0.0
 43
0.0
 43
1.0
 43
0.0
 43
0.0
 43
0.0
 43
0.0
 43
1.0
 77
     0
 47
0.0208333333333333
 47
0.0
 47
0.0
 47
0.0
 47
0.0
 47
0.0208333333333333
 47
0.0
 47
0.0
 47
0.0
 47
0.0
 47
1.0
 47
0.0
 47
0.0
 47
0.0
 47
0.0
 47
1.0
171
     0
 49
0.0208333333333333
 49
0.0
 49
0.0
 49
0.0
 49
0.0
 49
0.0208333333333333
 49
0.0
 49
0.0
 49
0.0
 49
0.0
 49
1.0
 49
0.0
 49
0.0
 49
0.0
 49
0.0
 49
1.0
175
     0
142
0.0208333333333333
142
0.0
142
0.0
142
0.0
142
0.0
142
0.0208333333333333
142
0.0
142
0.0
142
0.0
142
0.0
142
1.0
142
0.0
142
0.0
142
0.0
142
0.0
142
1.0
179
     0
144
0.0208333333333333
144
0.0
144
0.0
144
0.0
144
0.0
144
0.0208333333333333
144
0.0
144
0.0
144
0.0
144
0.0
144
1.0
144
0.0
144
0.0
144
0.0
144
0.0
144
1.0
147
0.0208333333333333
147
0.0
147
0.0
147
0.0
147
0.0
147
0.0208333333333333
147
0.0
147
0.0
147
0.0
147
0.0
147
1.0
147
0.0
147
0.0
147
0.0
147
0.0
147
1.0
  0
MLEADERSTYLE
  5
293
102
{ACAD_REACTORS
330
292
102
}
330
292
100
AcDbMLeaderStyle
170
     2
171
     1
172
     0
 90
        2
 40
0.0
 41
0.0
173
     1
 91
-1056964608
340
11
 92
       -2
290
     1
 42
0.09
291
     1
 43
0.36
  3
Standard
 44
0.18
300

342
17
174
     1
178
     6
175
     1
176
     0
 93
-1056964608
 45
0.18
292
     0
297
     0
 46
0.18
 94
-1056964608
 47
1.0
 49
1.0
140
1.0
293
     1
141
0.0
294
     1
177
     0
142
1.0
295
     0
296
     0
143
0.125
1001
ACAD_MLEADERVER
1070
     2
  0
MLINESTYLE
  5
1C
102
{ACAD_REACTORS
330
1B
102
}
330
1B
100
AcDbMlineStyle
  2
STANDARD
 70
     0
  3

 62
     0
 51
90.0
 52
90.0
 71
     2
 49
0.5
 62
   256
  6
BYLAYER
 49
-0.5
 62
   256
  6
BYLAYER
  0
PLOTSETTINGS
  5
3A3
102
{ACAD_XDICTIONARY
360
467
102
}
102
{ACAD_REACTORS
330
22
102
}
330
22
100
AcDbPlotSettings
  1
Kyocera_1010 OR
  2
Kyocera_1010.pc3
  4
A4
  6

 40
4.984749794006347
 41
5.154074668884277
 42
5.111740112304687
 43
4.9847412109375
 44
210.0156707763672
 45
297.0106506347656
 46
0.0
 47
109.7870247470818
 48
0.0
 49
0.0
140
0.0
141
0.0
142
1.0
143
0.6770771918566143
 70
 11956
 72
     1
 73
     1
 74
     1
  7
DIERRE BN.ctb
 75
     0
147
1.476936473458659
148
-222.4649060220283
149
-239.0808115236937
1001
ACAD_PSEXT
1000
Kyocera_1010.pc3
1000
Kyocera Mita FS-1010 KX
1000
\\PC5
1000

1070
     0
  0
PLOTSETTINGS
  5
3A4
102
{ACAD_XDICTIONARY
360
469
102
}
102
{ACAD_REACTORS
330
22
102
}
330
22
100
AcDbPlotSettings
  1
Kyocera_1010 VER
  2
Kyocera_1010.pc3
  4
A4
  6

 40
4.984749794006347
 41
5.154074668884277
 42
5.111740112304687
 43
4.9847412109375
 44
210.0156707763672
 45
297.0106506347656
 46
51.67548120477697
 47
0.0
 48
0.0
 49
0.0
140
0.0
141
0.0
142
1.0
143
0.4718508448115938
 70
 11956
 72
     1
 73
     0
 74
     1
  7
DIERRE BN.ctb
 75
     0
147
2.119313785268927
148
-222.4649060220283
149
-239.0808115236937
1001
ACAD_PSEXT
1000
Kyocera_1010.pc3
1000
Kyocera Mita FS-1010 KX
1000
\\PC5
1000

1070
     0
  0
PLOTSETTINGS
  5
3A5
102
{ACAD_XDICTIONARY
360
46B
102
}
102
{ACAD_REACTORS
330
22
102
}
330
22
100
AcDbPlotSettings
  1
Olivetti_200 A3
  2
Olivetti_200.pc3
  4
A3
  6

 40
4.984749794006347
 41
5.111746788024902
 42
5.154083251953125
 43
4.9847412109375
 44
297.0106506347656
 45
419.9889831542968
 46
0.0
 47
156.6621412366913
 48
0.0
 49
0.0
140
0.0
141
0.0
142
1.0
143
0.4718508730467012
 70
 11956
 72
     1
 73
     1
 74
     1
  7
DIERRE BN.ctb
 75
     0
147
2.119313658451206
148
-222.4649060220283
149
-239.0808115236937
1001
ACAD_PSEXT
1000
Olivetti_200.pc3
1000
Olivetti d-Copia 200MF KX
1000
IP_192.168.1.151
1000

1070
     0
  0
PLOTSETTINGS
  5
3A6
102
{ACAD_XDICTIONARY
360
46D
102
}
102
{ACAD_REACTORS
330
22
102
}
330
22
100
AcDbPlotSettings
  1
Olivetti_200 A4
  2
Olivetti_200.pc3
  4
A4
  6

 40
4.984749794006347
 41
5.154074668884277
 42
5.111740112304687
 43
4.9847412109375
 44
210.0156707763672
 45
297.0106506347656
 46
51.67548120477697
 47
0.0
 48
0.0
 49
0.0
140
0.0
141
0.0
142
1.0
143
0.4718508448115938
 70
 11956
 72
     1
 73
     0
 74
     1
  7
DIERRE BN.ctb
 75
     0
147
2.119313785268927
148
-222.4649060220283
149
-239.0808115236937
1001
ACAD_PSEXT
1000
Olivetti_200.pc3
1000
Olivetti d-Copia 200MF KX
1000
IP_192.168.1.151
1000

1070
     0
  0
PLOTSETTINGS
  5
3A7
102
{ACAD_XDICTIONARY
360
46F
102
}
102
{ACAD_REACTORS
330
22
102
}
330
22
100
AcDbPlotSettings
  1
PLOTTER
  2
PLOTTER.pc3
  4
User622
  6

 40
0.0
 41
0.0
 42
0.0
 43
0.0
 44
841.0
 45
1189.0
 46
0.0
 47
0.0
 48
0.0
 49
0.0
140
0.0
141
0.0
142
1.0
143
1.0
 70
 11936
 72
     1
 73
     0
 74
     1
  7
DIERRE BN.ctb
 75
     0
147
2.194137304425714
148
-222.4649060220283
149
-239.0808115236937
1001
ACAD_PSEXT
1000
PLOTTER.pc3
1000
HP DesignJet 430 (E/A0) by HP
1000
\\SERVER2003
1000

1070
     0
  0
ACDBPLACEHOLDER
  5
1D
102
{ACAD_REACTORS
330
1F
102
}
330
1F
  0
SCALE
  5
24F
102
{ACAD_REACTORS
330
24E
102
}
330
24E
100
AcDbScale
 70
     0
300
1:1
140
1.0
141
1.0
290
     1
  0
SCALE
  5
250
102
{ACAD_REACTORS
330
24E
102
}
330
24E
100
AcDbScale
 70
     0
300
1:2
140
1.0
141
2.0
290
     0
  0
SCALE
  5
251
102
{ACAD_REACTORS
330
24E
102
}
330
24E
100
AcDbScale
 70
     0
300
1:4
140
1.0
141
4.0
290
     0
  0
SCALE
  5
252
102
{ACAD_REACTORS
330
24E
102
}
330
24E
100
AcDbScale
 70
     0
300
1:5
140
1.0
141
5.0
290
     0
  0
SCALE
  5
253
102
{ACAD_REACTORS
330
24E
102
}
330
24E
100
AcDbScale
 70
     0
300
1:8
140
1.0
141
8.0
290
     0
  0
SCALE
  5
254
102
{ACAD_REACTORS
330
24E
102
}
330
24E
100
AcDbScale
 70
     0
300
1:10
140
1.0
141
10.0
290
     0
  0
SCALE
  5
255
102
{ACAD_REACTORS
330
24E
102
}
330
24E
100
AcDbScale
 70
     0
300
1:16
140
1.0
141
16.0
290
     0
  0
SCALE
  5
256
102
{ACAD_REACTORS
330
24E
102
}
330
24E
100
AcDbScale
 70
     0
300
1:20
140
1.0
141
20.0
290
     0
  0
SCALE
  5
257
102
{ACAD_REACTORS
330
24E
102
}
330
24E
100
AcDbScale
 70
     0
300
1:30
140
1.0
141
30.0
290
     0
  0
SCALE
  5
258
102
{ACAD_REACTORS
330
24E
102
}
330
24E
100
AcDbScale
 70
     0
300
1:40
140
1.0
141
40.0
290
     0
  0
SCALE
  5
259
102
{ACAD_REACTORS
330
24E
102
}
330
24E
100
AcDbScale
 70
     0
300
1:50
140
1.0
141
50.0
290
     0
  0
SCALE
  5
25A
102
{ACAD_REACTORS
330
24E
102
}
330
24E
100
AcDbScale
 70
     0
300
1:100
140
1.0
141
100.0
290
     0
  0
SCALE
  5
25B
102
{ACAD_REACTORS
330
24E
102
}
330
24E
100
AcDbScale
 70
     0
300
2:1
140
2.0
141
1.0
290
     0
  0
SCALE
  5
25C
102
{ACAD_REACTORS
330
24E
102
}
330
24E
100
AcDbScale
 70
     0
300
4:1
140
4.0
141
1.0
290
     0
  0
SCALE
  5
25D
102
{ACAD_REACTORS
330
24E
102
}
330
24E
100
AcDbScale
 70
     0
300
8:1
140
8.0
141
1.0
290
     0
  0
SCALE
  5
25E
102
{ACAD_REACTORS
330
24E
102
}
330
24E
100
AcDbScale
 70
     0
300
10:1
140
10.0
141
1.0
290
     0
  0
SCALE
  5
25F
102
{ACAD_REACTORS
330
24E
102
}
330
24E
100
AcDbScale
 70
     0
300
100:1
140
100.0
141
1.0
290
     0
  0
SCALE
  5
260
102
{ACAD_REACTORS
330
24E
102
}
330
24E
100
AcDbScale
 70
     0
300
1/128" = 1'-0"
140
0.0078125
141
12.0
290
     0
  0
SCALE
  5
261
102
{ACAD_REACTORS
330
24E
102
}
330
24E
100
AcDbScale
 70
     0
300
1/64" = 1'-0"
140
0.015625
141
12.0
290
     0
  0
SCALE
  5
262
102
{ACAD_REACTORS
330
24E
102
}
330
24E
100
AcDbScale
 70
     0
300
1/32" = 1'-0"
140
0.03125
141
12.0
290
     0
  0
SCALE
  5
263
102
{ACAD_REACTORS
330
24E
102
}
330
24E
100
AcDbScale
 70
     0
300
1/16" = 1'-0"
140
0.0625
141
12.0
290
     0
  0
SCALE
  5
264
102
{ACAD_REACTORS
330
24E
102
}
330
24E
100
AcDbScale
 70
     0
300
3/32" = 1'-0"
140
0.09375
141
12.0
290
     0
  0
SCALE
  5
265
102
{ACAD_REACTORS
330
24E
102
}
330
24E
100
AcDbScale
 70
     0
300
1/8" = 1'-0"
140
0.125
141
12.0
290
     0
  0
SCALE
  5
266
102
{ACAD_REACTORS
330
24E
102
}
330
24E
100
AcDbScale
 70
     0
300
3/16" = 1'-0"
140
0.1875
141
12.0
290
     0
  0
SCALE
  5
267
102
{ACAD_REACTORS
330
24E
102
}
330
24E
100
AcDbScale
 70
     0
300
1/4" = 1'-0"
140
0.25
141
12.0
290
     0
  0
SCALE
  5
268
102
{ACAD_REACTORS
330
24E
102
}
330
24E
100
AcDbScale
 70
     0
300
3/8" = 1'-0"
140
0.375
141
12.0
290
     0
  0
SCALE
  5
269
102
{ACAD_REACTORS
330
24E
102
}
330
24E
100
AcDbScale
 70
     0
300
1/2" = 1'-0"
140
0.5
141
12.0
290
     0
  0
SCALE
  5
26A
102
{ACAD_REACTORS
330
24E
102
}
330
24E
100
AcDbScale
 70
     0
300
3/4" = 1'-0"
140
0.75
141
12.0
290
     0
  0
SCALE
  5
26B
102
{ACAD_REACTORS
330
24E
102
}
330
24E
100
AcDbScale
 70
     0
300
1" = 1'-0"
140
1.0
141
12.0
290
     0
  0
SCALE
  5
26C
102
{ACAD_REACTORS
330
24E
102
}
330
24E
100
AcDbScale
 70
     0
300
1-1/2" = 1'-0"
140
1.5
141
12.0
290
     0
  0
SCALE
  5
26D
102
{ACAD_REACTORS
330
24E
102
}
330
24E
100
AcDbScale
 70
     0
300
3" = 1'-0"
140
3.0
141
12.0
290
     0
  0
SCALE
  5
26E
102
{ACAD_REACTORS
330
24E
102
}
330
24E
100
AcDbScale
 70
     0
300
6" = 1'-0"
140
6.0
141
12.0
290
     0
  0
SCALE
  5
26F
102
{ACAD_REACTORS
330
24E
102
}
330
24E
100
AcDbScale
 70
     0
300
1'-0" = 1'-0"
140
12.0
141
12.0
290
     0
  0
TABLESTYLE
  5
3A8
102
{ACAD_XDICTIONARY
360
3A9
102
}
102
{ACAD_REACTORS
330
28C
102
}
330
28C
100
AcDbTableStyle
  3
Standard
 70
     1
 71
     0
 40
1.5
 41
1.5
280
     1
281
     0
  7
ROMANS
140
3.0
170
     5
 62
     7
 63
     7
283
     0
274
    -2
284
     1
 64
     0
275
    -2
285
     1
 65
     0
276
    -2
286
     1
 66
     0
277
    -2
287
     1
 67
     0
278
    -2
288
     1
 68
     0
279
    -2
289
     1
 69
     0
  7
ROMANS
140
6.0
170
     5
 62
     1
 63
     7
283
     0
274
    -2
284
     1
 64
     0
275
    -2
285
     1
 65
     0
276
    -2
286
     1
 66
     0
277
    -2
287
     1
 67
     0
278
    -2
288
     1
 68
     0
279
    -2
289
     1
 69
     0
  7
ROMANS
140
3.5
170
     5
 62
     3
 63
     7
283
     0
274
    -2
284
     1
 64
     0
275
    -2
285
     1
 65
     0
276
    -2
286
     1
 66
     0
277
    -2
287
     1
 67
     0
278
    -2
288
     1
 68
     0
279
    -2
289
     1
 69
     0
  0
TABLESTYLE
  5
3AA
102
{ACAD_XDICTIONARY
360
3AB
102
}
102
{ACAD_REACTORS
330
28C
102
}
330
28C
100
AcDbTableStyle
  3
Standard
 70
     0
 71
     0
 40
1.5
 41
1.5
280
     0
281
     0
  7
ROMANS
140
4.5
170
     5
 62
     7
 63
     7
283
     0
274
    -2
284
     1
 64
     0
275
    -2
285
     1
 65
     0
276
    -2
286
     1
 66
     0
277
    -2
287
     1
 67
     0
278
    -2
288
     1
 68
     0
279
    -2
289
     1
 69
     0
  7
ROMANS
140
6.0
170
     5
 62
     1
 63
     7
283
     0
274
    -2
284
     1
 64
     0
275
    -2
285
     1
 65
     0
276
    -2
286
     1
 66
     0
277
    -2
287
     1
 67
     0
278
    -2
288
     1
 68
     0
279
    -2
289
     1
 69
     0
  7
ROMANS
140
5.0
170
     5
 62
     3
 63
     7
283
     0
274
    -2
284
     1
 64
     0
275
    -2
285
     1
 65
     0
276
    -2
286
     1
 66
     0
277
    -2
287
     1
 67
     0
278
    -2
288
     1
 68
     0
279
    -2
289
     1
 69
     0
  0
TABLESTYLE
  5
28D
102
{ACAD_XDICTIONARY
360
3D5
102
}
102
{ACAD_REACTORS
330
28C
102
}
330
28C
100
AcDbTableStyle
  3
Standard
 70
     0
 71
     0
 40
0.06
 41
0.06
280
     0
281
     0
  7
Standard
140
0.18
170
     2
 62
     0
 63
     7
283
     0
274
    -2
284
     1
 64
     0
275
    -2
285
     1
 65
     0
276
    -2
286
     1
 66
     0
277
    -2
287
     1
 67
     0
278
    -2
288
     1
 68
     0
279
    -2
289
     1
 69
     0
  7
Standard
140
0.25
170
     5
 62
     0
 63
     7
283
     0
274
    -2
284
     1
 64
     0
275
    -2
285
     1
 65
     0
276
    -2
286
     1
 66
     0
277
    -2
287
     1
 67
     0
278
    -2
288
     1
 68
     0
279
    -2
289
     1
 69
     0
  7
Standard
140
0.18
170
     5
 62
     0
 63
     7
283
     0
274
    -2
284
     1
 64
     0
275
    -2
285
     1
 65
     0
276
    -2
286
     1
 66
     0
277
    -2
287
     1
 67
     0
278
    -2
288
     1
 68
     0
279
    -2
289
     1
 69
     0
  0
VISUALSTYLE
  5
23F
102
{ACAD_XDICTIONARY
360
448
102
}
102
{ACAD_REACTORS
330
239
102
}
330
239
100
AcDbVisualStyle
  2
2dWireframe
 70
     4
 71
     0
 72
     2
 73
     0
 90
        0
 40
-0.6
 41
-30.0
 62
     5
 63
     7
 74
     1
 91
        4
 64
     7
 65
   257
 75
     1
175
     1
 42
1.0
 92
        0
 66
   257
 43
1.0
 76
     1
 77
     6
 78
     2
 67
     7
 79
     5
170
     0
171
     0
290
     0
174
     0
 93
        1
 44
0.0
173
     0
291
     0
 45
0.0
1001
ACAD
1000
AcDbSavedByObjectVersion
1070
     0
  0
VISUALSTYLE
  5
241
102
{ACAD_XDICTIONARY
360
44C
102
}
102
{ACAD_REACTORS
330
239
102
}
330
239
100
AcDbVisualStyle
  2
3D Hidden
 70
     6
 71
     1
 72
     2
 73
     2
 90
        0
 40
-0.6
 41
-30.0
 62
     5
 63
     7
 74
     2
 91
        2
 64
     7
 65
   257
 75
     2
175
     1
 42
179.0
 92
        0
 66
   257
 43
1.0
 76
     1
 77
     6
 78
     2
 67
     7
 79
     3
170
     0
171
     0
290
     0
174
     0
 93
        1
 44
0.0
173
     0
291
     0
 45
0.0
1001
ACAD
1000
AcDbSavedByObjectVersion
1070
     0
  0
VISUALSTYLE
  5
240
102
{ACAD_XDICTIONARY
360
44A
102
}
102
{ACAD_REACTORS
330
239
102
}
330
239
100
AcDbVisualStyle
  2
3dWireframe
 70
     5
 71
     0
 72
     2
 73
     0
 90
        0
 40
-0.6
 41
-30.0
 62
     5
 63
     7
 74
     1
 91
        4
 64
     7
 65
   257
 75
     1
175
     1
 42
1.0
 92
        0
 66
   257
 43
1.0
 76
     1
 77
     6
 78
     2
 67
     7
 79
     5
170
     0
171
     0
290
     0
174
     0
 93
        1
 44
0.0
173
     0
291
     0
 45
0.0
1001
ACAD
1000
AcDbSavedByObjectVersion
1070
     0
  0
VISUALSTYLE
  5
23E
102
{ACAD_XDICTIONARY
360
446
102
}
102
{ACAD_REACTORS
330
239
102
}
330
239
100
AcDbVisualStyle
  2
Basic
 70
     7
 71
     1
 72
     0
 73
     1
 90
        0
 40
-0.6
 41
-30.0
 62
     5
 63
     7
 74
     0
 91
        4
 64
     7
 65
   257
 75
     1
175
     1
 42
1.0
 92
        8
 66
     7
 43
1.0
 76
     1
 77
     6
 78
     2
 67
     7
 79
     5
170
     0
171
     0
290
     0
174
     0
 93
        1
 44
0.0
173
     0
291
     1
 45
0.0
1001
ACAD
1000
AcDbSavedByObjectVersion
1070
     0
  0
VISUALSTYLE
  5
245
102
{ACAD_XDICTIONARY
360
454
102
}
102
{ACAD_REACTORS
330
239
102
}
330
239
100
AcDbVisualStyle
  2
Brighten
 70
    12
 71
     2
 72
     2
 73
     0
 90
        0
 40
-0.6
 41
-30.0
 62
     5
 63
     7
 74
     1
 91
        4
 64
     7
 65
   257
 75
     1
175
     1
 42
1.0
 92
        8
 66
     7
 43
1.0
 76
     1
 77
     6
 78
     2
 67
     7
 79
     5
170
     0
171
     0
290
     0
174
     0
 93
        1
 44
50.0
173
     0
291
     1
 45
0.0
1001
ACAD
1000
AcDbSavedByObjectVersion
1070
     0
  0
VISUALSTYLE
  5
249
102
{ACAD_XDICTIONARY
360
45C
102
}
102
{ACAD_REACTORS
330
239
102
}
330
239
100
AcDbVisualStyle
  2
ColorChange
 70
    16
 71
     2
 72
     2
 73
     3
 90
        0
 40
-0.6
 41
-30.0
 62
     5
 63
     8
 74
     1
 91
        4
 64
     7
 65
   257
 75
     1
175
     1
 42
1.0
 92
        8
 66
     8
 43
1.0
 76
     1
 77
     6
 78
     2
 67
     7
 79
     5
170
     0
171
     0
290
     0
174
     0
 93
        1
 44
0.0
173
     0
291
     1
 45
0.0
1001
ACAD
1000
AcDbSavedByObjectVersion
1070
     0
  0
VISUALSTYLE
  5
242
102
{ACAD_XDICTIONARY
360
44E
102
}
102
{ACAD_REACTORS
330
239
102
}
330
239
100
AcDbVisualStyle
  2
Conceptual
 70
     9
 71
     3
 72
     2
 73
     0
 90
        0
 40
-0.6
 41
-30.0
 62
     5
 63
     7
 74
     2
 91
        2
 64
     7
 65
   257
 75
     1
175
     1
 42
179.0
 92
        8
 66
     7
 43
1.0
 76
     1
 77
     6
 78
     2
 67
     7
 79
     3
170
     0
171
     0
290
     0
174
     0
 93
        1
 44
0.0
173
     0
291
     0
 45
0.0
1001
ACAD
1000
AcDbSavedByObjectVersion
1070
     0
  0
VISUALSTYLE
  5
244
102
{ACAD_XDICTIONARY
360
452
102
}
102
{ACAD_REACTORS
330
239
102
}
330
239
100
AcDbVisualStyle
  2
Dim
 70
    11
 71
     2
 72
     2
 73
     0
 90
        0
 40
-0.6
 41
-30.0
 62
     5
 63
     7
 74
     1
 91
        4
 64
     7
 65
   257
 75
     1
175
     1
 42
1.0
 92
        8
 66
     7
 43
1.0
 76
     1
 77
     6
 78
     2
 67
     7
 79
     5
170
     0
171
     0
290
     0
174
     0
 93
        1
 44
-50.0
173
     0
291
     1
 45
0.0
1001
ACAD
1000
AcDbSavedByObjectVersion
1070
     0
  0
VISUALSTYLE
  5
24C
102
{ACAD_XDICTIONARY
360
462
102
}
102
{ACAD_REACTORS
330
239
102
}
330
239
100
AcDbVisualStyle
  2
EdgeColorOff
 70
    22
 71
     2
 72
     2
 73
     0
 90
        0
 40
-0.6
 41
-30.0
 62
     5
 63
     7
 74
     1
 91
        4
 64
     7
 65
   257
 75
     1
175
     1
 42
1.0
 92
        8
 66
     7
 43
1.0
 76
     1
 77
     6
 78
     2
 67
     7
 79
     5
170
     0
171
     0
290
     0
174
     0
 93
        1
 44
0.0
173
     0
291
     1
 45
0.0
1001
ACAD
1000
AcDbSavedByObjectVersion
1070
     0
  0
VISUALSTYLE
  5
248
102
{ACAD_XDICTIONARY
360
45A
102
}
102
{ACAD_REACTORS
330
239
102
}
330
239
100
AcDbVisualStyle
  2
Facepattern
 70
    15
 71
     2
 72
     2
 73
     0
 90
        0
 40
-0.6
 41
-30.0
 62
     5
 63
     7
 74
     1
 91
        4
 64
     7
 65
   257
 75
     1
175
     1
 42
1.0
 92
        8
 66
     7
 43
1.0
 76
     1
 77
     6
 78
     2
 67
     7
 79
     5
170
     0
171
     0
290
     0
174
     0
 93
        1
 44
0.0
173
     0
291
     1
 45
0.0
1001
ACAD
1000
AcDbSavedByObjectVersion
1070
     0
  0
VISUALSTYLE
  5
23A
102
{ACAD_XDICTIONARY
360
43E
102
}
102
{ACAD_REACTORS
330
239
102
}
330
239
100
AcDbVisualStyle
  2
Flat
 70
     0
 71
     2
 72
     1
 73
     1
 90
        2
 40
-0.6
 41
30.0
 62
     5
 63
     7
 74
     0
 91
        4
 64
     7
 65
   257
 75
     1
175
     1
 42
1.0
 92
        8
 66
     7
 43
1.0
 76
     1
 77
     6
 78
     2
 67
     7
 79
     5
170
     0
171
     0
290
     0
174
     0
 93
       13
 44
0.0
173
     0
291
     1
 45
0.0
1001
ACAD
1000
AcDbSavedByObjectVersion
1070
     0
  0
VISUALSTYLE
  5
23B
102
{ACAD_XDICTIONARY
360
440
102
}
102
{ACAD_REACTORS
330
239
102
}
330
239
100
AcDbVisualStyle
  2
FlatWithEdges
 70
     1
 71
     2
 72
     1
 73
     1
 90
        2
 40
-0.6
 41
30.0
 62
     5
 63
     7
 74
     1
 91
        4
 64
     7
 65
   257
 75
     1
175
     1
 42
1.0
 92
        0
 66
   257
 43
1.0
 76
     1
 77
     6
 78
     2
 67
     7
 79
     5
170
     0
171
     0
290
     0
174
     0
 93
       13
 44
0.0
173
     0
291
     1
 45
0.0
1001
ACAD
1000
AcDbSavedByObjectVersion
1070
     0
  0
VISUALSTYLE
  5
23C
102
{ACAD_XDICTIONARY
360
442
102
}
102
{ACAD_REACTORS
330
239
102
}
330
239
100
AcDbVisualStyle
  2
Gouraud
 70
     2
 71
     2
 72
     2
 73
     1
 90
        2
 40
-0.6
 41
30.0
 62
     5
 63
     7
 74
     0
 91
        4
 64
     7
 65
   257
 75
     1
175
     1
 42
1.0
 92
        0
 66
     7
 43
1.0
 76
     1
 77
     6
 78
     2
 67
     7
 79
     5
170
     0
171
     0
290
     0
174
     0
 93
       13
 44
0.0
173
     0
291
     1
 45
0.0
1001
ACAD
1000
AcDbSavedByObjectVersion
1070
     0
  0
VISUALSTYLE
  5
23D
102
{ACAD_XDICTIONARY
360
444
102
}
102
{ACAD_REACTORS
330
239
102
}
330
239
100
AcDbVisualStyle
  2
GouraudWithEdges
 70
     3
 71
     2
 72
     2
 73
     1
 90
        2
 40
-0.6
 41
30.0
 62
     5
 63
     7
 74
     1
 91
        4
 64
     7
 65
   257
 75
     1
175
     1
 42
1.0
 92
        0
 66
   257
 43
1.0
 76
     1
 77
     6
 78
     2
 67
     7
 79
     5
170
     0
171
     0
290
     0
174
     0
 93
       13
 44
0.0
173
     0
291
     1
 45
0.0
1001
ACAD
1000
AcDbSavedByObjectVersion
1070
     0
  0
VISUALSTYLE
  5
422
102
{ACAD_XDICTIONARY
360
475
102
}
102
{ACAD_REACTORS
330
239
102
}
330
239
100
AcDbVisualStyle
  2
Hidden
 70
     6
 71
     1
 72
     2
 73
     2
 90
        0
 40
-0.6
 41
-30.0
 62
     5
 63
     7
 74
     2
 91
        2
 64
     7
 65
   257
 75
     2
175
     1
 42
40.0
 92
        0
 66
   257
 43
1.0
 76
     1
 77
     6
 78
     2
 67
     7
 79
     3
170
     0
171
     0
290
     0
174
     0
 93
        1
 44
0.0
173
     0
291
     0
 45
0.0
1001
ACAD
1000
AcDbSavedByObjectVersion
1070
     0
  0
VISUALSTYLE
  5
24A
102
{ACAD_XDICTIONARY
360
45E
102
}
102
{ACAD_REACTORS
330
239
102
}
330
239
100
AcDbVisualStyle
  2
JitterOff
 70
    20
 71
     2
 72
     2
 73
     0
 90
        0
 40
-0.6
 41
-30.0
 62
     5
 63
     7
 74
     1
 91
        4
 64
     7
 65
   257
 75
     1
175
     1
 42
1.0
 92
       10
 66
     7
 43
1.0
 76
     1
 77
     6
 78
     2
 67
     7
 79
     5
170
     0
171
     0
290
     0
174
     0
 93
        1
 44
0.0
173
     0
291
     1
 45
0.0
1001
ACAD
1000
AcDbSavedByObjectVersion
1070
     0
  0
VISUALSTYLE
  5
247
102
{ACAD_XDICTIONARY
360
458
102
}
102
{ACAD_REACTORS
330
239
102
}
330
239
100
AcDbVisualStyle
  2
Linepattern
 70
    14
 71
     2
 72
     2
 73
     0
 90
        0
 40
-0.6
 41
-30.0
 62
     5
 63
     7
 74
     1
 91
        4
 64
     7
 65
   257
 75
     7
175
     7
 42
1.0
 92
        8
 66
     7
 43
1.0
 76
     1
 77
     6
 78
     2
 67
     7
 79
     5
170
     0
171
     0
290
     0
174
     0
 93
        1
 44
0.0
173
     0
291
     1
 45
0.0
1001
ACAD
1000
AcDbSavedByObjectVersion
1070
     0
  0
VISUALSTYLE
  5
24B
102
{ACAD_XDICTIONARY
360
460
102
}
102
{ACAD_REACTORS
330
239
102
}
330
239
100
AcDbVisualStyle
  2
OverhangOff
 70
    21
 71
     2
 72
     2
 73
     0
 90
        0
 40
-0.6
 41
-30.0
 62
     5
 63
     7
 74
     1
 91
        4
 64
     7
 65
   257
 75
     1
175
     1
 42
1.0
 92
        9
 66
     7
 43
1.0
 76
     1
 77
     6
 78
     2
 67
     7
 79
     5
170
     0
171
     0
290
     0
174
     0
 93
        1
 44
0.0
173
     0
291
     1
 45
0.0
1001
ACAD
1000
AcDbSavedByObjectVersion
1070
     0
  0
VISUALSTYLE
  5
243
102
{ACAD_XDICTIONARY
360
450
102
}
102
{ACAD_REACTORS
330
239
102
}
330
239
100
AcDbVisualStyle
  2
Realistic
 70
     8
 71
     2
 72
     2
 73
     0
 90
        0
 40
-0.6
 41
-30.0
 62
     5
 63
     7
 74
     1
 91
        0
 64
     7
 65
   257
 75
     1
175
     1
 42
1.0
 92
        8
 66
     8
 43
1.0
 76
     1
 77
     6
 78
     2
 67
     7
 79
     5
170
     0
171
     0
290
     0
174
     0
 93
       13
 44
0.0
173
     0
291
     0
 45
0.0
1001
ACAD
1000
AcDbSavedByObjectVersion
1070
     0
  0
VISUALSTYLE
  5
427
102
{ACAD_XDICTIONARY
360
47F
102
}
102
{ACAD_REACTORS
330
239
102
}
330
239
100
AcDbVisualStyle
  2
Shaded
 70
    27
 71
     2
 72
     2
 73
     1
 90
        2
 40
-0.6
 41
30.0
 62
     5
 63
     7
 74
     0
 91
        4
 64
     7
 65
   257
 75
     1
175
     1
 42
1.0
 92
        8
 66
   257
 43
1.0
 76
     1
 77
     6
 78
     2
 67
     8
 79
     3
170
     0
171
     0
290
     0
174
     0
 93
        5
 44
0.0
173
     0
291
     0
 45
0.0
1001
ACAD
1000
AcDbSavedByObjectVersion
1070
     0
  0
VISUALSTYLE
  5
426
102
{ACAD_XDICTIONARY
360
47D
102
}
102
{ACAD_REACTORS
330
239
102
}
330
239
100
AcDbVisualStyle
  2
Shaded with edges
 70
    26
 71
     2
 72
     2
 73
     1
 90
        2
 40
-0.6
 41
30.0
 62
     5
 63
     7
 74
     1
 91
       10
 64
     7
 65
   257
 75
     2
175
     1
 42
1.0
 92
        8
 66
   257
 43
1.0
 76
     1
 77
     6
 78
     2
 67
     7
 79
     3
170
     0
171
     0
290
     0
174
     0
 93
        5
 44
0.0
173
     0
291
     0
 45
0.0
1001
ACAD
1000
AcDbSavedByObjectVersion
1070
     0
  0
VISUALSTYLE
  5
423
102
{ACAD_XDICTIONARY
360
477
102
}
102
{ACAD_REACTORS
330
239
102
}
330
239
100
AcDbVisualStyle
  2
Shades of Gray
 70
    23
 71
     2
 72
     2
 73
     3
 90
        0
 40
-0.6
 41
-30.0
 62
     5
 63
     7
 74
     2
 91
        2
 64
     7
 65
     7
 75
     1
175
     1
 42
40.0
 92
        8
 66
     7
 43
1.0
 76
     1
 77
     6
 78
     2
 67
     7
 79
     3
170
     0
171
     0
290
     0
174
     0
 93
        1
 44
0.0
173
     0
291
     0
 45
0.0
1001
ACAD
1000
AcDbSavedByObjectVersion
1070
     0
  0
VISUALSTYLE
  5
424
102
{ACAD_XDICTIONARY
360
479
102
}
102
{ACAD_REACTORS
330
239
102
}
330
239
100
AcDbVisualStyle
  2
Sketchy
 70
    24
 71
     1
 72
     2
 73
     2
 90
        0
 40
-0.6
 41
-30.0
 62
     5
 63
     7
 74
     2
 91
        2
 64
     7
 65
     7
 75
     1
175
     1
 42
40.0
 92
       11
 66
     7
 43
1.0
 76
     1
 77
     6
 78
     2
 67
     7
 79
     6
170
     0
171
     0
290
     0
174
     0
 93
        1
 44
0.0
173
     0
291
     0
 45
0.0
1001
ACAD
1000
AcDbSavedByObjectVersion
1070
     0
  0
VISUALSTYLE
  5
246
102
{ACAD_XDICTIONARY
360
456
102
}
102
{ACAD_REACTORS
330
239
102
}
330
239
100
AcDbVisualStyle
  2
Thicken
 70
    13
 71
     2
 72
     2
 73
     0
 90
        0
 40
-0.6
 41
-30.0
 62
     5
 63
     7
 74
     1
 91
        4
 64
     7
 65
   257
 75
     1
175
     1
 42
1.0
 92
       12
 66
     7
 43
1.0
 76
     1
 77
     6
 78
     2
 67
     7
 79
     5
170
     0
171
     0
290
     0
174
     0
 93
        1
 44
0.0
173
     0
291
     1
 45
0.0
1001
ACAD
1000
AcDbSavedByObjectVersion
1070
     0
  0
VISUALSTYLE
  5
421
102
{ACAD_XDICTIONARY
360
473
102
}
102
{ACAD_REACTORS
330
239
102
}
330
239
100
AcDbVisualStyle
  2
Wireframe
 70
     5
 71
     0
 72
     2
 73
     0
 90
        0
 40
-0.6
 41
-30.0
 62
     5
 63
     7
 74
     1
 91
        4
 64
     7
 65
   257
 75
     1
175
     1
 42
1.0
 92
        0
 66
   257
 43
1.0
 76
     1
 77
     6
 78
     2
 67
     7
 79
     3
170
     0
171
     0
290
     0
174
     0
 93
        1
 44
0.0
173
     0
291
     0
 45
0.0
1001
ACAD
1000
AcDbSavedByObjectVersion
1070
     0
  0
VISUALSTYLE
  5
425
102
{ACAD_XDICTIONARY
360
47B
102
}
102
{ACAD_REACTORS
330
239
102
}
330
239
100
AcDbVisualStyle
  2
X-Ray
 70
    25
 71
     2
 72
     2
 73
     1
 90
        1
 40
0.5
 41
-30.0
 62
     5
 63
     7
 74
     1
 91
        0
 64
     7
 65
   257
 75
     1
175
     1
 42
1.0
 92
        8
 66
     7
 43
1.0
 76
     1
 77
     6
 78
     2
 67
     7
 79
     3
170
     0
171
     0
290
     0
174
     0
 93
       13
 44
0.0
173
     0
291
     0
 45
0.0
1001
ACAD
1000
AcDbSavedByObjectVersion
1070
     0
  0
DICTIONARYVAR
  5
41C
102
{ACAD_REACTORS
330
21E
102
}
330
21E
100
DictionaryVariables
280
     0
  1
1:1
  0
DICTIONARYVAR
  5
41A
102
{ACAD_REACTORS
330
21E
102
}
330
21E
100
DictionaryVariables
280
     0
  1
STANDARD
  0
DICTIONARYVAR
  5
419
102
{ACAD_REACTORS
330
21E
102
}
330
21E
100
DictionaryVariables
280
     0
  1
STANDARD
  0
DICTIONARYVAR
  5
21F
330
21E
100
DictionaryVariables
280
     0
  1
2
  0
DICTIONARYVAR
  5
41B
102
{ACAD_REACTORS
330
21E
102
}
330
21E
100
DictionaryVariables
280
     0
  1
0
  0
DICTIONARYVAR
  5
41E
102
{ACAD_REACTORS
330
21E
102
}
330
21E
100
DictionaryVariables
280
     0
  1
0
  0
DICTIONARYVAR
  5
41D
102
{ACAD_REACTORS
330
21E
102
}
330
21E
100
DictionaryVariables
280
     0
  1
127
  0
DICTIONARYVAR
  5
431
102
{ACAD_REACTORS
330
21E
102
}
330
21E
100
DictionaryVariables
280
     0
  1
2
  0
XRECORD
  5
3D4
102
{ACAD_REACTORS
330
3D2
102
}
330
3D2
100
AcDbXrecord
280
     1
330
191
330
30F
330
310
330
318
330
319
330
321
330
322
330
32A
330
32B
330
333
330
334
330
33C
330
33D
330
345
330
346
330
34E
330
34F
330
357
330
358
330
360
330
361
330
36B
330
36C
330
374
330
375
330
37E
330
37F
  0
XRECORD
  5
388
102
{ACAD_REACTORS
330
387
102
}
330
387
100
AcDbXrecord
280
     1
 91
        1
  0
ACAD_PROXY_OBJECT
  5
385
102
{ACAD_REACTORS
330
384
102
}
330
384
100
AcDbProxyObject
 90
      499
 91
      529
 95
   983063
 70
     0
 93
       88
310
4050844454641554C5400E00
 94
        0
1001
ACAD
1000
AcRTDxfName
1000
ACDBQSCATEGORY
  0
XRECORD
  5
3D0
102
{ACAD_REACTORS
330
3CE
102
}
330
3CE
100
AcDbXrecord
280
     1
  9
X6c89
  0
XRECORD
  5
3CF
102
{ACAD_REACTORS
330
3CE
102
}
330
3CE
100
AcDbXrecord
280
     1
  2
TOP
  3
P-0000
280
     1
310
6465736372697A696F6E6500544F5000444154410032372F31322F313000554D004E520052455600300044495345474E41544F5245004D2E43617075616E6F005343414C4100313A310000
 10
0.0
 20
0.0
 30
0.0
  0
XRECORD
  5
38F
102
{ACAD_REACTORS
330
38E
102
}
330
38E
100
AcDbXrecord
280
     1
 90
      202
 91
      144
  0
DICTIONARY
  5
439
330
21
100
AcDbDictionary
280
     1
281
     1
  3
ACAD_XREC_ROUNDTRIP
360
43A
  0
DICTIONARY
  5
437
330
20
100
AcDbDictionary
280
     1
281
     1
  3
ACAD_XREC_ROUNDTRIP
360
438
  0
DICTIONARY
  5
22A
330
229
100
AcDbDictionary
280
     1
281
     1
  3
ACAD_XREC_ROUNDTRIP
360
43C
  3
BUMPTILE
360
22C
  3
DIFFUSETILE
360
22B
  3
OPACITYTILE
360
22F
  3
REFLECTIONTILE
360
22E
  3
REFRACTIONTILE
360
230
  3
SPECULARTILE
360
22D
  0
DICTIONARY
  5
222
330
221
100
AcDbDictionary
280
     1
281
     1
  3
ACAD_XREC_ROUNDTRIP
360
43B
  3
BUMPTILE
360
224
  3
DIFFUSETILE
360
223
  3
OPACITYTILE
360
227
  3
REFLECTIONTILE
360
226
  3
REFRACTIONTILE
360
228
  3
SPECULARTILE
360
225
  0
DICTIONARY
  5
232
330
231
100
AcDbDictionary
280
     1
281
     1
  3
ACAD_XREC_ROUNDTRIP
360
43D
  3
BUMPTILE
360
234
  3
DIFFUSETILE
360
233
  3
OPACITYTILE
360
237
  3
REFLECTIONTILE
360
236
  3
REFRACTIONTILE
360
238
  3
SPECULARTILE
360
235
  0
DICTIONARY
  5
467
330
3A3
100
AcDbDictionary
280
     1
281
     1
  3
ACAD_XREC_ROUNDTRIP
360
468
  0
DICTIONARY
  5
469
330
3A4
100
AcDbDictionary
280
     1
281
     1
  3
ACAD_XREC_ROUNDTRIP
360
46A
  0
DICTIONARY
  5
46B
330
3A5
100
AcDbDictionary
280
     1
281
     1
  3
ACAD_XREC_ROUNDTRIP
360
46C
  0
DICTIONARY
  5
46D
330
3A6
100
AcDbDictionary
280
     1
281
     1
  3
ACAD_XREC_ROUNDTRIP
360
46E
  0
DICTIONARY
  5
46F
330
3A7
100
AcDbDictionary
280
     1
281
     1
  3
ACAD_XREC_ROUNDTRIP
360
470
  0
DICTIONARY
  5
3A9
330
3A8
100
AcDbDictionary
280
     1
281
     1
  3
ACAD_ROUNDTRIP_2008_TABLESTYLE_CELLSTYLEMAP
360
433
  3
ACAD_XREC_ROUNDTRIP
360
471
  0
DICTIONARY
  5
3AB
330
3AA
100
AcDbDictionary
280
     1
281
     1
  3
ACAD_ROUNDTRIP_2008_TABLESTYLE_CELLSTYLEMAP
360
434
  3
ACAD_XREC_ROUNDTRIP
360
472
  0
DICTIONARY
  5
3D5
330
28D
100
AcDbDictionary
280
     1
281
     1
  3
ACAD_ROUNDTRIP_2008_TABLESTYLE_CELLSTYLEMAP
360
432
  3
ACAD_XREC_ROUNDTRIP
360
464
  0
DICTIONARY
  5
448
330
23F
100
AcDbDictionary
280
     1
281
     1
  3
ACAD_XREC_ROUNDTRIP
360
449
  0
DICTIONARY
  5
44C
330
241
100
AcDbDictionary
280
     1
281
     1
  3
ACAD_XREC_ROUNDTRIP
360
44D
  0
DICTIONARY
  5
44A
330
240
100
AcDbDictionary
280
     1
281
     1
  3
ACAD_XREC_ROUNDTRIP
360
44B
  0
DICTIONARY
  5
446
330
23E
100
AcDbDictionary
280
     1
281
     1
  3
ACAD_XREC_ROUNDTRIP
360
447
  0
DICTIONARY
  5
454
330
245
100
AcDbDictionary
280
     1
281
     1
  3
ACAD_XREC_ROUNDTRIP
360
455
  0
DICTIONARY
  5
45C
330
249
100
AcDbDictionary
280
     1
281
     1
  3
ACAD_XREC_ROUNDTRIP
360
45D
  0
DICTIONARY
  5
44E
330
242
100
AcDbDictionary
280
     1
281
     1
  3
ACAD_XREC_ROUNDTRIP
360
44F
  0
DICTIONARY
  5
452
330
244
100
AcDbDictionary
280
     1
281
     1
  3
ACAD_XREC_ROUNDTRIP
360
453
  0
DICTIONARY
  5
462
330
24C
100
AcDbDictionary
280
     1
281
     1
  3
ACAD_XREC_ROUNDTRIP
360
463
  0
DICTIONARY
  5
45A
330
248
100
AcDbDictionary
280
     1
281
     1
  3
ACAD_XREC_ROUNDTRIP
360
45B
  0
DICTIONARY
  5
43E
330
23A
100
AcDbDictionary
280
     1
281
     1
  3
ACAD_XREC_ROUNDTRIP
360
43F
  0
DICTIONARY
  5
440
330
23B
100
AcDbDictionary
280
     1
281
     1
  3
ACAD_XREC_ROUNDTRIP
360
441
  0
DICTIONARY
  5
442
330
23C
100
AcDbDictionary
280
     1
281
     1
  3
ACAD_XREC_ROUNDTRIP
360
443
  0
DICTIONARY
  5
444
330
23D
100
AcDbDictionary
280
     1
281
     1
  3
ACAD_XREC_ROUNDTRIP
360
445
  0
DICTIONARY
  5
475
330
422
100
AcDbDictionary
280
     1
281
     1
  3
ACAD_XREC_ROUNDTRIP
360
476
  0
DICTIONARY
  5
45E
330
24A
100
AcDbDictionary
280
     1
281
     1
  3
ACAD_XREC_ROUNDTRIP
360
45F
  0
DICTIONARY
  5
458
330
247
100
AcDbDictionary
280
     1
281
     1
  3
ACAD_XREC_ROUNDTRIP
360
459
  0
DICTIONARY
  5
460
330
24B
100
AcDbDictionary
280
     1
281
     1
  3
ACAD_XREC_ROUNDTRIP
360
461
  0
DICTIONARY
  5
450
330
243
100
AcDbDictionary
280
     1
281
     1
  3
ACAD_XREC_ROUNDTRIP
360
451
  0
DICTIONARY
  5
47F
330
427
100
AcDbDictionary
280
     1
281
     1
  3
ACAD_XREC_ROUNDTRIP
360
480
  0
DICTIONARY
  5
47D
330
426
100
AcDbDictionary
280
     1
281
     1
  3
ACAD_XREC_ROUNDTRIP
360
47E
  0
DICTIONARY
  5
477
330
423
100
AcDbDictionary
280
     1
281
     1
  3
ACAD_XREC_ROUNDTRIP
360
478
  0
DICTIONARY
  5
479
330
424
100
AcDbDictionary
280
     1
281
     1
  3
ACAD_XREC_ROUNDTRIP
360
47A
  0
DICTIONARY
  5
456
330
246
100
AcDbDictionary
280
     1
281
     1
  3
ACAD_XREC_ROUNDTRIP
360
457
  0
DICTIONARY
  5
473
330
421
100
AcDbDictionary
280
     1
281
     1
  3
ACAD_XREC_ROUNDTRIP
360
474
  0
DICTIONARY
  5
47B
330
425
100
AcDbDictionary
280
     1
281
     1
  3
ACAD_XREC_ROUNDTRIP
360
47C
  0
XRECORD
  5
43A
102
{ACAD_REACTORS
330
439
102
}
330
439
100
AcDbXrecord
280
     1
102
SHADEPLOT
 70
     0
102
SHADEPLOTRESLEVEL
 70
     2
102
SHADEPLOTCUSTOMDPI
 70
   300
  0
XRECORD
  5
438
102
{ACAD_REACTORS
330
437
102
}
330
437
100
AcDbXrecord
280
     1
102
SHADEPLOT
 70
     0
102
SHADEPLOTRESLEVEL
 70
     2
102
SHADEPLOTCUSTOMDPI
 70
   300
  0
XRECORD
  5
43C
102
{ACAD_REACTORS
330
22A
102
}
330
22A
100
AcDbXrecord
280
     1
102
MATERIAL
148
0.0
149
0.0
149
0.0
 93
        0
 94
      127
282
     0
 72
     0
 77
     0
171
     0
175
     0
179
     0
273
     0
  0
XRECORD
  5
22C
102
{ACAD_REACTORS
330
22A
102
}
330
22A
100
AcDbXrecord
280
     1
270
     1
271
     1
  0
XRECORD
  5
22B
102
{ACAD_REACTORS
330
22A
102
}
330
22A
100
AcDbXrecord
280
     1
270
     1
271
     1
  0
XRECORD
  5
22F
102
{ACAD_REACTORS
330
22A
102
}
330
22A
100
AcDbXrecord
280
     1
270
     1
271
     1
  0
XRECORD
  5
22E
102
{ACAD_REACTORS
330
22A
102
}
330
22A
100
AcDbXrecord
280
     1
270
     1
271
     1
  0
XRECORD
  5
230
102
{ACAD_REACTORS
330
22A
102
}
330
22A
100
AcDbXrecord
280
     1
270
     1
271
     1
  0
XRECORD
  5
22D
102
{ACAD_REACTORS
330
22A
102
}
330
22A
100
AcDbXrecord
280
     1
270
     1
271
     1
  0
XRECORD
  5
43B
102
{ACAD_REACTORS
330
222
102
}
330
222
100
AcDbXrecord
280
     1
102
MATERIAL
148
0.0
149
0.0
149
0.0
 93
        0
 94
      127
282
     0
 72
     0
 77
     0
171
     0
175
     0
179
     0
273
     0
  0
XRECORD
  5
224
102
{ACAD_REACTORS
330
222
102
}
330
222
100
AcDbXrecord
280
     1
270
     1
271
     1
  0
XRECORD
  5
223
102
{ACAD_REACTORS
330
222
102
}
330
222
100
AcDbXrecord
280
     1
270
     1
271
     1
  0
XRECORD
  5
227
102
{ACAD_REACTORS
330
222
102
}
330
222
100
AcDbXrecord
280
     1
270
     1
271
     1
  0
XRECORD
  5
226
102
{ACAD_REACTORS
330
222
102
}
330
222
100
AcDbXrecord
280
     1
270
     1
271
     1
  0
XRECORD
  5
228
102
{ACAD_REACTORS
330
222
102
}
330
222
100
AcDbXrecord
280
     1
270
     1
271
     1
  0
XRECORD
  5
225
102
{ACAD_REACTORS
330
222
102
}
330
222
100
AcDbXrecord
280
     1
270
     1
271
     1
  0
XRECORD
  5
43D
102
{ACAD_REACTORS
330
232
102
}
330
232
100
AcDbXrecord
280
     1
102
MATERIAL
148
0.0
149
0.0
149
0.0
 93
        0
 94
      127
282
     0
 72
     0
 77
     0
171
     0
175
     0
179
     0
273
     0
  0
XRECORD
  5
234
102
{ACAD_REACTORS
330
232
102
}
330
232
100
AcDbXrecord
280
     1
270
     1
271
     1
  0
XRECORD
  5
233
102
{ACAD_REACTORS
330
232
102
}
330
232
100
AcDbXrecord
280
     1
270
     1
271
     1
  0
XRECORD
  5
237
102
{ACAD_REACTORS
330
232
102
}
330
232
100
AcDbXrecord
280
     1
270
     1
271
     1
  0
XRECORD
  5
236
102
{ACAD_REACTORS
330
232
102
}
330
232
100
AcDbXrecord
280
     1
270
     1
271
     1
  0
XRECORD
  5
238
102
{ACAD_REACTORS
330
232
102
}
330
232
100
AcDbXrecord
280
     1
270
     1
271
     1
  0
XRECORD
  5
235
102
{ACAD_REACTORS
330
232
102
}
330
232
100
AcDbXrecord
280
     1
270
     1
271
     1
  0
XRECORD
  5
468
102
{ACAD_REACTORS
330
467
102
}
330
467
100
AcDbXrecord
280
     1
102
SHADEPLOT
 70
     0
102
SHADEPLOTRESLEVEL
 70
     2
102
SHADEPLOTCUSTOMDPI
 70
   300
  0
XRECORD
  5
46A
102
{ACAD_REACTORS
330
469
102
}
330
469
100
AcDbXrecord
280
     1
102
SHADEPLOT
 70
     0
102
SHADEPLOTRESLEVEL
 70
     2
102
SHADEPLOTCUSTOMDPI
 70
   300
  0
XRECORD
  5
46C
102
{ACAD_REACTORS
330
46B
102
}
330
46B
100
AcDbXrecord
280
     1
102
SHADEPLOT
 70
     0
102
SHADEPLOTRESLEVEL
 70
     2
102
SHADEPLOTCUSTOMDPI
 70
   300
  0
XRECORD
  5
46E
102
{ACAD_REACTORS
330
46D
102
}
330
46D
100
AcDbXrecord
280
     1
102
SHADEPLOT
 70
     0
102
SHADEPLOTRESLEVEL
 70
     2
102
SHADEPLOTCUSTOMDPI
 70
   300
  0
XRECORD
  5
470
102
{ACAD_REACTORS
330
46F
102
}
330
46F
100
AcDbXrecord
280
     1
102
SHADEPLOT
 70
     0
102
SHADEPLOTRESLEVEL
 70
     2
102
SHADEPLOTCUSTOMDPI
 70
   300
  0
CELLSTYLEMAP
  5
433
102
{ACAD_REACTORS
330
3A9
102
}
330
3A9
100
AcDbCellStyleMap
 90
        3
300
CELLSTYLE
  1
TABLEFORMAT_BEGIN
 90
        5
170
     1
 91
        0
 92
    32768
 62
   257
 93
        1
300
CONTENTFORMAT
  1
CONTENTFORMAT_BEGIN
 90
        0
 91
        0
 92
      512
 93
        0
300

 40
0.0
140
1.0
 94
        5
 62
     1
340
395
144
6.0
309
CONTENTFORMAT_END
171
     1
301
MARGIN
  1
CELLMARGIN_BEGIN
 40
1.5
 40
1.5
 40
1.5
 40
1.5
 40
0.18
 40
0.18
309
CELLMARGIN_END
 94
        6
 95
        1
302
GRIDFORMAT
  1
GRIDFORMAT_BEGIN
 90
        0
 91
        1
 62
     0
 92
       -2
340
0
 93
        0
 40
0.045
309
GRIDFORMAT_END
 95
        2
302
GRIDFORMAT
  1
GRIDFORMAT_BEGIN
 90
        0
 91
        1
 62
     0
 92
       -2
340
0
 93
        0
 40
0.045
309
GRIDFORMAT_END
 95
        4
302
GRIDFORMAT
  1
GRIDFORMAT_BEGIN
 90
        0
 91
        1
 62
     0
 92
       -2
340
0
 93
        0
 40
0.045
309
GRIDFORMAT_END
 95
        8
302
GRIDFORMAT
  1
GRIDFORMAT_BEGIN
 90
        0
 91
        1
 62
     0
 92
       -2
340
0
 93
        0
 40
0.045
309
GRIDFORMAT_END
 95
       16
302
GRIDFORMAT
  1
GRIDFORMAT_BEGIN
 90
        0
 91
        1
 62
     0
 92
       -2
340
0
 93
        0
 40
0.045
309
GRIDFORMAT_END
 95
       32
302
GRIDFORMAT
  1
GRIDFORMAT_BEGIN
 90
        0
 91
        1
 62
     0
 92
       -2
340
0
 93
        0
 40
0.045
309
GRIDFORMAT_END
309
TABLEFORMAT_END
  1
CELLSTYLE_BEGIN
 90
        1
 91
        1
300
_TITLE
309
CELLSTYLE_END
300
CELLSTYLE
  1
TABLEFORMAT_BEGIN
 90
        5
170
     1
 91
        0
 92
        0
 62
   257
 93
        1
300
CONTENTFORMAT
  1
CONTENTFORMAT_BEGIN
 90
        0
 91
        0
 92
      512
 93
        0
300

 40
0.0
140
1.0
 94
        5
 62
     3
340
395
144
3.5
309
CONTENTFORMAT_END
171
     1
301
MARGIN
  1
CELLMARGIN_BEGIN
 40
1.5
 40
1.5
 40
1.5
 40
1.5
 40
0.18
 40
0.18
309
CELLMARGIN_END
 94
        6
 95
        1
302
GRIDFORMAT
  1
GRIDFORMAT_BEGIN
 90
        0
 91
        1
 62
     0
 92
       -2
340
0
 93
        0
 40
0.045
309
GRIDFORMAT_END
 95
        2
302
GRIDFORMAT
  1
GRIDFORMAT_BEGIN
 90
        0
 91
        1
 62
     0
 92
       -2
340
0
 93
        0
 40
0.045
309
GRIDFORMAT_END
 95
        4
302
GRIDFORMAT
  1
GRIDFORMAT_BEGIN
 90
        0
 91
        1
 62
     0
 92
       -2
340
0
 93
        0
 40
0.045
309
GRIDFORMAT_END
 95
        8
302
GRIDFORMAT
  1
GRIDFORMAT_BEGIN
 90
        0
 91
        1
 62
     0
 92
       -2
340
0
 93
        0
 40
0.045
309
GRIDFORMAT_END
 95
       16
302
GRIDFORMAT
  1
GRIDFORMAT_BEGIN
 90
        0
 91
        1
 62
     0
 92
       -2
340
0
 93
        0
 40
0.045
309
GRIDFORMAT_END
 95
       32
302
GRIDFORMAT
  1
GRIDFORMAT_BEGIN
 90
        0
 91
        1
 62
     0
 92
       -2
340
0
 93
        0
 40
0.045
309
GRIDFORMAT_END
309
TABLEFORMAT_END
  1
CELLSTYLE_BEGIN
 90
        2
 91
        1
300
_HEADER
309
CELLSTYLE_END
300
CELLSTYLE
  1
TABLEFORMAT_BEGIN
 90
        5
170
     1
 91
        0
 92
        0
 62
   257
 93
        1
300
CONTENTFORMAT
  1
CONTENTFORMAT_BEGIN
 90
        0
 91
        0
 92
      512
 93
        0
300

 40
0.0
140
1.0
 94
        5
 62
     7
340
395
144
3.0
309
CONTENTFORMAT_END
171
     1
301
MARGIN
  1
CELLMARGIN_BEGIN
 40
1.5
 40
1.5
 40
1.5
 40
1.5
 40
0.18
 40
0.18
309
CELLMARGIN_END
 94
        6
 95
        1
302
GRIDFORMAT
  1
GRIDFORMAT_BEGIN
 90
        0
 91
        1
 62
     0
 92
       -2
340
0
 93
        0
 40
0.045
309
GRIDFORMAT_END
 95
        2
302
GRIDFORMAT
  1
GRIDFORMAT_BEGIN
 90
        0
 91
        1
 62
     0
 92
       -2
340
0
 93
        0
 40
0.045
309
GRIDFORMAT_END
 95
        4
302
GRIDFORMAT
  1
GRIDFORMAT_BEGIN
 90
        0
 91
        1
 62
     0
 92
       -2
340
0
 93
        0
 40
0.045
309
GRIDFORMAT_END
 95
        8
302
GRIDFORMAT
  1
GRIDFORMAT_BEGIN
 90
        0
 91
        1
 62
     0
 92
       -2
340
0
 93
        0
 40
0.045
309
GRIDFORMAT_END
 95
       16
302
GRIDFORMAT
  1
GRIDFORMAT_BEGIN
 90
        0
 91
        1
 62
     0
 92
       -2
340
0
 93
        0
 40
0.045
309
GRIDFORMAT_END
 95
       32
302
GRIDFORMAT
  1
GRIDFORMAT_BEGIN
 90
        0
 91
        1
 62
     0
 92
       -2
340
0
 93
        0
 40
0.045
309
GRIDFORMAT_END
309
TABLEFORMAT_END
  1
CELLSTYLE_BEGIN
 90
        3
 91
        2
300
_DATA
309
CELLSTYLE_END
  0
XRECORD
  5
471
102
{ACAD_REACTORS
330
3A9
102
}
330
3A9
100
AcDbXrecord
280
     1
102
ACAD_ROUNDTRIP_PRE2007_TABLESTYLE
 90
      512
 91
        0
  1

 92
      512
 93
        0
  2

 94
      512
 95
        0
  3

  0
CELLSTYLEMAP
  5
434
102
{ACAD_REACTORS
330
3AB
102
}
330
3AB
100
AcDbCellStyleMap
 90
        3
300
CELLSTYLE
  1
TABLEFORMAT_BEGIN
 90
        5
170
     1
 91
        0
 92
    32768
 62
   257
 93
        1
300
CONTENTFORMAT
  1
CONTENTFORMAT_BEGIN
 90
        0
 91
        0
 92
      512
 93
        0
300

 40
0.0
140
1.0
 94
        5
 62
     1
340
395
144
6.0
309
CONTENTFORMAT_END
171
     1
301
MARGIN
  1
CELLMARGIN_BEGIN
 40
1.5
 40
1.5
 40
1.5
 40
1.5
 40
0.18
 40
0.18
309
CELLMARGIN_END
 94
        6
 95
        1
302
GRIDFORMAT
  1
GRIDFORMAT_BEGIN
 90
        0
 91
        1
 62
     0
 92
       -2
340
0
 93
        0
 40
0.045
309
GRIDFORMAT_END
 95
        2
302
GRIDFORMAT
  1
GRIDFORMAT_BEGIN
 90
        0
 91
        1
 62
     0
 92
       -2
340
0
 93
        0
 40
0.045
309
GRIDFORMAT_END
 95
        4
302
GRIDFORMAT
  1
GRIDFORMAT_BEGIN
 90
        0
 91
        1
 62
     0
 92
       -2
340
0
 93
        0
 40
0.045
309
GRIDFORMAT_END
 95
        8
302
GRIDFORMAT
  1
GRIDFORMAT_BEGIN
 90
        0
 91
        1
 62
     0
 92
       -2
340
0
 93
        0
 40
0.045
309
GRIDFORMAT_END
 95
       16
302
GRIDFORMAT
  1
GRIDFORMAT_BEGIN
 90
        0
 91
        1
 62
     0
 92
       -2
340
0
 93
        0
 40
0.045
309
GRIDFORMAT_END
 95
       32
302
GRIDFORMAT
  1
GRIDFORMAT_BEGIN
 90
        0
 91
        1
 62
     0
 92
       -2
340
0
 93
        0
 40
0.045
309
GRIDFORMAT_END
309
TABLEFORMAT_END
  1
CELLSTYLE_BEGIN
 90
        1
 91
        1
300
_TITLE
309
CELLSTYLE_END
300
CELLSTYLE
  1
TABLEFORMAT_BEGIN
 90
        5
170
     1
 91
        0
 92
        0
 62
   257
 93
        1
300
CONTENTFORMAT
  1
CONTENTFORMAT_BEGIN
 90
        0
 91
        0
 92
      512
 93
        0
300

 40
0.0
140
1.0
 94
        5
 62
     3
340
395
144
5.0
309
CONTENTFORMAT_END
171
     1
301
MARGIN
  1
CELLMARGIN_BEGIN
 40
1.5
 40
1.5
 40
1.5
 40
1.5
 40
0.18
 40
0.18
309
CELLMARGIN_END
 94
        6
 95
        1
302
GRIDFORMAT
  1
GRIDFORMAT_BEGIN
 90
        0
 91
        1
 62
     0
 92
       -2
340
0
 93
        0
 40
0.045
309
GRIDFORMAT_END
 95
        2
302
GRIDFORMAT
  1
GRIDFORMAT_BEGIN
 90
        0
 91
        1
 62
     0
 92
       -2
340
0
 93
        0
 40
0.045
309
GRIDFORMAT_END
 95
        4
302
GRIDFORMAT
  1
GRIDFORMAT_BEGIN
 90
        0
 91
        1
 62
     0
 92
       -2
340
0
 93
        0
 40
0.045
309
GRIDFORMAT_END
 95
        8
302
GRIDFORMAT
  1
GRIDFORMAT_BEGIN
 90
        0
 91
        1
 62
     0
 92
       -2
340
0
 93
        0
 40
0.045
309
GRIDFORMAT_END
 95
       16
302
GRIDFORMAT
  1
GRIDFORMAT_BEGIN
 90
        0
 91
        1
 62
     0
 92
       -2
340
0
 93
        0
 40
0.045
309
GRIDFORMAT_END
 95
       32
302
GRIDFORMAT
  1
GRIDFORMAT_BEGIN
 90
        0
 91
        1
 62
     0
 92
       -2
340
0
 93
        0
 40
0.045
309
GRIDFORMAT_END
309
TABLEFORMAT_END
  1
CELLSTYLE_BEGIN
 90
        2
 91
        1
300
_HEADER
309
CELLSTYLE_END
300
CELLSTYLE
  1
TABLEFORMAT_BEGIN
 90
        5
170
     1
 91
        0
 92
        0
 62
   257
 93
        1
300
CONTENTFORMAT
  1
CONTENTFORMAT_BEGIN
 90
        0
 91
        0
 92
      512
 93
        0
300

 40
0.0
140
1.0
 94
        5
 62
     7
340
395
144
4.5
309
CONTENTFORMAT_END
171
     1
301
MARGIN
  1
CELLMARGIN_BEGIN
 40
1.5
 40
1.5
 40
1.5
 40
1.5
 40
0.18
 40
0.18
309
CELLMARGIN_END
 94
        6
 95
        1
302
GRIDFORMAT
  1
GRIDFORMAT_BEGIN
 90
        0
 91
        1
 62
     0
 92
       -2
340
0
 93
        0
 40
0.045
309
GRIDFORMAT_END
 95
        2
302
GRIDFORMAT
  1
GRIDFORMAT_BEGIN
 90
        0
 91
        1
 62
     0
 92
       -2
340
0
 93
        0
 40
0.045
309
GRIDFORMAT_END
 95
        4
302
GRIDFORMAT
  1
GRIDFORMAT_BEGIN
 90
        0
 91
        1
 62
     0
 92
       -2
340
0
 93
        0
 40
0.045
309
GRIDFORMAT_END
 95
        8
302
GRIDFORMAT
  1
GRIDFORMAT_BEGIN
 90
        0
 91
        1
 62
     0
 92
       -2
340
0
 93
        0
 40
0.045
309
GRIDFORMAT_END
 95
       16
302
GRIDFORMAT
  1
GRIDFORMAT_BEGIN
 90
        0
 91
        1
 62
     0
 92
       -2
340
0
 93
        0
 40
0.045
309
GRIDFORMAT_END
 95
       32
302
GRIDFORMAT
  1
GRIDFORMAT_BEGIN
 90
        0
 91
        1
 62
     0
 92
       -2
340
0
 93
        0
 40
0.045
309
GRIDFORMAT_END
309
TABLEFORMAT_END
  1
CELLSTYLE_BEGIN
 90
        3
 91
        2
300
_DATA
309
CELLSTYLE_END
  0
XRECORD
  5
472
102
{ACAD_REACTORS
330
3AB
102
}
330
3AB
100
AcDbXrecord
280
     1
102
ACAD_ROUNDTRIP_PRE2007_TABLESTYLE
 90
      512
 91
        0
  1

 92
      512
 93
        0
  2

 94
      512
 95
        0
  3

  0
CELLSTYLEMAP
  5
432
102
{ACAD_REACTORS
330
3D5
102
}
330
3D5
100
AcDbCellStyleMap
 90
        3
300
CELLSTYLE
  1
TABLEFORMAT_BEGIN
 90
        5
170
     1
 91
        0
 92
    32768
 62
   257
 93
        1
300
CONTENTFORMAT
  1
CONTENTFORMAT_BEGIN
 90
        0
 91
        0
 92
      512
 93
        0
300

 40
0.0
140
1.0
 94
        5
 62
     0
340
17
144
0.25
309
CONTENTFORMAT_END
171
     0
 94
        0
309
TABLEFORMAT_END
  1
CELLSTYLE_BEGIN
 90
        1
 91
        1
300
_TITLE
309
CELLSTYLE_END
300
CELLSTYLE
  1
TABLEFORMAT_BEGIN
 90
        5
170
     1
 91
        0
 92
        0
 62
   257
 93
        1
300
CONTENTFORMAT
  1
CONTENTFORMAT_BEGIN
 90
        0
 91
        0
 92
      512
 93
        0
300

 40
0.0
140
1.0
 94
        5
 62
     0
340
17
144
0.18
309
CONTENTFORMAT_END
171
     0
 94
        0
309
TABLEFORMAT_END
  1
CELLSTYLE_BEGIN
 90
        2
 91
        1
300
_HEADER
309
CELLSTYLE_END
300
CELLSTYLE
  1
TABLEFORMAT_BEGIN
 90
        5
170
     1
 91
        0
 92
        0
 62
   257
 93
        1
300
CONTENTFORMAT
  1
CONTENTFORMAT_BEGIN
 90
        0
 91
        0
 92
      512
 93
        0
300

 40
0.0
140
1.0
 94
        2
 62
     0
340
17
144
0.18
309
CONTENTFORMAT_END
171
     0
 94
        0
309
TABLEFORMAT_END
  1
CELLSTYLE_BEGIN
 90
        3
 91
        2
300
_DATA
309
CELLSTYLE_END
  0
XRECORD
  5
464
102
{ACAD_REACTORS
330
3D5
102
}
330
3D5
100
AcDbXrecord
280
     1
102
ACAD_ROUNDTRIP_PRE2007_TABLESTYLE
 90
      512
 91
        0
  1

 92
      512
 93
        0
  2

 94
      512
 95
        0
  3

  0
XRECORD
  5
449
102
{ACAD_REACTORS
330
448
102
}
330
448
100
AcDbXrecord
280
     1
102
RTVSPropertyOp0
 70
     1
102
RTVSPropertyOp1
 70
     1
102
RTVSPropertyOp2
 70
     1
102
RTVSPropertyOp3
 70
     1
102
RTVSPropertyOp4
 70
     1
102
RTVSPropertyOp5
 70
     1
102
RTVSPropertyOp6
 70
     1
102
RTVSPropertyOp7
 70
     1
102
RTVSPropertyOp8
 70
     1
102
RTVSPropertyOp9
 70
     1
102
RTVSPropertyOp10
 70
     1
102
RTVSPropertyOp11
 70
     1
102
RTVSPropertyOp12
 70
     1
102
RTVSPropertyOp13
 70
     1
102
RTVSPropertyOp14
 70
     1
102
RTVSPropertyOp15
 70
     1
102
RTVSPropertyOp16
 70
     1
102
RTVSPropertyOp17
 70
     1
102
RTVSPropertyOp18
 70
     1
102
RTVSPropertyOp19
 70
     1
102
RTVSPropertyOp20
 70
     1
102
RTVSPropertyOp21
 70
     1
102
RTVSPropertyOp22
 70
     1
102
RTVSPropertyOp23
 70
     1
102
RTVSPropertyOp24
 70
     1
102
RTVSPropertyOp25
 70
     1
102
RTVSPropertyOp26
 70
     1
102
RTVSPropertyOp27
 70
     1
102
RTVSPropertyOp28
 70
     1
102
RTVSPropertyOp29
 70
     1
102
RTVSPropertyOp30
 70
     1
102
RTVSPropertyOp31
 70
     1
102
RTVSPropertyOp32
 70
     1
  0
XRECORD
  5
44D
102
{ACAD_REACTORS
330
44C
102
}
330
44C
100
AcDbXrecord
280
     1
102
RTVSPropertyOp0
 70
     1
102
RTVSPropertyOp1
 70
     1
102
RTVSPropertyOp2
 70
     1
102
RTVSPropertyOp3
 70
     1
102
RTVSPropertyOp4
 70
     1
102
RTVSPropertyOp5
 70
     1
102
RTVSPropertyOp6
 70
     1
102
RTVSPropertyOp7
 70
     1
102
RTVSPropertyOp8
 70
     1
102
RTVSPropertyOp9
 70
     1
102
RTVSPropertyOp10
 70
     1
102
RTVSPropertyOp11
 70
     1
102
RTVSPropertyOp12
 70
     1
102
RTVSPropertyOp13
 70
     1
102
RTVSPropertyOp14
 70
     1
102
RTVSPropertyOp15
 70
     1
102
RTVSPropertyOp16
 70
     1
102
RTVSPropertyOp17
 70
     1
102
RTVSPropertyOp18
 70
     1
102
RTVSPropertyOp19
 70
     1
102
RTVSPropertyOp20
 70
     1
102
RTVSPropertyOp21
 70
     1
102
RTVSPropertyOp22
 70
     1
102
RTVSPropertyOp23
 70
     1
102
RTVSPropertyOp24
 70
     1
102
RTVSPropertyOp25
 70
     1
102
RTVSPropertyOp26
 70
     1
102
RTVSPropertyOp27
 70
     1
102
RTVSPropertyOp28
 70
     1
102
RTVSPropertyOp29
 70
     1
102
RTVSPropertyOp30
 70
     1
102
RTVSPropertyOp31
 70
     1
102
RTVSPropertyOp32
 70
     1
  0
XRECORD
  5
44B
102
{ACAD_REACTORS
330
44A
102
}
330
44A
100
AcDbXrecord
280
     1
102
RTVSPropertyOp0
 70
     1
102
RTVSPropertyOp1
 70
     1
102
RTVSPropertyOp2
 70
     1
102
RTVSPropertyOp3
 70
     1
102
RTVSPropertyOp4
 70
     1
102
RTVSPropertyOp5
 70
     1
102
RTVSPropertyOp6
 70
     1
102
RTVSPropertyOp7
 70
     1
102
RTVSPropertyOp8
 70
     1
102
RTVSPropertyOp9
 70
     1
102
RTVSPropertyOp10
 70
     1
102
RTVSPropertyOp11
 70
     1
102
RTVSPropertyOp12
 70
     1
102
RTVSPropertyOp13
 70
     1
102
RTVSPropertyOp14
 70
     1
102
RTVSPropertyOp15
 70
     1
102
RTVSPropertyOp16
 70
     1
102
RTVSPropertyOp17
 70
     1
102
RTVSPropertyOp18
 70
     1
102
RTVSPropertyOp19
 70
     1
102
RTVSPropertyOp20
 70
     1
102
RTVSPropertyOp21
 70
     1
102
RTVSPropertyOp22
 70
     1
102
RTVSPropertyOp23
 70
     1
102
RTVSPropertyOp24
 70
     1
102
RTVSPropertyOp25
 70
     1
102
RTVSPropertyOp26
 70
     1
102
RTVSPropertyOp27
 70
     1
102
RTVSPropertyOp28
 70
     1
102
RTVSPropertyOp29
 70
     1
102
RTVSPropertyOp30
 70
     1
102
RTVSPropertyOp31
 70
     1
102
RTVSPropertyOp32
 70
     1
  0
XRECORD
  5
447
102
{ACAD_REACTORS
330
446
102
}
330
446
100
AcDbXrecord
280
     1
102
RTVSPropertyOp0
 70
     1
102
RTVSPropertyOp1
 70
     1
102
RTVSPropertyOp2
 70
     1
102
RTVSPropertyOp3
 70
     1
102
RTVSPropertyOp4
 70
     1
102
RTVSPropertyOp5
 70
     1
102
RTVSPropertyOp6
 70
     1
102
RTVSPropertyOp7
 70
     1
102
RTVSPropertyOp8
 70
     1
102
RTVSPropertyOp9
 70
     1
102
RTVSPropertyOp10
 70
     1
102
RTVSPropertyOp11
 70
     1
102
RTVSPropertyOp12
 70
     1
102
RTVSPropertyOp13
 70
     1
102
RTVSPropertyOp14
 70
     1
102
RTVSPropertyOp15
 70
     1
102
RTVSPropertyOp16
 70
     1
102
RTVSPropertyOp17
 70
     1
102
RTVSPropertyOp18
 70
     1
102
RTVSPropertyOp19
 70
     1
102
RTVSPropertyOp20
 70
     1
102
RTVSPropertyOp21
 70
     1
102
RTVSPropertyOp22
 70
     1
102
RTVSPropertyOp23
 70
     1
102
RTVSPropertyOp24
 70
     1
102
RTVSPropertyOp25
 70
     1
102
RTVSPropertyOp26
 70
     1
102
RTVSPropertyOp27
 70
     1
102
RTVSPropertyOp28
 70
     1
102
RTVSPropertyOp29
 70
     1
102
RTVSPropertyOp30
 70
     1
102
RTVSPropertyOp31
 70
     1
102
RTVSPropertyOp32
 70
     1
  0
XRECORD
  5
455
102
{ACAD_REACTORS
330
454
102
}
330
454
100
AcDbXrecord
280
     1
102
RTVSPropertyOp0
 70
     1
102
RTVSPropertyOp1
 70
     1
102
RTVSPropertyOp2
 70
     1
102
RTVSPropertyOp3
 70
     1
102
RTVSPropertyOp4
 70
     1
102
RTVSPropertyOp5
 70
     1
102
RTVSPropertyOp6
 70
     1
102
RTVSPropertyOp7
 70
     1
102
RTVSPropertyOp8
 70
     1
102
RTVSPropertyOp9
 70
     1
102
RTVSPropertyOp10
 70
     1
102
RTVSPropertyOp11
 70
     1
102
RTVSPropertyOp12
 70
     1
102
RTVSPropertyOp13
 70
     1
102
RTVSPropertyOp14
 70
     1
102
RTVSPropertyOp15
 70
     1
102
RTVSPropertyOp16
 70
     1
102
RTVSPropertyOp17
 70
     1
102
RTVSPropertyOp18
 70
     1
102
RTVSPropertyOp19
 70
     1
102
RTVSPropertyOp20
 70
     1
102
RTVSPropertyOp21
 70
     1
102
RTVSPropertyOp22
 70
     1
102
RTVSPropertyOp23
 70
     1
102
RTVSPropertyOp24
 70
     1
102
RTVSPropertyOp25
 70
     1
102
RTVSPropertyOp26
 70
     1
102
RTVSPropertyOp27
 70
     1
102
RTVSPropertyOp28
 70
     1
102
RTVSPropertyOp29
 70
     1
102
RTVSPropertyOp30
 70
     1
102
RTVSPropertyOp31
 70
     1
102
RTVSPropertyOp32
 70
     1
  0
XRECORD
  5
45D
102
{ACAD_REACTORS
330
45C
102
}
330
45C
100
AcDbXrecord
280
     1
102
RTVSPropertyOp0
 70
     1
102
RTVSPropertyOp1
 70
     1
102
RTVSPropertyOp2
 70
     1
102
RTVSPropertyOp3
 70
     1
102
RTVSPropertyOp4
 70
     1
102
RTVSPropertyOp5
 70
     1
102
RTVSPropertyOp6
 70
     1
102
RTVSPropertyOp7
 70
     1
102
RTVSPropertyOp8
 70
     1
102
RTVSPropertyOp9
 70
     1
102
RTVSPropertyOp10
 70
     1
102
RTVSPropertyOp11
 70
     1
102
RTVSPropertyOp12
 70
     1
102
RTVSPropertyOp13
 70
     1
102
RTVSPropertyOp14
 70
     1
102
RTVSPropertyOp15
 70
     1
102
RTVSPropertyOp16
 70
     1
102
RTVSPropertyOp17
 70
     1
102
RTVSPropertyOp18
 70
     1
102
RTVSPropertyOp19
 70
     1
102
RTVSPropertyOp20
 70
     1
102
RTVSPropertyOp21
 70
     1
102
RTVSPropertyOp22
 70
     1
102
RTVSPropertyOp23
 70
     1
102
RTVSPropertyOp24
 70
     1
102
RTVSPropertyOp25
 70
     1
102
RTVSPropertyOp26
 70
     1
102
RTVSPropertyOp27
 70
     1
102
RTVSPropertyOp28
 70
     1
102
RTVSPropertyOp29
 70
     1
102
RTVSPropertyOp30
 70
     1
102
RTVSPropertyOp31
 70
     1
102
RTVSPropertyOp32
 70
     1
  0
XRECORD
  5
44F
102
{ACAD_REACTORS
330
44E
102
}
330
44E
100
AcDbXrecord
280
     1
102
RTVSPropertyOp0
 70
     1
102
RTVSPropertyOp1
 70
     1
102
RTVSPropertyOp2
 70
     1
102
RTVSPropertyOp3
 70
     1
102
RTVSPropertyOp4
 70
     1
102
RTVSPropertyOp5
 70
     1
102
RTVSPropertyOp6
 70
     1
102
RTVSPropertyOp7
 70
     1
102
RTVSPropertyOp8
 70
     1
102
RTVSPropertyOp9
 70
     1
102
RTVSPropertyOp10
 70
     1
102
RTVSPropertyOp11
 70
     1
102
RTVSPropertyOp12
 70
     1
102
RTVSPropertyOp13
 70
     1
102
RTVSPropertyOp14
 70
     1
102
RTVSPropertyOp15
 70
     1
102
RTVSPropertyOp16
 70
     1
102
RTVSPropertyOp17
 70
     1
102
RTVSPropertyOp18
 70
     1
102
RTVSPropertyOp19
 70
     1
102
RTVSPropertyOp20
 70
     1
102
RTVSPropertyOp21
 70
     1
102
RTVSPropertyOp22
 70
     1
102
RTVSPropertyOp23
 70
     1
102
RTVSPropertyOp24
 70
     1
102
RTVSPropertyOp25
 70
     1
102
RTVSPropertyOp26
 70
     1
102
RTVSPropertyOp27
 70
     1
102
RTVSPropertyOp28
 70
     1
102
RTVSPropertyOp29
 70
     1
102
RTVSPropertyOp30
 70
     1
102
RTVSPropertyOp31
 70
     1
102
RTVSPropertyOp32
 70
     1
  0
XRECORD
  5
453
102
{ACAD_REACTORS
330
452
102
}
330
452
100
AcDbXrecord
280
     1
102
RTVSPropertyOp0
 70
     1
102
RTVSPropertyOp1
 70
     1
102
RTVSPropertyOp2
 70
     1
102
RTVSPropertyOp3
 70
     1
102
RTVSPropertyOp4
 70
     1
102
RTVSPropertyOp5
 70
     1
102
RTVSPropertyOp6
 70
     1
102
RTVSPropertyOp7
 70
     1
102
RTVSPropertyOp8
 70
     1
102
RTVSPropertyOp9
 70
     1
102
RTVSPropertyOp10
 70
     1
102
RTVSPropertyOp11
 70
     1
102
RTVSPropertyOp12
 70
     1
102
RTVSPropertyOp13
 70
     1
102
RTVSPropertyOp14
 70
     1
102
RTVSPropertyOp15
 70
     1
102
RTVSPropertyOp16
 70
     1
102
RTVSPropertyOp17
 70
     1
102
RTVSPropertyOp18
 70
     1
102
RTVSPropertyOp19
 70
     1
102
RTVSPropertyOp20
 70
     1
102
RTVSPropertyOp21
 70
     1
102
RTVSPropertyOp22
 70
     1
102
RTVSPropertyOp23
 70
     1
102
RTVSPropertyOp24
 70
     1
102
RTVSPropertyOp25
 70
     1
102
RTVSPropertyOp26
 70
     1
102
RTVSPropertyOp27
 70
     1
102
RTVSPropertyOp28
 70
     1
102
RTVSPropertyOp29
 70
     1
102
RTVSPropertyOp30
 70
     1
102
RTVSPropertyOp31
 70
     1
102
RTVSPropertyOp32
 70
     1
  0
XRECORD
  5
463
102
{ACAD_REACTORS
330
462
102
}
330
462
100
AcDbXrecord
280
     1
102
RTVSPropertyOp0
 70
     0
102
RTVSPropertyOp1
 70
     0
102
RTVSPropertyOp2
 70
     0
102
RTVSPropertyOp3
 70
     0
102
RTVSPropertyOp4
 70
     0
102
RTVSPropertyOp5
 70
     0
102
RTVSPropertyOp6
 70
     0
102
RTVSPropertyOp7
 70
     0
102
RTVSPropertyOp8
 70
     0
102
RTVSPropertyOp9
 70
     0
102
RTVSPropertyOp10
 70
     0
102
RTVSPropertyOp11
 70
     0
102
RTVSPropertyOp12
 70
     0
102
RTVSPropertyOp13
 70
     0
102
RTVSPropertyOp14
 70
     2
102
RTVSPropertyOp15
 70
     0
102
RTVSPropertyOp16
 70
     0
102
RTVSPropertyOp17
 70
     0
102
RTVSPropertyOp18
 70
     0
102
RTVSPropertyOp19
 70
     0
102
RTVSPropertyOp20
 70
     0
102
RTVSPropertyOp21
 70
     0
102
RTVSPropertyOp22
 70
     0
102
RTVSPropertyOp23
 70
     0
102
RTVSPropertyOp24
 70
     0
102
RTVSPropertyOp25
 70
     0
102
RTVSPropertyOp26
 70
     0
102
RTVSPropertyOp27
 70
     0
102
RTVSPropertyOp28
 70
     1
102
RTVSPropertyOp29
 70
     1
102
RTVSPropertyOp30
 70
     1
102
RTVSPropertyOp31
 70
     1
102
RTVSPropertyOp32
 70
     1
  0
XRECORD
  5
45B
102
{ACAD_REACTORS
330
45A
102
}
330
45A
100
AcDbXrecord
280
     1
102
RTVSPropertyOp0
 70
     1
102
RTVSPropertyOp1
 70
     1
102
RTVSPropertyOp2
 70
     1
102
RTVSPropertyOp3
 70
     1
102
RTVSPropertyOp4
 70
     1
102
RTVSPropertyOp5
 70
     1
102
RTVSPropertyOp6
 70
     1
102
RTVSPropertyOp7
 70
     1
102
RTVSPropertyOp8
 70
     1
102
RTVSPropertyOp9
 70
     1
102
RTVSPropertyOp10
 70
     1
102
RTVSPropertyOp11
 70
     1
102
RTVSPropertyOp12
 70
     1
102
RTVSPropertyOp13
 70
     1
102
RTVSPropertyOp14
 70
     1
102
RTVSPropertyOp15
 70
     1
102
RTVSPropertyOp16
 70
     1
102
RTVSPropertyOp17
 70
     1
102
RTVSPropertyOp18
 70
     1
102
RTVSPropertyOp19
 70
     1
102
RTVSPropertyOp20
 70
     1
102
RTVSPropertyOp21
 70
     1
102
RTVSPropertyOp22
 70
     1
102
RTVSPropertyOp23
 70
     1
102
RTVSPropertyOp24
 70
     1
102
RTVSPropertyOp25
 70
     1
102
RTVSPropertyOp26
 70
     1
102
RTVSPropertyOp27
 70
     1
102
RTVSPropertyOp28
 70
     1
102
RTVSPropertyOp29
 70
     1
102
RTVSPropertyOp30
 70
     1
102
RTVSPropertyOp31
 70
     1
102
RTVSPropertyOp32
 70
     1
  0
XRECORD
  5
43F
102
{ACAD_REACTORS
330
43E
102
}
330
43E
100
AcDbXrecord
280
     1
102
RTVSPropertyOp0
 70
     1
102
RTVSPropertyOp1
 70
     1
102
RTVSPropertyOp2
 70
     1
102
RTVSPropertyOp3
 70
     1
102
RTVSPropertyOp4
 70
     1
102
RTVSPropertyOp5
 70
     1
102
RTVSPropertyOp6
 70
     1
102
RTVSPropertyOp7
 70
     1
102
RTVSPropertyOp8
 70
     1
102
RTVSPropertyOp9
 70
     1
102
RTVSPropertyOp10
 70
     1
102
RTVSPropertyOp11
 70
     1
102
RTVSPropertyOp12
 70
     1
102
RTVSPropertyOp13
 70
     1
102
RTVSPropertyOp14
 70
     1
102
RTVSPropertyOp15
 70
     1
102
RTVSPropertyOp16
 70
     1
102
RTVSPropertyOp17
 70
     1
102
RTVSPropertyOp18
 70
     1
102
RTVSPropertyOp19
 70
     1
102
RTVSPropertyOp20
 70
     1
102
RTVSPropertyOp21
 70
     1
102
RTVSPropertyOp22
 70
     1
102
RTVSPropertyOp23
 70
     1
102
RTVSPropertyOp24
 70
     1
102
RTVSPropertyOp25
 70
     1
102
RTVSPropertyOp26
 70
     1
102
RTVSPropertyOp27
 70
     1
102
RTVSPropertyOp28
 70
     1
102
RTVSPropertyOp29
 70
     1
102
RTVSPropertyOp30
 70
     1
102
RTVSPropertyOp31
 70
     1
102
RTVSPropertyOp32
 70
     1
  0
XRECORD
  5
441
102
{ACAD_REACTORS
330
440
102
}
330
440
100
AcDbXrecord
280
     1
102
RTVSPropertyOp0
 70
     1
102
RTVSPropertyOp1
 70
     1
102
RTVSPropertyOp2
 70
     1
102
RTVSPropertyOp3
 70
     1
102
RTVSPropertyOp4
 70
     1
102
RTVSPropertyOp5
 70
     1
102
RTVSPropertyOp6
 70
     1
102
RTVSPropertyOp7
 70
     1
102
RTVSPropertyOp8
 70
     1
102
RTVSPropertyOp9
 70
     1
102
RTVSPropertyOp10
 70
     1
102
RTVSPropertyOp11
 70
     1
102
RTVSPropertyOp12
 70
     1
102
RTVSPropertyOp13
 70
     1
102
RTVSPropertyOp14
 70
     1
102
RTVSPropertyOp15
 70
     1
102
RTVSPropertyOp16
 70
     1
102
RTVSPropertyOp17
 70
     1
102
RTVSPropertyOp18
 70
     1
102
RTVSPropertyOp19
 70
     1
102
RTVSPropertyOp20
 70
     1
102
RTVSPropertyOp21
 70
     1
102
RTVSPropertyOp22
 70
     1
102
RTVSPropertyOp23
 70
     1
102
RTVSPropertyOp24
 70
     1
102
RTVSPropertyOp25
 70
     1
102
RTVSPropertyOp26
 70
     1
102
RTVSPropertyOp27
 70
     1
102
RTVSPropertyOp28
 70
     1
102
RTVSPropertyOp29
 70
     1
102
RTVSPropertyOp30
 70
     1
102
RTVSPropertyOp31
 70
     1
102
RTVSPropertyOp32
 70
     1
  0
XRECORD
  5
443
102
{ACAD_REACTORS
330
442
102
}
330
442
100
AcDbXrecord
280
     1
102
RTVSPropertyOp0
 70
     1
102
RTVSPropertyOp1
 70
     1
102
RTVSPropertyOp2
 70
     1
102
RTVSPropertyOp3
 70
     1
102
RTVSPropertyOp4
 70
     1
102
RTVSPropertyOp5
 70
     1
102
RTVSPropertyOp6
 70
     1
102
RTVSPropertyOp7
 70
     1
102
RTVSPropertyOp8
 70
     1
102
RTVSPropertyOp9
 70
     1
102
RTVSPropertyOp10
 70
     1
102
RTVSPropertyOp11
 70
     1
102
RTVSPropertyOp12
 70
     1
102
RTVSPropertyOp13
 70
     1
102
RTVSPropertyOp14
 70
     1
102
RTVSPropertyOp15
 70
     1
102
RTVSPropertyOp16
 70
     1
102
RTVSPropertyOp17
 70
     1
102
RTVSPropertyOp18
 70
     1
102
RTVSPropertyOp19
 70
     1
102
RTVSPropertyOp20
 70
     1
102
RTVSPropertyOp21
 70
     1
102
RTVSPropertyOp22
 70
     1
102
RTVSPropertyOp23
 70
     1
102
RTVSPropertyOp24
 70
     1
102
RTVSPropertyOp25
 70
     1
102
RTVSPropertyOp26
 70
     1
102
RTVSPropertyOp27
 70
     1
102
RTVSPropertyOp28
 70
     1
102
RTVSPropertyOp29
 70
     1
102
RTVSPropertyOp30
 70
     1
102
RTVSPropertyOp31
 70
     1
102
RTVSPropertyOp32
 70
     1
  0
XRECORD
  5
445
102
{ACAD_REACTORS
330
444
102
}
330
444
100
AcDbXrecord
280
     1
102
RTVSPropertyOp0
 70
     1
102
RTVSPropertyOp1
 70
     1
102
RTVSPropertyOp2
 70
     1
102
RTVSPropertyOp3
 70
     1
102
RTVSPropertyOp4
 70
     1
102
RTVSPropertyOp5
 70
     1
102
RTVSPropertyOp6
 70
     1
102
RTVSPropertyOp7
 70
     1
102
RTVSPropertyOp8
 70
     1
102
RTVSPropertyOp9
 70
     1
102
RTVSPropertyOp10
 70
     1
102
RTVSPropertyOp11
 70
     1
102
RTVSPropertyOp12
 70
     1
102
RTVSPropertyOp13
 70
     1
102
RTVSPropertyOp14
 70
     1
102
RTVSPropertyOp15
 70
     1
102
RTVSPropertyOp16
 70
     1
102
RTVSPropertyOp17
 70
     1
102
RTVSPropertyOp18
 70
     1
102
RTVSPropertyOp19
 70
     1
102
RTVSPropertyOp20
 70
     1
102
RTVSPropertyOp21
 70
     1
102
RTVSPropertyOp22
 70
     1
102
RTVSPropertyOp23
 70
     1
102
RTVSPropertyOp24
 70
     1
102
RTVSPropertyOp25
 70
     1
102
RTVSPropertyOp26
 70
     1
102
RTVSPropertyOp27
 70
     1
102
RTVSPropertyOp28
 70
     1
102
RTVSPropertyOp29
 70
     1
102
RTVSPropertyOp30
 70
     1
102
RTVSPropertyOp31
 70
     1
102
RTVSPropertyOp32
 70
     1
  0
XRECORD
  5
476
102
{ACAD_REACTORS
330
475
102
}
330
475
100
AcDbXrecord
280
     1
102
RTVSPropertyOp0
 70
     1
102
RTVSPropertyOp1
 70
     1
102
RTVSPropertyOp2
 70
     1
102
RTVSPropertyOp3
 70
     1
102
RTVSPropertyOp4
 70
     1
102
RTVSPropertyOp5
 70
     1
102
RTVSPropertyOp6
 70
     1
102
RTVSPropertyOp7
 70
     1
102
RTVSPropertyOp8
 70
     1
102
RTVSPropertyOp9
 70
     1
102
RTVSPropertyOp10
 70
     1
102
RTVSPropertyOp11
 70
     1
102
RTVSPropertyOp12
 70
     1
102
RTVSPropertyOp13
 70
     1
102
RTVSPropertyOp14
 70
     1
102
RTVSPropertyOp15
 70
     1
102
RTVSPropertyOp16
 70
     1
102
RTVSPropertyOp17
 70
     1
102
RTVSPropertyOp18
 70
     1
102
RTVSPropertyOp19
 70
     1
102
RTVSPropertyOp20
 70
     1
102
RTVSPropertyOp21
 70
     1
102
RTVSPropertyOp22
 70
     1
102
RTVSPropertyOp23
 70
     1
102
RTVSPropertyOp24
 70
     1
102
RTVSPropertyOp25
 70
     1
102
RTVSPropertyOp26
 70
     1
102
RTVSPropertyOp27
 70
     1
102
RTVSPropertyOp28
 70
     1
102
RTVSPropertyOp29
 70
     1
102
RTVSPropertyOp30
 70
     1
102
RTVSPropertyOp31
 70
     1
102
RTVSPropertyOp32
 70
     1
  0
XRECORD
  5
45F
102
{ACAD_REACTORS
330
45E
102
}
330
45E
100
AcDbXrecord
280
     1
102
RTVSPropertyOp0
 70
     0
102
RTVSPropertyOp1
 70
     0
102
RTVSPropertyOp2
 70
     0
102
RTVSPropertyOp3
 70
     0
102
RTVSPropertyOp4
 70
     0
102
RTVSPropertyOp5
 70
     0
102
RTVSPropertyOp6
 70
     0
102
RTVSPropertyOp7
 70
     0
102
RTVSPropertyOp8
 70
     0
102
RTVSPropertyOp9
 70
     0
102
RTVSPropertyOp10
 70
     0
102
RTVSPropertyOp11
 70
     0
102
RTVSPropertyOp12
 70
     0
102
RTVSPropertyOp13
 70
     0
102
RTVSPropertyOp14
 70
     2
102
RTVSPropertyOp15
 70
     0
102
RTVSPropertyOp16
 70
     0
102
RTVSPropertyOp17
 70
     0
102
RTVSPropertyOp18
 70
     0
102
RTVSPropertyOp19
 70
     0
102
RTVSPropertyOp20
 70
     0
102
RTVSPropertyOp21
 70
     0
102
RTVSPropertyOp22
 70
     0
102
RTVSPropertyOp23
 70
     0
102
RTVSPropertyOp24
 70
     0
102
RTVSPropertyOp25
 70
     0
102
RTVSPropertyOp26
 70
     0
102
RTVSPropertyOp27
 70
     0
102
RTVSPropertyOp28
 70
     1
102
RTVSPropertyOp29
 70
     1
102
RTVSPropertyOp30
 70
     1
102
RTVSPropertyOp31
 70
     1
102
RTVSPropertyOp32
 70
     1
  0
XRECORD
  5
459
102
{ACAD_REACTORS
330
458
102
}
330
458
100
AcDbXrecord
280
     1
102
RTVSPropertyOp0
 70
     1
102
RTVSPropertyOp1
 70
     1
102
RTVSPropertyOp2
 70
     1
102
RTVSPropertyOp3
 70
     1
102
RTVSPropertyOp4
 70
     1
102
RTVSPropertyOp5
 70
     1
102
RTVSPropertyOp6
 70
     1
102
RTVSPropertyOp7
 70
     1
102
RTVSPropertyOp8
 70
     1
102
RTVSPropertyOp9
 70
     1
102
RTVSPropertyOp10
 70
     1
102
RTVSPropertyOp11
 70
     1
102
RTVSPropertyOp12
 70
     1
102
RTVSPropertyOp13
 70
     1
102
RTVSPropertyOp14
 70
     1
102
RTVSPropertyOp15
 70
     1
102
RTVSPropertyOp16
 70
     1
102
RTVSPropertyOp17
 70
     1
102
RTVSPropertyOp18
 70
     1
102
RTVSPropertyOp19
 70
     1
102
RTVSPropertyOp20
 70
     1
102
RTVSPropertyOp21
 70
     1
102
RTVSPropertyOp22
 70
     1
102
RTVSPropertyOp23
 70
     1
102
RTVSPropertyOp24
 70
     1
102
RTVSPropertyOp25
 70
     1
102
RTVSPropertyOp26
 70
     1
102
RTVSPropertyOp27
 70
     1
102
RTVSPropertyOp28
 70
     1
102
RTVSPropertyOp29
 70
     1
102
RTVSPropertyOp30
 70
     1
102
RTVSPropertyOp31
 70
     1
102
RTVSPropertyOp32
 70
     1
  0
XRECORD
  5
461
102
{ACAD_REACTORS
330
460
102
}
330
460
100
AcDbXrecord
280
     1
102
RTVSPropertyOp0
 70
     0
102
RTVSPropertyOp1
 70
     0
102
RTVSPropertyOp2
 70
     0
102
RTVSPropertyOp3
 70
     0
102
RTVSPropertyOp4
 70
     0
102
RTVSPropertyOp5
 70
     0
102
RTVSPropertyOp6
 70
     0
102
RTVSPropertyOp7
 70
     0
102
RTVSPropertyOp8
 70
     0
102
RTVSPropertyOp9
 70
     0
102
RTVSPropertyOp10
 70
     0
102
RTVSPropertyOp11
 70
     0
102
RTVSPropertyOp12
 70
     0
102
RTVSPropertyOp13
 70
     0
102
RTVSPropertyOp14
 70
     2
102
RTVSPropertyOp15
 70
     0
102
RTVSPropertyOp16
 70
     0
102
RTVSPropertyOp17
 70
     0
102
RTVSPropertyOp18
 70
     0
102
RTVSPropertyOp19
 70
     0
102
RTVSPropertyOp20
 70
     0
102
RTVSPropertyOp21
 70
     0
102
RTVSPropertyOp22
 70
     0
102
RTVSPropertyOp23
 70
     0
102
RTVSPropertyOp24
 70
     0
102
RTVSPropertyOp25
 70
     0
102
RTVSPropertyOp26
 70
     0
102
RTVSPropertyOp27
 70
     0
102
RTVSPropertyOp28
 70
     1
102
RTVSPropertyOp29
 70
     1
102
RTVSPropertyOp30
 70
     1
102
RTVSPropertyOp31
 70
     1
102
RTVSPropertyOp32
 70
     1
  0
XRECORD
  5
451
102
{ACAD_REACTORS
330
450
102
}
330
450
100
AcDbXrecord
280
     1
102
RTVSPropertyOp0
 70
     1
102
RTVSPropertyOp1
 70
     1
102
RTVSPropertyOp2
 70
     1
102
RTVSPropertyOp3
 70
     1
102
RTVSPropertyOp4
 70
     1
102
RTVSPropertyOp5
 70
     1
102
RTVSPropertyOp6
 70
     1
102
RTVSPropertyOp7
 70
     1
102
RTVSPropertyOp8
 70
     1
102
RTVSPropertyOp9
 70
     1
102
RTVSPropertyOp10
 70
     1
102
RTVSPropertyOp11
 70
     1
102
RTVSPropertyOp12
 70
     1
102
RTVSPropertyOp13
 70
     1
102
RTVSPropertyOp14
 70
     1
102
RTVSPropertyOp15
 70
     1
102
RTVSPropertyOp16
 70
     1
102
RTVSPropertyOp17
 70
     1
102
RTVSPropertyOp18
 70
     1
102
RTVSPropertyOp19
 70
     1
102
RTVSPropertyOp20
 70
     1
102
RTVSPropertyOp21
 70
     1
102
RTVSPropertyOp22
 70
     1
102
RTVSPropertyOp23
 70
     1
102
RTVSPropertyOp24
 70
     1
102
RTVSPropertyOp25
 70
     1
102
RTVSPropertyOp26
 70
     1
102
RTVSPropertyOp27
 70
     1
102
RTVSPropertyOp28
 70
     1
102
RTVSPropertyOp29
 70
     1
102
RTVSPropertyOp30
 70
     1
102
RTVSPropertyOp31
 70
     1
102
RTVSPropertyOp32
 70
     1
  0
XRECORD
  5
480
102
{ACAD_REACTORS
330
47F
102
}
330
47F
100
AcDbXrecord
280
     1
102
RTVSPropertyOp0
 70
     1
102
RTVSPropertyOp1
 70
     1
102
RTVSPropertyOp2
 70
     1
102
RTVSPropertyOp3
 70
     1
102
RTVSPropertyOp4
 70
     1
102
RTVSPropertyOp5
 70
     1
102
RTVSPropertyOp6
 70
     1
102
RTVSPropertyOp7
 70
     1
102
RTVSPropertyOp8
 70
     1
102
RTVSPropertyOp9
 70
     1
102
RTVSPropertyOp10
 70
     1
102
RTVSPropertyOp11
 70
     1
102
RTVSPropertyOp12
 70
     1
102
RTVSPropertyOp13
 70
     1
102
RTVSPropertyOp14
 70
     1
102
RTVSPropertyOp15
 70
     1
102
RTVSPropertyOp16
 70
     1
102
RTVSPropertyOp17
 70
     1
102
RTVSPropertyOp18
 70
     1
102
RTVSPropertyOp19
 70
     1
102
RTVSPropertyOp20
 70
     1
102
RTVSPropertyOp21
 70
     1
102
RTVSPropertyOp22
 70
     1
102
RTVSPropertyOp23
 70
     1
102
RTVSPropertyOp24
 70
     1
102
RTVSPropertyOp25
 70
     1
102
RTVSPropertyOp26
 70
     1
102
RTVSPropertyOp27
 70
     1
102
RTVSPropertyOp28
 70
     1
102
RTVSPropertyOp29
 70
     1
102
RTVSPropertyOp30
 70
     1
102
RTVSPropertyOp31
 70
     1
102
RTVSPropertyOp32
 70
     1
  0
XRECORD
  5
47E
102
{ACAD_REACTORS
330
47D
102
}
330
47D
100
AcDbXrecord
280
     1
102
RTVSPropertyOp0
 70
     1
102
RTVSPropertyOp1
 70
     1
102
RTVSPropertyOp2
 70
     1
102
RTVSPropertyOp3
 70
     1
102
RTVSPropertyOp4
 70
     1
102
RTVSPropertyOp5
 70
     1
102
RTVSPropertyOp6
 70
     1
102
RTVSPropertyOp7
 70
     1
102
RTVSPropertyOp8
 70
     1
102
RTVSPropertyOp9
 70
     1
102
RTVSPropertyOp10
 70
     1
102
RTVSPropertyOp11
 70
     1
102
RTVSPropertyOp12
 70
     1
102
RTVSPropertyOp13
 70
     1
102
RTVSPropertyOp14
 70
     1
102
RTVSPropertyOp15
 70
     1
102
RTVSPropertyOp16
 70
     1
102
RTVSPropertyOp17
 70
     1
102
RTVSPropertyOp18
 70
     1
102
RTVSPropertyOp19
 70
     1
102
RTVSPropertyOp20
 70
     1
102
RTVSPropertyOp21
 70
     1
102
RTVSPropertyOp22
 70
     1
102
RTVSPropertyOp23
 70
     1
102
RTVSPropertyOp24
 70
     1
102
RTVSPropertyOp25
 70
     1
102
RTVSPropertyOp26
 70
     1
102
RTVSPropertyOp27
 70
     1
102
RTVSPropertyOp28
 70
     1
102
RTVSPropertyOp29
 70
     1
102
RTVSPropertyOp30
 70
     1
102
RTVSPropertyOp31
 70
     1
102
RTVSPropertyOp32
 70
     1
  0
XRECORD
  5
478
102
{ACAD_REACTORS
330
477
102
}
330
477
100
AcDbXrecord
280
     1
102
RTVSPropertyOp0
 70
     1
102
RTVSPropertyOp1
 70
     1
102
RTVSPropertyOp2
 70
     1
102
RTVSPropertyOp3
 70
     1
102
RTVSPropertyOp4
 70
     1
102
RTVSPropertyOp5
 70
     1
102
RTVSPropertyOp6
 70
     1
102
RTVSPropertyOp7
 70
     1
102
RTVSPropertyOp8
 70
     1
102
RTVSPropertyOp9
 70
     1
102
RTVSPropertyOp10
 70
     1
102
RTVSPropertyOp11
 70
     1
102
RTVSPropertyOp12
 70
     1
102
RTVSPropertyOp13
 70
     1
102
RTVSPropertyOp14
 70
     1
102
RTVSPropertyOp15
 70
     1
102
RTVSPropertyOp16
 70
     1
102
RTVSPropertyOp17
 70
     1
102
RTVSPropertyOp18
 70
     1
102
RTVSPropertyOp19
 70
     1
102
RTVSPropertyOp20
 70
     1
102
RTVSPropertyOp21
 70
     1
102
RTVSPropertyOp22
 70
     1
102
RTVSPropertyOp23
 70
     1
102
RTVSPropertyOp24
 70
     1
102
RTVSPropertyOp25
 70
     1
102
RTVSPropertyOp26
 70
     1
102
RTVSPropertyOp27
 70
     1
102
RTVSPropertyOp28
 70
     1
102
RTVSPropertyOp29
 70
     1
102
RTVSPropertyOp30
 70
     1
102
RTVSPropertyOp31
 70
     1
102
RTVSPropertyOp32
 70
     1
  0
XRECORD
  5
47A
102
{ACAD_REACTORS
330
479
102
}
330
479
100
AcDbXrecord
280
     1
102
RTVSPropertyOp0
 70
     1
102
RTVSPropertyOp1
 70
     1
102
RTVSPropertyOp2
 70
     1
102
RTVSPropertyOp3
 70
     1
102
RTVSPropertyOp4
 70
     1
102
RTVSPropertyOp5
 70
     1
102
RTVSPropertyOp6
 70
     1
102
RTVSPropertyOp7
 70
     1
102
RTVSPropertyOp8
 70
     1
102
RTVSPropertyOp9
 70
     1
102
RTVSPropertyOp10
 70
     1
102
RTVSPropertyOp11
 70
     1
102
RTVSPropertyOp12
 70
     1
102
RTVSPropertyOp13
 70
     1
102
RTVSPropertyOp14
 70
     1
102
RTVSPropertyOp15
 70
     1
102
RTVSPropertyOp16
 70
     1
102
RTVSPropertyOp17
 70
     1
102
RTVSPropertyOp18
 70
     1
102
RTVSPropertyOp19
 70
     1
102
RTVSPropertyOp20
 70
     1
102
RTVSPropertyOp21
 70
     1
102
RTVSPropertyOp22
 70
     1
102
RTVSPropertyOp23
 70
     1
102
RTVSPropertyOp24
 70
     1
102
RTVSPropertyOp25
 70
     1
102
RTVSPropertyOp26
 70
     1
102
RTVSPropertyOp27
 70
     1
102
RTVSPropertyOp28
 70
     1
102
RTVSPropertyOp29
 70
     1
102
RTVSPropertyOp30
 70
     1
102
RTVSPropertyOp31
 70
     1
102
RTVSPropertyOp32
 70
     1
  0
XRECORD
  5
457
102
{ACAD_REACTORS
330
456
102
}
330
456
100
AcDbXrecord
280
     1
102
RTVSPropertyOp0
 70
     1
102
RTVSPropertyOp1
 70
     1
102
RTVSPropertyOp2
 70
     1
102
RTVSPropertyOp3
 70
     1
102
RTVSPropertyOp4
 70
     1
102
RTVSPropertyOp5
 70
     1
102
RTVSPropertyOp6
 70
     1
102
RTVSPropertyOp7
 70
     1
102
RTVSPropertyOp8
 70
     1
102
RTVSPropertyOp9
 70
     1
102
RTVSPropertyOp10
 70
     1
102
RTVSPropertyOp11
 70
     1
102
RTVSPropertyOp12
 70
     1
102
RTVSPropertyOp13
 70
     1
102
RTVSPropertyOp14
 70
     1
102
RTVSPropertyOp15
 70
     1
102
RTVSPropertyOp16
 70
     1
102
RTVSPropertyOp17
 70
     1
102
RTVSPropertyOp18
 70
     1
102
RTVSPropertyOp19
 70
     1
102
RTVSPropertyOp20
 70
     1
102
RTVSPropertyOp21
 70
     1
102
RTVSPropertyOp22
 70
     1
102
RTVSPropertyOp23
 70
     1
102
RTVSPropertyOp24
 70
     1
102
RTVSPropertyOp25
 70
     1
102
RTVSPropertyOp26
 70
     1
102
RTVSPropertyOp27
 70
     1
102
RTVSPropertyOp28
 70
     1
102
RTVSPropertyOp29
 70
     1
102
RTVSPropertyOp30
 70
     1
102
RTVSPropertyOp31
 70
     1
102
RTVSPropertyOp32
 70
     1
  0
XRECORD
  5
474
102
{ACAD_REACTORS
330
473
102
}
330
473
100
AcDbXrecord
280
     1
102
RTVSPropertyOp0
 70
     1
102
RTVSPropertyOp1
 70
     1
102
RTVSPropertyOp2
 70
     1
102
RTVSPropertyOp3
 70
     1
102
RTVSPropertyOp4
 70
     1
102
RTVSPropertyOp5
 70
     1
102
RTVSPropertyOp6
 70
     1
102
RTVSPropertyOp7
 70
     1
102
RTVSPropertyOp8
 70
     1
102
RTVSPropertyOp9
 70
     1
102
RTVSPropertyOp10
 70
     1
102
RTVSPropertyOp11
 70
     1
102
RTVSPropertyOp12
 70
     1
102
RTVSPropertyOp13
 70
     1
102
RTVSPropertyOp14
 70
     1
102
RTVSPropertyOp15
 70
     1
102
RTVSPropertyOp16
 70
     1
102
RTVSPropertyOp17
 70
     1
102
RTVSPropertyOp18
 70
     1
102
RTVSPropertyOp19
 70
     1
102
RTVSPropertyOp20
 70
     1
102
RTVSPropertyOp21
 70
     1
102
RTVSPropertyOp22
 70
     1
102
RTVSPropertyOp23
 70
     1
102
RTVSPropertyOp24
 70
     1
102
RTVSPropertyOp25
 70
     1
102
RTVSPropertyOp26
 70
     1
102
RTVSPropertyOp27
 70
     1
102
RTVSPropertyOp28
 70
     1
102
RTVSPropertyOp29
 70
     1
102
RTVSPropertyOp30
 70
     1
102
RTVSPropertyOp31
 70
     1
102
RTVSPropertyOp32
 70
     1
  0
XRECORD
  5
47C
102
{ACAD_REACTORS
330
47B
102
}
330
47B
100
AcDbXrecord
280
     1
102
RTVSPropertyOp0
 70
     1
102
RTVSPropertyOp1
 70
     1
102
RTVSPropertyOp2
 70
     1
102
RTVSPropertyOp3
 70
     1
102
RTVSPropertyOp4
 70
     1
102
RTVSPropertyOp5
 70
     1
102
RTVSPropertyOp6
 70
     1
102
RTVSPropertyOp7
 70
     1
102
RTVSPropertyOp8
 70
     1
102
RTVSPropertyOp9
 70
     1
102
RTVSPropertyOp10
 70
     1
102
RTVSPropertyOp11
 70
     1
102
RTVSPropertyOp12
 70
     1
102
RTVSPropertyOp13
 70
     1
102
RTVSPropertyOp14
 70
     1
102
RTVSPropertyOp15
 70
     1
102
RTVSPropertyOp16
 70
     1
102
RTVSPropertyOp17
 70
     1
102
RTVSPropertyOp18
 70
     1
102
RTVSPropertyOp19
 70
     1
102
RTVSPropertyOp20
 70
     1
102
RTVSPropertyOp21
 70
     1
102
RTVSPropertyOp22
 70
     1
102
RTVSPropertyOp23
 70
     1
102
RTVSPropertyOp24
 70
     1
102
RTVSPropertyOp25
 70
     1
102
RTVSPropertyOp26
 70
     1
102
RTVSPropertyOp27
 70
     1
102
RTVSPropertyOp28
 70
     1
102
RTVSPropertyOp29
 70
     1
102
RTVSPropertyOp30
 70
     1
102
RTVSPropertyOp31
 70
     1
102
RTVSPropertyOp32
 70
     1
  0
ENDSEC
  0
EOF
