ISO-10303-21;
HEADER;
/****************************************************************
 * Generated by software with PDE/Lib inside                    *
 * PDElib Version v4.4, created Mon 02/23/2004                  *
 * International Technegroup Inc. (www.iti-oh.com)              *
 ****************************************************************/
FILE_DESCRIPTION(('STEP AP203'),'2;1');
FILE_NAME('16.150.00.stp','2011-03-21T15:54:20',(''),(''),'2009.3.110','THINKDESIGN','');
FILE_SCHEMA(('CONFIG_CONTROL_DESIGN'));
ENDSEC;
DATA;
#2=CARTESIAN_POINT('',(0.0,4.286264E-016,-7.0));
#3=DIRECTION('',(0.0,-6.123234E-017,1.0));
#4=DIRECTION('',(0.0,1.0,6.123234E-017));
#5=AXIS2_PLACEMENT_3D('',#2,#3,#4);
#6=CYLINDRICAL_SURFACE('',#5,20.0);
#7=CARTESIAN_POINT('',(0.0,20.0,-6.999999999999999));
#8=VERTEX_POINT('',#7);
#9=CARTESIAN_POINT('',(0.0,-20.0,-7.000000000000001));
#10=VERTEX_POINT('',#9);
#11=CARTESIAN_POINT('',(0.0,4.286264E-016,-7.0));
#12=DIRECTION('',(0.0,-6.123234E-017,1.0));
#13=DIRECTION('',(0.0,1.0,6.123234E-017));
#14=AXIS2_PLACEMENT_3D('',#11,#12,#13);
#15=CIRCLE('',#14,20.0);
#16=EDGE_CURVE('',#8,#10,#15,.T.);
#17=ORIENTED_EDGE('',*,*,#16,.T.);
#18=CARTESIAN_POINT('',(0.0,4.286264E-016,-7.0));
#19=DIRECTION('',(0.0,-6.123234E-017,1.0));
#20=DIRECTION('',(0.0,1.0,6.123234E-017));
#21=AXIS2_PLACEMENT_3D('',#18,#19,#20);
#22=CIRCLE('',#21,20.0);
#23=EDGE_CURVE('',#10,#8,#22,.T.);
#24=ORIENTED_EDGE('',*,*,#23,.T.);
#25=CARTESIAN_POINT('',(0.0,20.0,1.224647E-015));
#26=VERTEX_POINT('',#25);
#27=CARTESIAN_POINT('',(0.0,20.0,-6.999999999999999));
#28=DIRECTION('',(0.0,0.0,1.0));
#29=VECTOR('',#28,7.0);
#30=LINE('',#27,#29);
#31=EDGE_CURVE('',#8,#26,#30,.T.);
#32=ORIENTED_EDGE('',*,*,#31,.T.);
#33=CARTESIAN_POINT('',(0.0,-20.0,-1.224647E-015));
#34=VERTEX_POINT('',#33);
#35=CARTESIAN_POINT('',(0.0,0.0,0.0));
#36=DIRECTION('',(0.0,-6.123234E-017,1.0));
#37=DIRECTION('',(0.0,1.0,6.123234E-017));
#38=AXIS2_PLACEMENT_3D('',#35,#36,#37);
#39=CIRCLE('',#38,20.0);
#40=EDGE_CURVE('',#34,#26,#39,.T.);
#41=ORIENTED_EDGE('',*,*,#40,.F.);
#42=CARTESIAN_POINT('',(0.0,0.0,0.0));
#43=DIRECTION('',(0.0,-6.123234E-017,1.0));
#44=DIRECTION('',(0.0,1.0,6.123234E-017));
#45=AXIS2_PLACEMENT_3D('',#42,#43,#44);
#46=CIRCLE('',#45,20.0);
#47=EDGE_CURVE('',#26,#34,#46,.T.);
#48=ORIENTED_EDGE('',*,*,#47,.F.);
#49=ORIENTED_EDGE('',*,*,#31,.F.);
#50=EDGE_LOOP('',(#17,#24,#32,#41,#48,#49));
#51=FACE_OUTER_BOUND('',#50,.T.);
#52=ADVANCED_FACE('',(#51),#6,.T.);
#53=CARTESIAN_POINT('',(24.000034278150224,-24.000034278150199,-7.000000000000002));
#54=DIRECTION('',(0.0,0.0,1.0));
#55=DIRECTION('',(0.0,1.0,0.0));
#56=AXIS2_PLACEMENT_3D('',#53,#54,#55);
#57=PLANE('',#56);
#58=ORIENTED_EDGE('',*,*,#23,.F.);
#59=ORIENTED_EDGE('',*,*,#16,.F.);
#60=EDGE_LOOP('',(#58,#59));
#61=FACE_OUTER_BOUND('',#60,.T.);
#62=ADVANCED_FACE('',(#61),#57,.F.);
#63=CARTESIAN_POINT('',(24.000034278150224,-24.000034278150199,-1.469578E-015));
#64=DIRECTION('',(0.0,0.0,1.0));
#65=DIRECTION('',(0.0,1.0,0.0));
#66=AXIS2_PLACEMENT_3D('',#63,#64,#65);
#67=PLANE('',#66);
#68=ORIENTED_EDGE('',*,*,#47,.T.);
#69=ORIENTED_EDGE('',*,*,#40,.T.);
#70=EDGE_LOOP('',(#68,#69));
#71=FACE_OUTER_BOUND('',#70,.T.);
#72=ADVANCED_FACE('',(#71),#67,.T.);
#73=CLOSED_SHELL('',(#52,#62,#72));
#74=MANIFOLD_SOLID_BREP('',#73);
#80=(NAMED_UNIT(*)PLANE_ANGLE_UNIT()SI_UNIT($,.RADIAN.));
#81=DIMENSIONAL_EXPONENTS(0.0,0.0,0.0,0.0,0.0,0.0,0.0);
#82=PLANE_ANGLE_MEASURE_WITH_UNIT(PLANE_ANGLE_MEASURE(0.017453292500000),#80);
#86=(CONVERSION_BASED_UNIT('DEGREE',#82)NAMED_UNIT(#81)PLANE_ANGLE_UNIT());
#90=(NAMED_UNIT(*)SI_UNIT($,.STERADIAN.)SOLID_ANGLE_UNIT());
#94=(LENGTH_UNIT()NAMED_UNIT(*)SI_UNIT(.MILLI.,.METRE.));
#96=UNCERTAINTY_MEASURE_WITH_UNIT(LENGTH_MEASURE(0.001000000000000),#94,'DISTANCE_ACCURACY_VALUE','');
#98=(GEOMETRIC_REPRESENTATION_CONTEXT(3)GLOBAL_UNCERTAINTY_ASSIGNED_CONTEXT((#96))GLOBAL_UNIT_ASSIGNED_CONTEXT((#86,#90,#94))REPRESENTATION_CONTEXT('thinkdesign','2009.3.110'));
#99=ADVANCED_BREP_SHAPE_REPRESENTATION('',(#74),#98);
#100=APPLICATION_CONTEXT('configuration controlled 3D designs of mechanical parts and assemblies');
#101=APPLICATION_PROTOCOL_DEFINITION('International Standard','config_control_design',1995,#100);
#102=MECHANICAL_CONTEXT('None',#100,'mechanical');
#103=PRODUCT('None','None','None',(#102));
#104=PRODUCT_RELATED_PRODUCT_CATEGORY('detail',$,(#103));
#105=PRODUCT_CATEGORY('part',$);
#106=PRODUCT_CATEGORY_RELATIONSHIP('None','None',#105,#104);
#107=PERSON('PERSON1','None','None',$,$,$);
#108=ORGANIZATION('','None','None');
#109=PERSON_AND_ORGANIZATION(#107,#108);
#110=PERSON_AND_ORGANIZATION_ROLE('design_owner');
#111=CC_DESIGN_PERSON_AND_ORGANIZATION_ASSIGNMENT(#109,#110,(#103));
#112=PRODUCT_DEFINITION_FORMATION_WITH_SPECIFIED_SOURCE('None','None',#103,.NOT_KNOWN.);
#113=PERSON('PERSON2','None','None',$,$,$);
#114=ORGANIZATION('','None','None');
#115=PERSON_AND_ORGANIZATION(#113,#114);
#116=PERSON_AND_ORGANIZATION_ROLE('creator');
#117=CC_DESIGN_PERSON_AND_ORGANIZATION_ASSIGNMENT(#115,#116,(#112));
#118=PERSON('PERSON3','None','None',$,$,$);
#119=ORGANIZATION('','None','None');
#120=PERSON_AND_ORGANIZATION(#118,#119);
#121=PERSON_AND_ORGANIZATION_ROLE('part_supplier');
#122=CC_DESIGN_PERSON_AND_ORGANIZATION_ASSIGNMENT(#120,#121,(#112));
#123=APPROVAL_STATUS('approved');
#124=APPROVAL(#123,'None');
#125=PERSON('PERSON4','None','None',$,$,$);
#126=ORGANIZATION('','None','None');
#127=PERSON_AND_ORGANIZATION(#125,#126);
#128=APPROVAL_ROLE('None');
#129=APPROVAL_PERSON_ORGANIZATION(#127,#124,#128);
#130=CALENDAR_DATE(2011,21,3);
#131=COORDINATED_UNIVERSAL_TIME_OFFSET(0,0,.AHEAD.);
#132=LOCAL_TIME(15,54,20.0,#131);
#133=DATE_AND_TIME(#130,#132);
#134=APPROVAL_DATE_TIME(#133,#124);
#135=CC_DESIGN_APPROVAL(#124,(#112));
#136=SECURITY_CLASSIFICATION_LEVEL('unclassified');
#137=SECURITY_CLASSIFICATION('None','None',#136);
#138=CC_DESIGN_SECURITY_CLASSIFICATION(#137,(#112));
#139=APPROVAL_STATUS('approved');
#140=APPROVAL(#139,'None');
#141=PERSON('PERSON5','None','None',$,$,$);
#142=ORGANIZATION('','None','None');
#143=PERSON_AND_ORGANIZATION(#141,#142);
#144=APPROVAL_ROLE('None');
#145=APPROVAL_PERSON_ORGANIZATION(#143,#140,#144);
#146=CALENDAR_DATE(2011,21,3);
#147=COORDINATED_UNIVERSAL_TIME_OFFSET(0,0,.AHEAD.);
#148=LOCAL_TIME(15,54,20.0,#147);
#149=DATE_AND_TIME(#146,#148);
#150=APPROVAL_DATE_TIME(#149,#140);
#151=CC_DESIGN_APPROVAL(#140,(#137));
#152=PERSON('PERSON6','None','None',$,$,$);
#153=ORGANIZATION('','None','None');
#154=PERSON_AND_ORGANIZATION(#152,#153);
#155=PERSON_AND_ORGANIZATION_ROLE('classification_officer');
#156=CC_DESIGN_PERSON_AND_ORGANIZATION_ASSIGNMENT(#154,#155,(#137));
#157=DATE_TIME_ROLE('classification_date');
#158=CALENDAR_DATE(2011,21,3);
#159=COORDINATED_UNIVERSAL_TIME_OFFSET(0,0,.AHEAD.);
#160=LOCAL_TIME(15,54,20.0,#159);
#161=DATE_AND_TIME(#158,#160);
#162=CC_DESIGN_DATE_AND_TIME_ASSIGNMENT(#161,#157,(#137));
#163=DESIGN_CONTEXT('part definition',#100,'design');
#164=DOCUMENT_TYPE('cad_filename');
#165=DOCUMENT('None','None','None',#164);
#166=PRODUCT_DEFINITION_WITH_ASSOCIATED_DOCUMENTS('None','None',#112,#163,(#165));
#167=PERSON('PERSON7','None','None',$,$,$);
#168=ORGANIZATION('','None','None');
#169=PERSON_AND_ORGANIZATION(#167,#168);
#170=PERSON_AND_ORGANIZATION_ROLE('creator');
#171=CC_DESIGN_PERSON_AND_ORGANIZATION_ASSIGNMENT(#169,#170,(#166));
#172=DATE_TIME_ROLE('creation_date');
#173=CALENDAR_DATE(2011,21,3);
#174=COORDINATED_UNIVERSAL_TIME_OFFSET(0,0,.AHEAD.);
#175=LOCAL_TIME(15,54,20.0,#174);
#176=DATE_AND_TIME(#173,#175);
#177=CC_DESIGN_DATE_AND_TIME_ASSIGNMENT(#176,#172,(#166));
#178=APPROVAL_STATUS('approved');
#179=APPROVAL(#178,'None');
#180=PERSON('PERSON8','None','None',$,$,$);
#181=ORGANIZATION('','None','None');
#182=PERSON_AND_ORGANIZATION(#180,#181);
#183=APPROVAL_ROLE('None');
#184=APPROVAL_PERSON_ORGANIZATION(#182,#179,#183);
#185=CALENDAR_DATE(2011,21,3);
#186=COORDINATED_UNIVERSAL_TIME_OFFSET(0,0,.AHEAD.);
#187=LOCAL_TIME(15,54,20.0,#186);
#188=DATE_AND_TIME(#185,#187);
#189=APPROVAL_DATE_TIME(#188,#179);
#190=CC_DESIGN_APPROVAL(#179,(#166));
#191=PRODUCT_DEFINITION_SHAPE('None','None',#166);
#192=SHAPE_DEFINITION_REPRESENTATION(#191,#99);
#193=DIMENSIONAL_EXPONENTS(0.0,0.0,0.0,0.0,0.0,0.0,0.0);
#194=DIMENSIONAL_EXPONENTS(1.0,0.0,0.0,0.0,0.0,0.0,0.0);
ENDSEC;
END-ISO-10303-21;
