  0
SECTION
  2
HEADER
  9
$ACADVER
  1
AC1018
  9
$ACADMAINTVER
 70
     0
  9
$DWGCODEPAGE
  3
ANSI_1252
  9
$INSBASE
 10
0.0
 20
0.0
 30
0.0
  9
$EXTMIN
 10
1.000E+20
 20
1.000E+20
 30
1.000E+20
  9
$EXTMAX
 10
-1.000E+20
 20
-1.000E+20
 30
-1.000E+20
  9
$LIMMIN
 10
0.0
 20
0.0
  9
$LIMMAX
 10
420.0
 20
297.0
  9
$ORTHOMODE
 70
     0
  9
$REGENMODE
 70
     1
  9
$FILLMODE
 70
     1
  9
$QTEXTMODE
 70
     0
  9
$MIRRTEXT
 70
     1
  9
$LTSCALE
 40
1.0
  9
$ATTMODE
 70
     1
  9
$TEXTSIZE
 40
2.5
  9
$TRACEWID
 40
1.0
  9
$TEXTSTYLE
  7
Standard
  9
$CLAYER
  8
0
  9
$CELTYPE
  6
ByLayer
  9
$CECOLOR
 62
   256
  9
$CELTSCALE
 40
1.0
  9
$DISPSILH
 70
     0
  9
$DIMSCALE
 40
1.0
  9
$DIMASZ
 40
2.5
  9
$DIMEXO
 40
0.625
  9
$DIMDLI
 40
3.75
  9
$DIMRND
 40
0.0
  9
$DIMDLE
 40
0.0
  9
$DIMEXE
 40
1.25
  9
$DIMTP
 40
0.0
  9
$DIMTM
 40
0.0
  9
$DIMTXT
 40
2.5
  9
$DIMCEN
 40
2.5
  9
$DIMTSZ
 40
0.0
  9
$DIMTOL
 70
     0
  9
$DIMLIM
 70
     0
  9
$DIMTIH
 70
     0
  9
$DIMTOH
 70
     0
  9
$DIMSE1
 70
     0
  9
$DIMSE2
 70
     0
  9
$DIMTAD
 70
     1
  9
$DIMZIN
 70
     8
  9
$DIMBLK
  1

  9
$DIMASO
 70
     1
  9
$DIMSHO
 70
     1
  9
$DIMPOST
  1

  9
$DIMAPOST
  1

  9
$DIMALT
 70
     0
  9
$DIMALTD
 70
     3
  9
$DIMALTF
 40
0.039
  9
$DIMLFAC
 40
1.0
  9
$DIMTOFL
 70
     1
  9
$DIMTVP
 40
0.0
  9
$DIMTIX
 70
     0
  9
$DIMSOXD
 70
     0
  9
$DIMSAH
 70
     0
  9
$DIMBLK1
  1

  9
$DIMBLK2
  1

  9
$DIMSTYLE
  2
ISO-25
  9
$DIMCLRD
 70
     0
  9
$DIMCLRE
 70
     0
  9
$DIMCLRT
 70
     0
  9
$DIMTFAC
 40
1.0
  9
$DIMGAP
 40
0.625
  9
$DIMJUST
 70
     0
  9
$DIMSD1
 70
     0
  9
$DIMSD2
 70
     0
  9
$DIMTOLJ
 70
     0
  9
$DIMTZIN
 70
     8
  9
$DIMALTZ
 70
     0
  9
$DIMALTTZ
 70
     0
  9
$DIMUPT
 70
     0
  9
$DIMDEC
 70
     2
  9
$DIMTDEC
 70
     2
  9
$DIMALTU
 70
     2
  9
$DIMALTTD
 70
     3
  9
$DIMTXSTY
  7
Standard
  9
$DIMAUNIT
 70
     0
  9
$DIMADEC
 70
     0
  9
$DIMALTRND
 40
0.0
  9
$DIMAZIN
 70
     0
  9
$DIMDSEP
 70
    44
  9
$DIMATFIT
 70
     3
  9
$DIMFRAC
 70
     0
  9
$DIMLDRBLK
  1

  9
$DIMLUNIT
 70
     2
  9
$DIMLWD
 70
    -2
  9
$DIMLWE
 70
    -2
  9
$DIMTMOVE
 70
     0
  9
$LUNITS
 70
     2
  9
$LUPREC
 70
     4
  9
$SKETCHINC
 40
1.0
  9
$FILLETRAD
 40
10.0
  9
$AUNITS
 70
     0
  9
$AUPREC
 70
     0
  9
$MENU
  1
.
  9
$ELEVATION
 40
0.0
  9
$PELEVATION
 40
0.0
  9
$THICKNESS
 40
0.0
  9
$LIMCHECK
 70
     0
  9
$CHAMFERA
 40
10.0
  9
$CHAMFERB
 40
10.0
  9
$CHAMFERC
 40
20.0
  9
$CHAMFERD
 40
0.0
  9
$SKPOLY
 70
     0
  9
$TDCREATE
 40
2455813.764979247
  9
$TDUCREATE
 40
2455813.681645914
  9
$TDUPDATE
 40
2455813.764979259
  9
$TDUUPDATE
 40
2455813.681645926
  9
$TDINDWG
 40
0.0000000116
  9
$TDUSRTIMER
 40
0.0000000116
  9
$USRTIMER
 70
     1
  9
$ANGBASE
 50
0.0
  9
$ANGDIR
 70
     0
  9
$PDMODE
 70
     0
  9
$PDSIZE
 40
0.0
  9
$PLINEWID
 40
0.0
  9
$SPLFRAME
 70
     0
  9
$SPLINETYPE
 70
     6
  9
$SPLINESEGS
 70
     8
  9
$HANDSEED
  5
104
  9
$SURFTAB1
 70
     6
  9
$SURFTAB2
 70
     6
  9
$SURFTYPE
 70
     6
  9
$SURFU
 70
     6
  9
$SURFV
 70
     6
  9
$UCSBASE
  2

  9
$UCSNAME
  2

  9
$UCSORG
 10
0.0
 20
0.0
 30
0.0
  9
$UCSXDIR
 10
1.0
 20
0.0
 30
0.0
  9
$UCSYDIR
 10
0.0
 20
1.0
 30
0.0
  9
$UCSORTHOREF
  2

  9
$UCSORTHOVIEW
 70
     0
  9
$UCSORGTOP
 10
0.0
 20
0.0
 30
0.0
  9
$UCSORGBOTTOM
 10
0.0
 20
0.0
 30
0.0
  9
$UCSORGLEFT
 10
0.0
 20
0.0
 30
0.0
  9
$UCSORGRIGHT
 10
0.0
 20
0.0
 30
0.0
  9
$UCSORGFRONT
 10
0.0
 20
0.0
 30
0.0
  9
$UCSORGBACK
 10
0.0
 20
0.0
 30
0.0
  9
$PUCSBASE
  2

  9
$PUCSNAME
  2

  9
$PUCSORG
 10
0.0
 20
0.0
 30
0.0
  9
$PUCSXDIR
 10
1.0
 20
0.0
 30
0.0
  9
$PUCSYDIR
 10
0.0
 20
1.0
 30
0.0
  9
$PUCSORTHOREF
  2

  9
$PUCSORTHOVIEW
 70
     0
  9
$PUCSORGTOP
 10
0.0
 20
0.0
 30
0.0
  9
$PUCSORGBOTTOM
 10
0.0
 20
0.0
 30
0.0
  9
$PUCSORGLEFT
 10
0.0
 20
0.0
 30
0.0
  9
$PUCSORGRIGHT
 10
0.0
 20
0.0
 30
0.0
  9
$PUCSORGFRONT
 10
0.0
 20
0.0
 30
0.0
  9
$PUCSORGBACK
 10
0.0
 20
0.0
 30
0.0
  9
$USERI1
 70
     0
  9
$USERI2
 70
     0
  9
$USERI3
 70
     0
  9
$USERI4
 70
     0
  9
$USERI5
 70
     0
  9
$USERR1
 40
0.0
  9
$USERR2
 40
0.0
  9
$USERR3
 40
0.0
  9
$USERR4
 40
0.0
  9
$USERR5
 40
0.0
  9
$WORLDVIEW
 70
     1
  9
$SHADEDGE
 70
     3
  9
$SHADEDIF
 70
    70
  9
$TILEMODE
 70
     1
  9
$MAXACTVP
 70
    64
  9
$PINSBASE
 10
0.0
 20
0.0
 30
0.0
  9
$PLIMCHECK
 70
     0
  9
$PEXTMIN
 10
1.000E+20
 20
1.000E+20
 30
1.000E+20
  9
$PEXTMAX
 10
-1.000E+20
 20
-1.000E+20
 30
-1.000E+20
  9
$PLIMMIN
 10
0.0
 20
0.0
  9
$PLIMMAX
 10
420.0
 20
297.0
  9
$UNITMODE
 70
     0
  9
$VISRETAIN
 70
     1
  9
$PLINEGEN
 70
     0
  9
$PSLTSCALE
 70
     1
  9
$TREEDEPTH
 70
  3020
  9
$CMLSTYLE
  2
Standard
  9
$CMLJUST
 70
     0
  9
$CMLSCALE
 40
20.0
  9
$PROXYGRAPHICS
 70
     1
  9
$MEASUREMENT
 70
     1
  9
$CELWEIGHT
370
    -1
  9
$ENDCAPS
280
     0
  9
$JOINSTYLE
280
     0
  9
$LWDISPLAY
290
     0
  9
$INSUNITS
 70
     4
  9
$HYPERLINKBASE
  1

  9
$STYLESHEET
  1

  9
$XEDIT
290
     1
  9
$CEPSNTYPE
380
     0
  9
$PSTYLEMODE
290
     1
  9
$FINGERPRINTGUID
  2
{8E740B5E-A79A-491E-8B3D-8E3437A5DE12}
  9
$VERSIONGUID
  2
{FAEB1C32-E019-11D5-929B-00C0DF256EC4}
  9
$EXTNAMES
290
     1
  9
$PSVPSCALE
 40
0.0
  9
$OLESTARTUP
290
     0
  9
$SORTENTS
280
   127
  9
$INDEXCTL
280
     0
  9
$HIDETEXT
280
     1
  9
$XCLIPFRAME
290
     0
  9
$HALOGAP
280
     0
  9
$OBSCOLOR
 70
   257
  9
$OBSLTYPE
280
     0
  9
$INTERSECTIONDISPLAY
280
     0
  9
$INTERSECTIONCOLOR
 70
   257
  9
$DIMASSOC
280
     2
  9
$PROJECTNAME
  1

  0
ENDSEC
  0
SECTION
  2
CLASSES
  0
CLASS
  1
ACDBDICTIONARYWDFLT
  2
AcDbDictionaryWithDefault
  3
ObjectDBX Classes
 90
        0
 91
        4
280
     0
281
     0
  0
CLASS
  1
VISUALSTYLE
  2
AcDbVisualStyle
  3
ObjectDBX Classes
 90
     4095
 91
        4
280
     0
281
     0
  0
ENDSEC
  0
SECTION
  2
TABLES
  0
TABLE
  2
VPORT
  5
8
330
0
100
AcDbSymbolTable
 70
     1
  0
VPORT
  5
29
330
8
100
AcDbSymbolTableRecord
100
AcDbViewportTableRecord
  2
*Active
 70
     0
 10
0.0
 20
0.0
 11
1.0
 21
1.0
 12
344.187
 22
148.5
 13
0.0
 23
0.0
 14
10.0
 24
10.0
 15
10.0
 25
10.0
 16
0.0
 26
0.0
 36
1.0
 17
0.0
 27
0.0
 37
0.0
 40
297.0
 41
1.973
 42
50.0
 43
0.0
 44
0.0
 50
0.0
 51
0.0
 71
     0
 72
   100
 73
     1
 74
     3
 75
     0
 76
     0
 77
     0
 78
     0
281
     0
 65
     1
110
0.0
120
0.0
130
0.0
111
1.0
121
0.0
131
0.0
112
0.0
122
1.0
132
0.0
 79
     0
146
0.0
  0
ENDTAB
  0
TABLE
  2
LTYPE
  5
5
330
0
100
AcDbSymbolTable
 70
     2
  0
LTYPE
  5
14
330
5
100
AcDbSymbolTableRecord
100
AcDbLinetypeTableRecord
  2
ByBlock
 70
     0
  3

 72
    65
 73
     0
 40
0.0
  0
LTYPE
  5
15
330
5
100
AcDbSymbolTableRecord
100
AcDbLinetypeTableRecord
  2
ByLayer
 70
     0
  3

 72
    65
 73
     0
 40
0.0
  0
LTYPE
  5
16
330
5
100
AcDbSymbolTableRecord
100
AcDbLinetypeTableRecord
  2
Continuous
 70
     0
  3
Solid line
 72
    65
 73
     0
 40
0.0
  0
LTYPE
  5
B0
330
5
100
AcDbSymbolTableRecord
100
AcDbLinetypeTableRecord
  2
HIDDEN2
 70
     0
  3
Hidden (.5x) _ _ _ _ _ _ _ _ _ _ _ _ _ _ _ _ _ 
 72
    65
 73
     2
 40
4.762
 49
3.175
 74
     0
 49
-1.587
 74
     0
  0
ENDTAB
  0
TABLE
  2
LAYER
  5
2
330
0
100
AcDbSymbolTable
 70
     1
  0
LAYER
  5
10
330
2
100
AcDbSymbolTableRecord
100
AcDbLayerTableRecord
  2
0
 70
     0
 62
    72
  6
Continuous
370
     0
390
F
  0
ENDTAB
  0
TABLE
  2
STYLE
  5
3
330
0
100
AcDbSymbolTable
 70
     3
  0
STYLE
  5
11
330
3
100
AcDbSymbolTableRecord
100
AcDbTextStyleTableRecord
  2
Standard
 70
     0
 40
0.0
 41
1.0
 50
0.0
 71
     0
 42
2.5
  3
txt
  4

  0
STYLE
  5
3B
330
3
100
AcDbSymbolTableRecord
100
AcDbTextStyleTableRecord
  2
Default
 70
     0
 40
0.0
 41
1.0
 50
0.0
 71
     0
 42
0.2
  3

  4

1001
ACAD
1000
txt
1071
        0
  0
STYLE
  5
3C
330
3
100
AcDbSymbolTableRecord
100
AcDbTextStyleTableRecord
  2
ISO
 70
     0
 40
0.0
 41
1.0
 50
0.0
 71
     0
 42
0.2
  3

  4

1001
ACAD
1000
txt
1071
        0
  0
ENDTAB
  0
TABLE
  2
VIEW
  5
6
330
0
100
AcDbSymbolTable
 70
     0
  0
ENDTAB
  0
TABLE
  2
UCS
  5
7
330
0
100
AcDbSymbolTable
 70
     0
  0
ENDTAB
  0
TABLE
  2
APPID
  5
9
330
0
100
AcDbSymbolTable
 70
     1
  0
APPID
  5
12
330
9
100
AcDbSymbolTableRecord
100
AcDbRegAppTableRecord
  2
ACAD
 70
     0
  0
ENDTAB
  0
TABLE
  2
DIMSTYLE
  5
A
330
0
100
AcDbSymbolTable
 70
     3
100
AcDbDimStyleTable
  0
DIMSTYLE
105
27
330
A
100
AcDbSymbolTableRecord
100
AcDbDimStyleTableRecord
  2
ISO-25
 70
     0
 41
2.5
 42
0.625
 43
3.75
 44
1.25
 73
     0
 74
     0
 77
     1
 78
     8
140
2.5
141
2.5
143
0.039
147
0.625
171
     3
172
     1
271
     2
272
     2
274
     3
278
    44
283
     0
284
     8
340
11
  0
DIMSTYLE
105
3D
330
A
100
AcDbSymbolTableRecord
100
AcDbDimStyleTableRecord
  2
Default
 70
     0
  3
<>
 41
4.375
 42
1.05
 44
2.1
 73
     0
 74
     0
 77
     1
 78
     8
140
3.5
146
0.4
147
1.75
178
    12
271
     2
272
     3
284
     8
340
3B
341
3E
342
3E
  0
DIMSTYLE
105
45
330
A
100
AcDbSymbolTableRecord
100
AcDbDimStyleTableRecord
  2
ISO
 70
     0
  3
<>
 41
4.375
 42
1.05
 44
2.1
 73
     0
 74
     0
 77
     1
 78
     8
140
3.5
146
0.4
147
1.75
178
    12
271
     2
272
     3
284
     8
340
3C
341
3E
342
3E
  0
ENDTAB
  0
TABLE
  2
BLOCK_RECORD
  5
1
330
0
100
AcDbSymbolTable
 70
     6
  0
BLOCK_RECORD
  5
1F
330
1
100
AcDbSymbolTableRecord
100
AcDbBlockTableRecord
  2
*Model_Space
340
22
  0
BLOCK_RECORD
  5
1B
330
1
100
AcDbSymbolTableRecord
100
AcDbBlockTableRecord
  2
*Paper_Space
340
1E
  0
BLOCK_RECORD
  5
23
330
1
100
AcDbSymbolTableRecord
100
AcDbBlockTableRecord
  2
*Paper_Space0
340
26
  0
BLOCK_RECORD
  5
3E
330
1
100
AcDbSymbolTableRecord
100
AcDbBlockTableRecord
  2
_CLOSED
340
0
  0
BLOCK_RECORD
  5
46
330
1
100
AcDbSymbolTableRecord
100
AcDbBlockTableRecord
  2
a
340
0
102
{BLKREFS
331
63
102
}
  0
BLOCK_RECORD
  5
64
330
1
100
AcDbSymbolTableRecord
100
AcDbBlockTableRecord
  2
b
340
0
102
{BLKREFS
331
AB
102
}
  0
BLOCK_RECORD
  5
AC
330
1
100
AcDbSymbolTableRecord
100
AcDbBlockTableRecord
  2
c
340
0
102
{BLKREFS
331
E5
102
}
  0
BLOCK_RECORD
  5
E6
330
1
100
AcDbSymbolTableRecord
100
AcDbBlockTableRecord
  2
d
340
0
102
{BLKREFS
331
101
102
}
  0
ENDTAB
  0
ENDSEC
  0
SECTION
  2
BLOCKS
  0
BLOCK
  5
20
330
1F
100
AcDbEntity
  8
0
100
AcDbBlockBegin
  2
*Model_Space
 70
     0
 10
0.0
 20
0.0
 30
0.0
  3
*Model_Space
  1

  0
ENDBLK
  5
21
330
1F
100
AcDbEntity
  8
0
100
AcDbBlockEnd
  0
BLOCK
  5
1C
330
1B
100
AcDbEntity
 67
     1
  8
0
100
AcDbBlockBegin
  2
*Paper_Space
 70
     0
 10
0.0
 20
0.0
 30
0.0
  3
*Paper_Space
  1

  0
ENDBLK
  5
1D
330
1B
100
AcDbEntity
 67
     1
  8
0
100
AcDbBlockEnd
  0
BLOCK
  5
24
330
23
100
AcDbEntity
  8
0
100
AcDbBlockBegin
  2
*Paper_Space0
 70
     0
 10
0.0
 20
0.0
 30
0.0
  3
*Paper_Space0
  1

  0
ENDBLK
  5
25
330
23
100
AcDbEntity
  8
0
100
AcDbBlockEnd
  0
BLOCK
  5
3F
330
3E
100
AcDbEntity
  8
0
100
AcDbBlockBegin
  2
_CLOSED
 70
     0
 10
0.0
 20
0.0
 30
0.0
  3
_CLOSED
  1

  0
LINE
  5
41
330
3E
100
AcDbEntity
  8
0
  6
ByBlock
 62
     0
370
    -2
100
AcDbLine
 10
-1.0
 20
0.167
 30
0.0
 11
0.0
 21
0.0
 31
0.0
  0
LINE
  5
42
330
3E
100
AcDbEntity
  8
0
  6
ByBlock
 62
     0
370
    -2
100
AcDbLine
 10
0.0
 20
0.0
 30
0.0
 11
-1.0
 21
-0.167
 31
0.0
  0
LINE
  5
43
330
3E
100
AcDbEntity
  8
0
  6
ByBlock
 62
     0
370
    -2
100
AcDbLine
 10
-1.0
 20
0.167
 30
0.0
 11
-1.0
 21
-0.167
 31
0.0
  0
LINE
  5
44
330
3E
100
AcDbEntity
  8
0
  6
ByBlock
 62
     0
370
    -2
100
AcDbLine
 10
0.0
 20
0.0
 30
0.0
 11
-1.0
 21
0.0
 31
0.0
  0
ENDBLK
  5
40
330
3E
100
AcDbEntity
  8
0
100
AcDbBlockEnd
  0
BLOCK
  5
61
330
46
100
AcDbEntity
  8
0
100
AcDbBlockBegin
  2
a
 70
     0
 10
7.862
 20
12.708
 30
0.0
  3
a
  1

  0
ARC
  5
47
330
46
100
AcDbEntity
  8
0
  6
Continuous
 62
     0
370
    30
100
AcDbCircle
 10
23.994
 20
28.309
 30
0.0
 40
15.0
100
AcDbArc
 50
90.0
 51
180.0
  0
ARC
  5
48
330
46
100
AcDbEntity
  8
0
  6
Continuous
 62
     0
370
    30
100
AcDbCircle
 10
23.994
 20
28.309
 30
0.0
 40
15.0
100
AcDbArc
 50
180.0
 51
270.0
  0
CIRCLE
  5
49
330
46
100
AcDbEntity
  8
0
  6
Continuous
 62
     0
370
    30
100
AcDbCircle
 10
23.994
 20
28.309
 30
0.0
 40
9.5
  0
LINE
  5
4A
330
46
100
AcDbEntity
  8
0
  6
Continuous
 62
     0
370
     0
100
AcDbLine
 10
37.58
 20
43.309
 30
0.0
 11
37.58
 21
13.309
 31
0.0
  0
LINE
  5
4B
330
46
100
AcDbEntity
  8
0
  6
Continuous
 62
     0
370
     0
100
AcDbLine
 10
36.165
 20
43.309
 30
0.0
 11
36.165
 21
13.309
 31
0.0
  0
LINE
  5
4C
330
46
100
AcDbEntity
  8
0
  6
Continuous
 62
     0
370
     0
100
AcDbLine
 10
42.339
 20
43.309
 30
0.0
 11
42.339
 21
13.309
 31
0.0
  0
LINE
  5
4D
330
46
100
AcDbEntity
  8
0
  6
Continuous
 62
     0
370
     0
100
AcDbLine
 10
43.917
 20
43.309
 30
0.0
 11
43.917
 21
13.309
 31
0.0
  0
LINE
  5
4E
330
46
100
AcDbEntity
  8
0
  6
Continuous
 62
     0
370
    30
100
AcDbLine
 10
36.165
 20
43.309
 30
0.0
 11
23.994
 21
43.309
 31
0.0
  0
LINE
  5
4F
330
46
100
AcDbEntity
  8
0
  6
Continuous
 62
     0
370
    30
100
AcDbLine
 10
23.994
 20
13.309
 30
0.0
 11
36.165
 21
13.309
 31
0.0
  0
LINE
  5
50
330
46
100
AcDbEntity
  8
0
  6
Continuous
 62
     0
370
    30
100
AcDbLine
 10
42.339
 20
43.309
 30
0.0
 11
37.58
 21
43.309
 31
0.0
  0
LINE
  5
51
330
46
100
AcDbEntity
  8
0
  6
Continuous
 62
     0
370
    30
100
AcDbLine
 10
42.339
 20
13.309
 30
0.0
 11
37.58
 21
13.309
 31
0.0
  0
LINE
  5
52
330
46
100
AcDbEntity
  8
0
  6
Continuous
 62
     0
370
    30
100
AcDbLine
 10
37.58
 20
43.309
 30
0.0
 11
36.165
 21
43.309
 31
0.0
  0
LINE
  5
53
330
46
100
AcDbEntity
  8
0
  6
Continuous
 62
     0
370
    30
100
AcDbLine
 10
37.58
 20
13.309
 30
0.0
 11
36.165
 21
13.309
 31
0.0
  0
LINE
  5
54
330
46
100
AcDbEntity
  8
0
  6
Continuous
 62
     0
370
    30
100
AcDbLine
 10
42.339
 20
43.309
 30
0.0
 11
43.917
 21
43.309
 31
0.0
  0
LINE
  5
55
330
46
100
AcDbEntity
  8
0
  6
Continuous
 62
     0
370
    30
100
AcDbLine
 10
42.339
 20
13.309
 30
0.0
 11
43.917
 21
13.309
 31
0.0
  0
LINE
  5
56
330
46
100
AcDbEntity
  8
0
  6
Continuous
 62
     0
370
    30
100
AcDbLine
 10
50.494
 20
43.309
 30
0.0
 11
43.917
 21
43.309
 31
0.0
  0
LINE
  5
57
330
46
100
AcDbEntity
  8
0
  6
Continuous
 62
     0
370
    30
100
AcDbLine
 10
43.917
 20
13.309
 30
0.0
 11
50.494
 21
13.309
 31
0.0
  0
ARC
  5
58
330
46
100
AcDbEntity
  8
0
  6
Continuous
 62
     0
370
    30
100
AcDbCircle
 10
50.494
 20
28.309
 30
0.0
 40
15.00000000000001
100
AcDbArc
 50
0.0
 51
90.0
  0
ARC
  5
59
330
46
100
AcDbEntity
  8
0
  6
Continuous
 62
     0
370
    30
100
AcDbCircle
 10
50.494
 20
28.309
 30
0.0
 40
15.00000000000001
100
AcDbArc
 50
270.0
 51
360.0
  0
LINE
  5
5A
330
46
100
AcDbEntity
  8
0
  6
Continuous
 62
     0
370
    30
100
AcDbLine
 10
63.244
 20
25.856
 30
0.0
 11
63.244
 21
30.763
 31
0.0
  0
LINE
  5
5B
330
46
100
AcDbEntity
  8
0
  6
Continuous
 62
     0
370
    30
100
AcDbLine
 10
63.244
 20
30.763
 30
0.0
 11
58.994
 21
33.217
 31
0.0
  0
LINE
  5
5C
330
46
100
AcDbEntity
  8
0
  6
Continuous
 62
     0
370
    30
100
AcDbLine
 10
58.994
 20
33.217
 30
0.0
 11
54.744
 21
30.763
 31
0.0
  0
LINE
  5
5D
330
46
100
AcDbEntity
  8
0
  6
Continuous
 62
     0
370
    30
100
AcDbLine
 10
54.744
 20
30.763
 30
0.0
 11
54.744
 21
25.856
 31
0.0
  0
LINE
  5
5E
330
46
100
AcDbEntity
  8
0
  6
Continuous
 62
     0
370
    30
100
AcDbLine
 10
54.744
 20
25.856
 30
0.0
 11
58.994
 21
23.402
 31
0.0
  0
LINE
  5
5F
330
46
100
AcDbEntity
  8
0
  6
Continuous
 62
     0
370
    30
100
AcDbLine
 10
63.244
 20
25.856
 30
0.0
 11
58.994
 21
23.402
 31
0.0
  0
CIRCLE
  5
60
330
46
100
AcDbEntity
  8
0
  6
Continuous
 62
     0
370
    30
100
AcDbCircle
 10
58.994
 20
28.309
 30
0.0
 40
2.75
  0
ENDBLK
  5
62
330
46
100
AcDbEntity
  8
0
100
AcDbBlockEnd
  0
BLOCK
  5
A9
330
64
100
AcDbEntity
  8
0
100
AcDbBlockBegin
  2
b
 70
     0
 10
67.803
 20
3.575
 30
0.0
  3
b
  1

  0
ELLIPSE
  5
65
330
64
100
AcDbEntity
  8
0
  6
Continuous
 62
     0
370
    30
100
AcDbEllipse
 10
90.242
 20
23.29
 30
0.0
 11
-15.0
 21
-3.330669073875470E-15
 31
0.0
210
0.0
220
0.0
230
1.0
 40
0.577
 41
5.497787143782137
 42
7.068583470577035
  0
ELLIPSE
  5
66
330
64
100
AcDbEntity
  8
0
  6
Continuous
 62
     0
370
    30
100
AcDbEllipse
 10
90.242
 20
23.29
 30
0.0
 11
-15.0
 21
-3.330669073875470E-15
 31
0.0
210
0.0
220
0.0
230
1.0
 40
0.577
 41
0.7853981633974483
 42
2.356194490192344
  0
LINE
  5
67
330
64
100
AcDbEntity
  8
0
  6
Continuous
 62
     0
370
     0
100
AcDbLine
 10
100.849
 20
10.635
 30
0.0
 11
100.849
 21
17.167
 31
0.0
  0
ELLIPSE
  5
68
330
64
100
AcDbEntity
  8
0
  6
Continuous
 62
     0
370
    30
100
AcDbEllipse
 10
90.242
 20
16.758
 30
0.0
 11
-15.0
 21
-3.330669073875470E-15
 31
0.0
210
0.0
220
0.0
230
1.0
 40
0.577
 41
6.283185298539898
 42
7.068583470577034
  0
ELLIPSE
  5
69
330
64
100
AcDbEntity
  8
0
  6
Continuous
 62
     0
370
    30
100
AcDbEllipse
 10
90.242
 20
16.758
 30
0.0
 11
-15.0
 21
-3.330669073875470E-15
 31
0.0
210
0.0
220
0.0
230
1.0
 40
0.577
 41
0.7853981633974474
 42
2.356194490192345
  0
ELLIPSE
  5
6A
330
64
100
AcDbEntity
  8
0
  6
Continuous
 62
     0
370
    30
100
AcDbEllipse
 10
90.242
 20
23.29
 30
0.0
 11
-9.5
 21
-1.582067810090848E-15
 31
0.0
210
0.0
220
0.0
230
1.0
 40
0.577
 41
0.0
 42
6.283185307179586
  0
ELLIPSE
  5
6B
330
64
100
AcDbEntity
  8
0
  6
Continuous
 62
     0
370
    30
100
AcDbEllipse
 10
90.242
 20
16.758
 30
0.0
 11
-9.5
 21
-1.582067810090848E-15
 31
0.0
210
0.0
220
0.0
230
1.0
 40
0.577
 41
3.779428645571365
 42
5.645349297918641
  0
LINE
  5
6C
330
64
100
AcDbEntity
  8
0
  6
Continuous
 62
     0
370
    30
100
AcDbLine
 10
115.474
 20
18.262
 30
0.0
 11
114.284
 21
17.575
 31
0.0
  0
LINE
  5
6D
330
64
100
AcDbEntity
  8
0
  6
Continuous
 62
     0
370
    30
100
AcDbLine
 10
114.284
 20
25.74
 30
0.0
 11
114.284
 21
24.365
 31
0.0
  0
LINE
  5
6E
330
64
100
AcDbEntity
  8
0
  6
Continuous
 62
     0
370
    30
100
AcDbLine
 10
114.284
 20
18.949
 30
0.0
 11
114.284
 21
17.575
 31
0.0
  0
LINE
  5
6F
330
64
100
AcDbEntity
  8
0
  6
Continuous
 62
     0
370
    30
100
AcDbLine
 10
114.284
 20
25.74
 30
0.0
 11
115.474
 21
26.427
 31
0.0
  0
LINE
  5
70
330
64
100
AcDbEntity
  8
0
  6
Continuous
 62
     0
370
    30
100
AcDbLine
 10
114.284
 20
18.949
 30
0.0
 11
115.474
 21
18.262
 31
0.0
  0
ELLIPSE
  5
71
330
64
100
AcDbEntity
  8
0
  6
Continuous
 62
     0
370
    30
100
AcDbEllipse
 10
117.819
 20
23.699
 30
0.0
 11
3.000000000000001
 21
5.196152422706632
 31
0.0
210
0.0
220
0.0
230
0.9999999999999999
 40
0.577
 41
1.770508946735193
 42
2.941880033649497
  0
LINE
  5
72
330
64
100
AcDbEntity
  8
0
  6
Continuous
 62
     0
370
     0
100
AcDbLine
 10
89.242
 20
35.439
 30
0.0
 11
110.455
 21
23.191
 31
0.0
  0
LINE
  5
73
330
64
100
AcDbEntity
  8
0
  6
Continuous
 62
     0
370
     0
100
AcDbLine
 10
88.242
 20
34.383
 30
0.0
 11
109.455
 21
22.136
 31
0.0
  0
LINE
  5
74
330
64
100
AcDbEntity
  8
0
  6
Continuous
 62
     0
370
     0
100
AcDbLine
 10
92.607
 20
41.268
 30
0.0
 11
113.821
 21
29.02
 31
0.0
  0
LINE
  5
75
330
64
100
AcDbEntity
  8
0
  6
Continuous
 62
     0
370
     0
100
AcDbLine
 10
93.723
 20
42.385
 30
0.0
 11
114.936
 21
30.137
 31
0.0
  0
LINE
  5
76
330
64
100
AcDbEntity
  8
0
  6
Continuous
 62
     0
370
    30
100
AcDbLine
 10
88.242
 20
34.383
 30
0.0
 11
79.635
 21
29.414
 31
0.0
  0
LINE
  5
77
330
64
100
AcDbEntity
  8
0
  6
Continuous
 62
     0
370
    30
100
AcDbLine
 10
100.849
 20
17.167
 30
0.0
 11
109.455
 21
22.136
 31
0.0
  0
LINE
  5
78
330
64
100
AcDbEntity
  8
0
  6
Continuous
 62
     0
370
    30
100
AcDbLine
 10
92.607
 20
41.268
 30
0.0
 11
89.242
 21
35.439
 31
0.0
  0
LINE
  5
79
330
64
100
AcDbEntity
  8
0
  6
Continuous
 62
     0
370
    30
100
AcDbLine
 10
113.821
 20
29.02
 30
0.0
 11
110.455
 21
23.191
 31
0.0
  0
LINE
  5
7A
330
64
100
AcDbEntity
  8
0
  6
Continuous
 62
     0
370
    30
100
AcDbLine
 10
100.849
 20
10.635
 30
0.0
 11
109.455
 21
15.604
 31
0.0
  0
LINE
  5
7B
330
64
100
AcDbEntity
  8
0
  6
Continuous
 62
     0
370
    30
100
AcDbLine
 10
113.821
 20
13.76
 30
0.0
 11
110.455
 21
15.703
 31
0.0
  0
ELLIPSE
  5
7C
330
64
100
AcDbEntity
  8
0
  6
Continuous
 62
     0
370
    30
100
AcDbEllipse
 10
88.242
 20
36.016
 30
0.0
 11
-1.000000000000006
 21
-1.732050807568887
 31
0.0
210
0.0
220
0.0
230
-0.9999999999999997
 40
0.577
 41
4.712388980384679
 42
5.497787143782131
  0
ELLIPSE
  5
7D
330
64
100
AcDbEntity
  8
0
  6
Continuous
 62
     0
370
    30
100
AcDbEllipse
 10
109.455
 20
23.769
 30
0.0
 11
-1.000000000000006
 21
-1.732050807568887
 31
0.0
210
0.0
220
0.0
230
-0.9999999999999997
 40
0.577
 41
4.71238898038469
 42
5.497787143782131
  0
ELLIPSE
  5
7E
330
64
100
AcDbEntity
  8
0
  6
Continuous
 62
     0
370
    30
100
AcDbEllipse
 10
93.607
 20
40.69
 30
0.0
 11
-1.000000000000003
 21
-1.732050807568883
 31
0.0
210
0.0
220
0.0
230
-0.9999999999999998
 40
0.577
 41
1.570796326794877
 42
2.438232172777056
  0
ELLIPSE
  5
7F
330
64
100
AcDbEntity
  8
0
  6
Continuous
 62
     0
370
    30
100
AcDbEllipse
 10
114.821
 20
28.443
 30
0.0
 11
-1.000000000000003
 21
-1.732050807568883
 31
0.0
210
0.0
220
0.0
230
-0.9999999999999998
 40
0.577
 41
1.570796326794892
 42
2.438232172777063
  0
ELLIPSE
  5
80
330
64
100
AcDbEntity
  8
0
  6
Continuous
 62
     0
370
    30
100
AcDbEllipse
 10
109.455
 20
13.971
 30
0.0
 11
1.000000000000004
 21
1.732050807568885
 31
0.0
210
0.0
220
0.0
230
0.9999999999999997
 40
0.577
 41
0.0000000000000098
 42
0.7853981633974483
  0
ELLIPSE
  5
81
330
64
100
AcDbEntity
  8
0
  6
Continuous
 62
     0
370
    30
100
AcDbEllipse
 10
114.821
 20
15.492
 30
0.0
 11
1.000000000000004
 21
1.732050807568885
 31
0.0
210
0.0
220
0.0
230
0.9999999999999997
 40
0.577
 41
3.141592653589788
 42
4.009028499571953
  0
LINE
  5
82
330
64
100
AcDbEntity
  8
0
  6
Continuous
 62
     0
370
    30
100
AcDbLine
 10
98.374
 20
44.628
 30
0.0
 11
93.723
 21
42.385
 31
0.0
  0
LINE
  5
83
330
64
100
AcDbEntity
  8
0
  6
Continuous
 62
     0
370
    30
100
AcDbLine
 10
114.936
 20
13.931
 30
0.0
 11
119.587
 21
17.058
 31
0.0
  0
LINE
  5
84
330
64
100
AcDbEntity
  8
0
  6
Continuous
 62
     0
370
    30
100
AcDbLine
 10
114.936
 20
30.137
 30
0.0
 11
119.587
 21
32.381
 31
0.0
  0
SPLINE
  5
85
330
64
100
AcDbEntity
  8
0
  6
Continuous
 62
     0
370
    30
100
AcDbSpline
210
0.0
220
0.0
230
1.0
 70
     8
 71
     3
 72
    16
 73
    12
 74
     0
 42
0.0
 43
0.0
 40
0.0
 40
0.0
 40
0.0
 40
0.0
 40
0.9672514938440375
 40
2.901754481532113
 40
6.063610954695656
 40
9.384445088522954
 40
12.7471619175793
 40
16.03070712608531
 40
19.12159256164013
 40
20.99144875771642
 40
21.92637685575455
 40
21.92637685575455
 40
21.92637685575455
 40
21.92637685575455
 10
119.586936956556
 20
43.62117052197348
 30
0.0
 10
119.3077155013835
 20
43.78237910428082
 30
0.0
 10
118.4548721985677
 20
44.23971416059702
 30
0.0
 10
116.5939952888971
 20
45.04657635939386
 30
0.0
 10
113.8979762510343
 20
45.8489167784649
 30
0.0
 10
110.6527261604869
 20
46.38952491381783
 30
0.0
 10
107.3267165008049
 20
46.54852149151381
 30
0.0
 10
104.0807088343124
 20
46.31818605911405
 30
0.0
 10
101.3794815459304
 20
45.7730618212604
 30
0.0
 10
99.5103514664734
 20
45.14107315627705
 30
0.0
 10
98.65442235873599
 20
44.76358957577175
 30
0.0
 10
98.37373352095955
 20
44.62818297178435
 30
0.0
  0
SPLINE
  5
86
330
64
100
AcDbEntity
  8
0
  6
Continuous
 62
     0
370
    30
100
AcDbSpline
210
0.0
220
0.0
230
1.0
 70
     8
 71
     3
 72
    16
 73
    12
 74
     0
 42
0.0
 43
0.0
 40
0.0
 40
0.0
 40
0.0
 40
0.0
 40
0.3526854360733034
 40
1.05805630821991
 40
2.14476610624284
 40
3.277008680689953
 40
4.467606017437836
 40
5.724899744610088
 40
7.052899340967332
 40
7.985456667811683
 40
8.45173533123386
 40
8.45173533123386
 40
8.45173533123386
 40
8.45173533123386
 10
123.9803352387577
 20
23.89360477782911
 30
0.0
 10
123.9803352387526
 20
23.77604296580468
 30
0.0
 10
123.9697148073548
 20
23.42335752973184
 30
0.0
 10
123.8840752331819
 20
22.71039712263202
 30
0.0
 10
123.6273940775379
 20
21.76567561215417
 30
0.0
 10
123.1542718345355
 20
20.72716943443505
 30
0.0
 10
122.5031923233466
 20
19.72247337128909
 30
0.0
 10
121.6831459700296
 20
18.76326249283548
 30
0.0
 10
120.8195885112053
 20
17.96662332154064
 30
0.0
 10
120.0987989340655
 20
17.41075682199205
 30
0.0
 10
119.715923506441
 20
17.14453175515176
 30
0.0
 10
119.5869369565559
 20
17.05781508912478
 30
0.0
  0
SPLINE
  5
87
330
64
100
AcDbEntity
  8
0
  6
Continuous
 62
     0
370
    30
100
AcDbSpline
210
0.0
220
0.0
230
1.0
 70
     8
 71
     3
 72
    21
 73
    17
 74
     0
 42
0.0
 43
0.0
 40
0.0
 40
0.0
 40
0.0
 40
0.0
 40
0.8569223243694841
 40
2.570766973108452
 40
3.725051702138955
 40
4.794506861485532
 40
5.788872851555425
 40
6.724411339543123
 40
7.623762717039408
 40
8.514209333399728
 40
9.424274317710092
 40
10.37980084782895
 40
11.40111389349184
 40
12.50195230978241
 40
14.1424777940837
 40
14.96274053623434
 40
14.96274053623434
 40
14.96274053623434
 40
14.96274053623434
 10
119.586936956556
 20
43.6211705219735
 30
0.0
 10
119.8343091238806
 20
43.47835013457858
 30
0.0
 10
120.5645119586885
 20
43.02925389555762
 30
0.0
 10
121.5635326337156
 20
42.27798693041495
 30
0.0
 10
122.4949673319034
 20
41.34963807619353
 30
0.0
 10
123.1478998649761
 20
40.493495869421
 30
0.0
 10
123.62358146429
 20
39.60869947733668
 30
0.0
 10
123.9140332364613
 20
38.70527002531844
 30
0.0
 10
124.012526377338
 20
37.79543178323647
 30
0.0
 10
123.9158568062454
 20
36.89370523921666
 30
0.0
 10
123.6260380302803
 20
36.01513725159226
 30
0.0
 10
123.1497109227414
 20
35.17274570232941
 30
0.0
 10
122.4954394933491
 20
34.37657119299837
 30
0.0
 10
121.5617555198833
 20
33.53467913910084
 30
0.0
 10
120.5613199291297
 20
32.87805197166672
 30
0.0
 10
119.8332003817848
 20
32.49953375969656
 30
0.0
 10
119.586936956556
 20
32.38073425786848
 30
0.0
  0
ARC
  5
88
330
64
100
AcDbEntity
  8
0
  6
Continuous
 62
     0
370
    30
100
AcDbCircle
 10
119.734
 20
26.525
 30
0.0
 40
2.652030611271594
100
AcDbArc
 50
81.007
 51
93.181
  0
LINE
  5
89
330
64
100
AcDbEntity
  8
0
  6
Continuous
 62
     0
370
     0
100
AcDbLine
 10
119.587
 20
29.173
 30
0.0
 11
119.587
 21
32.381
 31
0.0
  0
ELLIPSE
  5
8A
330
64
100
AcDbEntity
  8
0
  6
Continuous
 62
     0
370
    30
100
AcDbEllipse
 10
117.819
 20
23.699
 30
0.0
 11
-3.000000000000001
 21
-5.196152422706632
 31
0.0
210
0.0
220
0.0
230
-0.9999999999999999
 40
0.577
 41
1.770508946735193
 42
2.785969921496877
  0
ELLIPSE
  5
8B
330
64
100
AcDbEntity
  8
0
  6
Continuous
 62
     0
370
    30
100
AcDbEllipse
 10
108.98
 20
34.925
 30
0.0
 11
15.0
 21
2.498001805406602E-15
 31
0.0
210
0.0
220
0.0
230
-1.0
 40
0.577
 41
0.6179500841777587
 42
0.7309295815642791
  0
LINE
  5
8C
330
64
100
AcDbEntity
  8
0
  6
Continuous
 62
     0
370
    30
100
AcDbLine
 10
121.206
 20
28.534
 30
0.0
 11
121.206
 21
29.908
 31
0.0
  0
LINE
  5
8D
330
64
100
AcDbEntity
  8
0
  6
Continuous
 62
     0
370
    30
100
AcDbLine
 10
121.206
 20
21.743
 30
0.0
 11
121.206
 21
23.118
 31
0.0
  0
ELLIPSE
  5
8E
330
64
100
AcDbEntity
  8
0
  6
Continuous
 62
     0
370
    30
100
AcDbEllipse
 10
108.98
 20
26.761
 30
0.0
 11
-15.0
 21
-2.498001805406602E-15
 31
0.0
210
0.0
220
0.0
230
1.0
 40
0.577
 41
2.41066307202551
 42
2.523642569412034
  0
ARC
  5
8F
330
64
100
AcDbEntity
  8
0
  6
Continuous
 62
     0
370
    30
100
AcDbCircle
 10
114.485
 20
24.861
 30
0.0
 40
6.866030899288042
100
AcDbArc
 50
317.995
 51
325.577
  0
LINE
  5
90
330
64
100
AcDbEntity
  8
0
  6
Continuous
 62
     0
370
     0
100
AcDbLine
 10
119.587
 20
17.058
 30
0.0
 11
119.587
 21
20.266
 31
0.0
  0
ELLIPSE
  5
91
330
64
100
AcDbEntity
  8
0
  6
Continuous
 62
     0
370
    30
100
AcDbEllipse
 10
117.819
 20
23.699
 30
0.0
 11
-3.000000000000001
 21
-5.196152422706632
 31
0.0
210
0.0
220
0.0
230
-0.9999999999999999
 40
0.577
 41
5.06801171247761
 42
6.083472687239286
  0
LINE
  5
92
330
64
100
AcDbEntity
  8
0
  6
Continuous
 62
     0
370
    30
100
AcDbLine
 10
120.149
 20
29.144
 30
0.0
 11
121.206
 21
28.534
 31
0.0
  0
LINE
  5
93
330
64
100
AcDbEntity
  8
0
  6
Continuous
 62
     0
370
    30
100
AcDbLine
 10
115.474
 20
26.427
 30
0.0
 11
121.206
 21
23.118
 31
0.0
  0
LINE
  5
94
330
64
100
AcDbEntity
  8
0
  6
Continuous
 62
     0
370
    30
100
AcDbLine
 10
114.284
 20
25.74
 30
0.0
 11
121.206
 21
21.743
 31
0.0
  0
LINE
  5
95
330
64
100
AcDbEntity
  8
0
  6
Continuous
 62
     0
370
    30
100
AcDbLine
 10
114.284
 20
24.365
 30
0.0
 11
120.149
 21
20.979
 31
0.0
  0
ARC
  5
96
330
64
100
AcDbEntity
  8
0
  6
Continuous
 62
     0
370
    30
100
AcDbCircle
 10
111.194
 20
26.558
 30
0.0
 40
10.5867774122466
100
AcDbArc
 50
341.035
 51
354.037
  0
SPLINE
  5
97
330
64
100
AcDbEntity
  8
0
  6
Continuous
 62
     0
370
    30
100
AcDbSpline
210
0.0
220
0.0
230
1.0
 70
     8
 71
     3
 72
    10
 73
     6
 74
     0
 42
0.0
 43
0.0
 40
4.526345466361298
 40
4.526345466361298
 40
4.526345466361298
 40
4.526345466361298
 40
4.61931642899502
 40
5.683545606278605
 40
7.042842935235542
 40
7.042842935235542
 40
7.042842935235542
 40
7.042842935235542
 10
121.7237508466583
 20
27.09129106740341
 30
0.0
 10
121.7209556412129
 20
27.11362271493118
 30
0.0
 10
121.6845502510321
 20
27.38968222534051
 30
0.0
 10
121.5616780054407
 20
27.93763202986908
 30
0.0
 10
121.3525719958158
 20
28.34601161547363
 30
0.0
 10
121.2063525234
 20
28.53355891391394
 30
0.0
  0
ELLIPSE
  5
98
330
64
100
AcDbEntity
  8
0
  6
Continuous
 62
     0
370
    30
100
AcDbEllipse
 10
108.98
 20
30.027
 30
0.0
 11
15.0
 21
2.498001805406602E-15
 31
0.0
210
0.0
220
0.0
230
-1.0
 40
0.577
 41
6.188764179717896
 42
6.838828795332867
  0
ELLIPSE
  5
99
330
64
100
AcDbEntity
  8
0
  6
Continuous
 62
     0
370
    30
100
AcDbEllipse
 10
108.98
 20
31.659
 30
0.0
 11
-15.0
 21
-2.498001805406602E-15
 31
0.0
210
0.0
220
0.0
230
1.0
 40
0.577
 41
2.585949165436513
 42
3.141592644950107
  0
LINE
  5
9A
330
64
100
AcDbEntity
  8
0
  6
Continuous
 62
     0
370
    30
100
AcDbLine
 10
117.112
 20
28.121
 30
0.0
 11
121.724
 21
25.458
 31
0.0
  0
LINE
  5
9B
330
64
100
AcDbEntity
  8
0
  6
Continuous
 62
     0
370
    30
100
AcDbLine
 10
121.724
 20
27.091
 30
0.0
 11
118.526
 21
28.937
 31
0.0
  0
LINE
  5
9C
330
64
100
AcDbEntity
  8
0
  6
Continuous
 62
     0
370
    30
100
AcDbLine
 10
117.348
 20
39.295
 30
0.0
 11
116.261
 21
39.923
 31
0.0
  0
LINE
  5
9D
330
64
100
AcDbEntity
  8
0
  6
Continuous
 62
     0
370
    30
100
AcDbLine
 10
116.261
 20
39.923
 30
0.0
 11
112.932
 21
39.408
 31
0.0
  0
LINE
  5
9E
330
64
100
AcDbEntity
  8
0
  6
Continuous
 62
     0
370
    30
100
AcDbLine
 10
116.261
 20
43.855
 30
0.0
 11
116.261
 21
39.923
 31
0.0
  0
LINE
  5
9F
330
64
100
AcDbEntity
  8
0
  6
Continuous
 62
     0
370
    30
100
AcDbLine
 10
111.521
 20
43.407
 30
0.0
 11
111.521
 21
40.223
 31
0.0
  0
LINE
  5
A0
330
64
100
AcDbEntity
  8
0
  6
Continuous
 62
     0
370
    30
100
AcDbLine
 10
119.731
 20
41.852
 30
0.0
 11
116.261
 21
43.855
 31
0.0
  0
LINE
  5
A1
330
64
100
AcDbEntity
  8
0
  6
Continuous
 62
     0
370
    30
100
AcDbLine
 10
116.261
 20
43.855
 30
0.0
 11
111.521
 21
43.407
 31
0.0
  0
LINE
  5
A2
330
64
100
AcDbEntity
  8
0
  6
Continuous
 62
     0
370
    30
100
AcDbLine
 10
111.521
 20
43.407
 30
0.0
 11
110.25
 21
40.956
 31
0.0
  0
LINE
  5
A3
330
64
100
AcDbEntity
  8
0
  6
Continuous
 62
     0
370
    30
100
AcDbLine
 10
110.25
 20
40.956
 30
0.0
 11
113.721
 21
38.952
 31
0.0
  0
LINE
  5
A4
330
64
100
AcDbEntity
  8
0
  6
Continuous
 62
     0
370
    30
100
AcDbLine
 10
113.721
 20
38.952
 30
0.0
 11
118.461
 21
39.4
 31
0.0
  0
LINE
  5
A5
330
64
100
AcDbEntity
  8
0
  6
Continuous
 62
     0
370
    30
100
AcDbLine
 10
119.731
 20
41.852
 30
0.0
 11
118.461
 21
39.4
 31
0.0
  0
LINE
  5
A6
330
64
100
AcDbEntity
  8
0
  6
Continuous
 62
     0
370
    30
100
AcDbLine
 10
123.98
 20
23.894
 30
0.0
 11
123.98
 21
30.027
 31
0.0
  0
LINE
  5
A7
330
64
100
AcDbEntity
  8
0
  6
Continuous
 62
     0
370
    30
100
AcDbLine
 10
123.98
 20
31.659
 30
0.0
 11
123.98
 21
37.792
 31
0.0
  0
LINE
  5
A8
330
64
100
AcDbEntity
  8
0
  6
Continuous
 62
     0
370
    30
100
AcDbLine
 10
75.242
 20
16.758
 30
0.0
 11
75.242
 21
23.29
 31
0.0
  0
ENDBLK
  5
AA
330
64
100
AcDbEntity
  8
0
100
AcDbBlockEnd
  0
BLOCK
  5
E3
330
AC
100
AcDbEntity
  8
0
100
AcDbBlockBegin
  2
c
 70
     0
 10
-42.035
 20
24.621
 30
0.0
  3
c
  1

  0
LINE
  5
AD
330
AC
100
AcDbEntity
  8
0
  6
Continuous
 62
     0
370
    30
100
AcDbLine
 10
8.994
 20
77.798
 30
0.0
 11
23.994
 21
77.798
 31
0.0
  0
LINE
  5
AE
330
AC
100
AcDbEntity
  8
0
  6
Continuous
 62
     0
370
     0
100
AcDbLine
 10
23.994
 20
69.798
 30
0.0
 11
23.994
 21
77.798
 31
0.0
  0
LINE
  5
AF
330
AC
100
AcDbEntity
  8
0
  6
Continuous
 62
     0
370
    30
100
AcDbLine
 10
8.994
 20
69.798
 30
0.0
 11
23.994
 21
69.798
 31
0.0
  0
LINE
  5
B1
330
AC
100
AcDbEntity
  8
0
  6
HIDDEN2
 62
     0
370
    30
100
AcDbLine
 10
14.494
 20
77.798
 30
0.0
 11
14.494
 21
69.798
 31
0.0
  0
LINE
  5
B2
330
AC
100
AcDbEntity
  8
0
  6
Continuous
 62
     0
370
    30
100
AcDbLine
 10
44.677
 20
68.798
 30
0.0
 11
42.994
 21
68.798
 31
0.0
  0
LINE
  5
B3
330
AC
100
AcDbEntity
  8
0
  6
Continuous
 62
     0
370
    30
100
AcDbLine
 10
42.994
 20
78.798
 30
0.0
 11
42.994
 21
77.115
 31
0.0
  0
LINE
  5
B4
330
AC
100
AcDbEntity
  8
0
  6
Continuous
 62
     0
370
    30
100
AcDbLine
 10
42.994
 20
70.481
 30
0.0
 11
42.994
 21
68.798
 31
0.0
  0
LINE
  5
B5
330
AC
100
AcDbEntity
  8
0
  6
Continuous
 62
     0
370
    30
100
AcDbLine
 10
42.994
 20
78.798
 30
0.0
 11
44.677
 21
78.798
 31
0.0
  0
ARC
  5
B6
330
AC
100
AcDbEntity
  8
0
  6
Continuous
 62
     0
370
    30
100
AcDbCircle
 10
47.994
 20
73.798
 30
0.0
 40
6.0
100
AcDbArc
 50
146.443
 51
213.557
  0
LINE
  5
B7
330
AC
100
AcDbEntity
  8
0
  6
Continuous
 62
     0
370
    30
100
AcDbLine
 10
23.994
 20
77.798
 30
0.0
 11
36.165
 21
77.798
 31
0.0
  0
LINE
  5
B8
330
AC
100
AcDbEntity
  8
0
  6
Continuous
 62
     0
370
    30
100
AcDbLine
 10
42.339
 20
83.143
 30
0.0
 11
37.58
 21
78.384
 31
0.0
  0
LINE
  5
B9
330
AC
100
AcDbEntity
  8
0
  6
Continuous
 62
     0
370
    30
100
AcDbLine
 10
23.994
 20
69.798
 30
0.0
 11
36.165
 21
69.798
 31
0.0
  0
LINE
  5
BA
330
AC
100
AcDbEntity
  8
0
  6
Continuous
 62
     0
370
    30
100
AcDbLine
 10
42.339
 20
64.453
 30
0.0
 11
37.58
 21
69.212
 31
0.0
  0
ARC
  5
BB
330
AC
100
AcDbEntity
  8
0
  6
Continuous
 62
     0
370
    30
100
AcDbCircle
 10
36.165
 20
79.798
 30
0.0
 40
2.000000000000011
100
AcDbArc
 50
270.0
 51
315.0
  0
ARC
  5
BC
330
AC
100
AcDbEntity
  8
0
  6
Continuous
 62
     0
370
    30
100
AcDbCircle
 10
43.753
 20
81.729
 30
0.0
 40
2.000000000000006
100
AcDbArc
 50
85.3
 51
135.0
  0
ARC
  5
BD
330
AC
100
AcDbEntity
  8
0
  6
Continuous
 62
     0
370
    30
100
AcDbCircle
 10
36.165
 20
67.798
 30
0.0
 40
2.000000000000008
100
AcDbArc
 50
45.0
 51
90.0
  0
ARC
  5
BE
330
AC
100
AcDbEntity
  8
0
  6
Continuous
 62
     0
370
    30
100
AcDbCircle
 10
43.753
 20
65.867
 30
0.0
 40
2.000000000000008
100
AcDbArc
 50
225.0
 51
274.7
  0
LINE
  5
BF
330
AC
100
AcDbEntity
  8
0
  6
Continuous
 62
     0
370
    30
100
AcDbLine
 10
43.917
 20
63.874
 30
0.0
 11
50.494
 21
64.415
 31
0.0
  0
LINE
  5
C0
330
AC
100
AcDbEntity
  8
0
  6
Continuous
 62
     0
370
    30
100
AcDbLine
 10
43.917
 20
83.722
 30
0.0
 11
50.494
 21
83.181
 31
0.0
  0
LINE
  5
C1
330
AC
100
AcDbEntity
  8
0
  6
Continuous
 62
     0
370
    30
100
AcDbLine
 10
65.494
 20
65.648
 30
0.0
 11
50.494
 21
64.415
 31
0.0
  0
LINE
  5
C2
330
AC
100
AcDbEntity
  8
0
  6
Continuous
 62
     0
370
    30
100
AcDbLine
 10
65.494
 20
81.948
 30
0.0
 11
50.494
 21
83.181
 31
0.0
  0
ARC
  5
C3
330
AC
100
AcDbEntity
  8
0
  6
Continuous
 62
     0
370
    30
100
AcDbCircle
 10
47.994
 20
73.798
 30
0.0
 40
6.000002826509562
100
AcDbArc
 50
56.443
 51
65.376
  0
LINE
  5
C4
330
AC
100
AcDbEntity
  8
0
  6
Continuous
 62
     0
370
     0
100
AcDbLine
 10
50.494
 20
79.252
 30
0.0
 11
50.494
 21
83.181
 31
0.0
  0
ARC
  5
C5
330
AC
100
AcDbEntity
  8
0
  6
Continuous
 62
     0
370
    30
100
AcDbCircle
 10
47.994
 20
73.798
 30
0.0
 40
6.0
100
AcDbArc
 50
65.376
 51
123.557
  0
LINE
  5
C6
330
AC
100
AcDbEntity
  8
0
  6
Continuous
 62
     0
370
    30
100
AcDbLine
 10
52.994
 20
78.798
 30
0.0
 11
51.311
 21
78.798
 31
0.0
  0
LINE
  5
C7
330
AC
100
AcDbEntity
  8
0
  6
Continuous
 62
     0
370
    30
100
AcDbLine
 10
52.994
 20
77.115
 30
0.0
 11
52.994
 21
78.798
 31
0.0
  0
LINE
  5
C8
330
AC
100
AcDbEntity
  8
0
  6
Continuous
 62
     0
370
    30
100
AcDbLine
 10
52.994
 20
68.798
 30
0.0
 11
52.994
 21
70.481
 31
0.0
  0
LINE
  5
C9
330
AC
100
AcDbEntity
  8
0
  6
Continuous
 62
     0
370
    30
100
AcDbLine
 10
51.311
 20
68.798
 30
0.0
 11
52.994
 21
68.798
 31
0.0
  0
ARC
  5
CA
330
AC
100
AcDbEntity
  8
0
  6
Continuous
 62
     0
370
    30
100
AcDbCircle
 10
47.994
 20
73.798
 30
0.0
 40
6.000002947757327
100
AcDbArc
 50
294.624
 51
303.557
  0
LINE
  5
CB
330
AC
100
AcDbEntity
  8
0
  6
Continuous
 62
     0
370
     0
100
AcDbLine
 10
50.494
 20
64.415
 30
0.0
 11
50.494
 21
68.344
 31
0.0
  0
ARC
  5
CC
330
AC
100
AcDbEntity
  8
0
  6
Continuous
 62
     0
370
    30
100
AcDbCircle
 10
47.994
 20
73.798
 30
0.0
 40
6.0
100
AcDbArc
 50
236.443
 51
294.624
  0
LINE
  5
CD
330
AC
100
AcDbEntity
  8
0
  6
Continuous
 62
     0
370
    30
100
AcDbLine
 10
65.494
 20
65.648
 30
0.0
 11
65.494
 21
72.798
 31
0.0
  0
LINE
  5
CE
330
AC
100
AcDbEntity
  8
0
  6
Continuous
 62
     0
370
    30
100
AcDbLine
 10
65.494
 20
74.798
 30
0.0
 11
65.494
 21
81.948
 31
0.0
  0
ARC
  5
CF
330
AC
100
AcDbEntity
  8
0
  6
Continuous
 62
     0
370
    30
100
AcDbCircle
 10
47.994
 20
73.798
 30
0.0
 40
5.999952084670907
100
AcDbArc
 50
326.443
 51
350.406
  0
ARC
  5
D0
330
AC
100
AcDbEntity
  8
0
  6
Continuous
 62
     0
370
    30
100
AcDbCircle
 10
47.993
 20
73.798
 30
0.0
 40
6.000565446218108
100
AcDbArc
 50
9.595
 51
33.556
  0
LINE
  5
D1
330
AC
100
AcDbEntity
  8
0
  6
Continuous
 62
     0
370
    30
100
AcDbLine
 10
65.494
 20
72.798
 30
0.0
 11
53.91
 21
72.798
 31
0.0
  0
LINE
  5
D2
330
AC
100
AcDbEntity
  8
0
  6
Continuous
 62
     0
370
    30
100
AcDbLine
 10
53.91
 20
74.798
 30
0.0
 11
65.494
 21
74.798
 31
0.0
  0
LINE
  5
D3
330
AC
100
AcDbEntity
  8
0
  6
HIDDEN2
 62
     0
370
    30
100
AcDbLine
 10
54.744
 20
77.317
 30
0.0
 11
58.994
 21
77.317
 31
0.0
  0
LINE
  5
D4
330
AC
100
AcDbEntity
  8
0
  6
HIDDEN2
 62
     0
370
    30
100
AcDbLine
 10
58.994
 20
77.317
 30
0.0
 11
63.244
 21
77.317
 31
0.0
  0
LINE
  5
D5
330
AC
100
AcDbEntity
  8
0
  6
HIDDEN2
 62
     0
370
    30
100
AcDbLine
 10
56.244
 20
74.798
 30
0.0
 11
56.244
 21
77.317
 31
0.0
  0
LINE
  5
D6
330
AC
100
AcDbEntity
  8
0
  6
HIDDEN2
 62
     0
370
    30
100
AcDbLine
 10
63.244
 20
82.133
 30
0.0
 11
63.244
 21
77.317
 31
0.0
  0
LINE
  5
D7
330
AC
100
AcDbEntity
  8
0
  6
HIDDEN2
 62
     0
370
    30
100
AcDbLine
 10
54.744
 20
82.832
 30
0.0
 11
54.744
 21
77.317
 31
0.0
  0
LINE
  5
D8
330
AC
100
AcDbEntity
  8
0
  6
HIDDEN2
 62
     0
370
    30
100
AcDbLine
 10
58.994
 20
82.482
 30
0.0
 11
58.994
 21
77.317
 31
0.0
  0
LINE
  5
D9
330
AC
100
AcDbEntity
  8
0
  6
HIDDEN2
 62
     0
370
    30
100
AcDbLine
 10
63.244
 20
71.874
 30
0.0
 11
58.994
 21
71.874
 31
0.0
  0
LINE
  5
DA
330
AC
100
AcDbEntity
  8
0
  6
HIDDEN2
 62
     0
370
    30
100
AcDbLine
 10
58.994
 20
71.874
 30
0.0
 11
54.744
 21
71.874
 31
0.0
  0
LINE
  5
DB
330
AC
100
AcDbEntity
  8
0
  6
HIDDEN2
 62
     0
370
    30
100
AcDbLine
 10
56.244
 20
71.874
 30
0.0
 11
56.244
 21
72.798
 31
0.0
  0
LINE
  5
DC
330
AC
100
AcDbEntity
  8
0
  6
HIDDEN2
 62
     0
370
    30
100
AcDbLine
 10
63.244
 20
65.463
 30
0.0
 11
63.244
 21
71.874
 31
0.0
  0
LINE
  5
DD
330
AC
100
AcDbEntity
  8
0
  6
HIDDEN2
 62
     0
370
    30
100
AcDbLine
 10
58.994
 20
65.114
 30
0.0
 11
58.994
 21
71.874
 31
0.0
  0
LINE
  5
DE
330
AC
100
AcDbEntity
  8
0
  6
HIDDEN2
 62
     0
370
    30
100
AcDbLine
 10
54.744
 20
64.764
 30
0.0
 11
54.744
 21
71.874
 31
0.0
  0
LINE
  5
DF
330
AC
100
AcDbEntity
  8
0
  6
HIDDEN2
 62
     0
370
    30
100
AcDbLine
 10
61.744
 20
74.798
 30
0.0
 11
61.744
 21
77.317
 31
0.0
  0
LINE
  5
E0
330
AC
100
AcDbEntity
  8
0
  6
HIDDEN2
 62
     0
370
    30
100
AcDbLine
 10
61.744
 20
71.874
 30
0.0
 11
61.744
 21
72.798
 31
0.0
  0
LINE
  5
E1
330
AC
100
AcDbEntity
  8
0
  6
HIDDEN2
 62
     0
370
    30
100
AcDbLine
 10
33.494
 20
77.798
 30
0.0
 11
33.494
 21
69.798
 31
0.0
  0
LINE
  5
E2
330
AC
100
AcDbEntity
  8
0
  6
Continuous
 62
     0
370
    30
100
AcDbLine
 10
8.994
 20
69.798
 30
0.0
 11
8.994
 21
77.798
 31
0.0
  0
ENDBLK
  5
E4
330
AC
100
AcDbEntity
  8
0
100
AcDbBlockEnd
  0
BLOCK
  5
FF
330
E6
100
AcDbEntity
  8
0
100
AcDbBlockBegin
  2
d
 70
     0
 10
41.016
 20
-55.775
 30
0.0
  3
d
  1

  0
LINE
  5
E7
330
E6
100
AcDbEntity
  8
0
  6
Continuous
 62
     0
370
    30
100
AcDbLine
 10
91.008
 20
77.798
 30
0.0
 11
106.008
 21
77.798
 31
0.0
  0
LINE
  5
E8
330
E6
100
AcDbEntity
  8
0
  6
Continuous
 62
     0
370
    30
100
AcDbLine
 10
106.008
 20
77.798
 30
0.0
 11
121.008
 21
77.798
 31
0.0
  0
LINE
  5
E9
330
E6
100
AcDbEntity
  8
0
  6
Continuous
 62
     0
370
    30
100
AcDbLine
 10
91.008
 20
69.798
 30
0.0
 11
91.008
 21
77.798
 31
0.0
  0
LINE
  5
EA
330
E6
100
AcDbEntity
  8
0
  6
Continuous
 62
     0
370
    30
100
AcDbLine
 10
121.008
 20
69.798
 30
0.0
 11
121.008
 21
77.798
 31
0.0
  0
LINE
  5
EB
330
E6
100
AcDbEntity
  8
0
  6
Continuous
 62
     0
370
    30
100
AcDbLine
 10
91.008
 20
69.798
 30
0.0
 11
106.008
 21
69.798
 31
0.0
  0
LINE
  5
EC
330
E6
100
AcDbEntity
  8
0
  6
Continuous
 62
     0
370
    30
100
AcDbLine
 10
106.008
 20
69.798
 30
0.0
 11
121.008
 21
69.798
 31
0.0
  0
LINE
  5
ED
330
E6
100
AcDbEntity
  8
0
  6
Continuous
 62
     0
370
     0
100
AcDbLine
 10
91.008
 20
78.384
 30
0.0
 11
121.008
 21
78.384
 31
0.0
  0
LINE
  5
EE
330
E6
100
AcDbEntity
  8
0
  6
Continuous
 62
     0
370
     0
100
AcDbLine
 10
91.008
 20
83.143
 30
0.0
 11
121.008
 21
83.143
 31
0.0
  0
LINE
  5
EF
330
E6
100
AcDbEntity
  8
0
  6
Continuous
 62
     0
370
     0
100
AcDbLine
 10
91.008
 20
69.212
 30
0.0
 11
121.008
 21
69.212
 31
0.0
  0
LINE
  5
F0
330
E6
100
AcDbEntity
  8
0
  6
Continuous
 62
     0
370
     0
100
AcDbLine
 10
91.008
 20
64.453
 30
0.0
 11
121.008
 21
64.453
 31
0.0
  0
LINE
  5
F1
330
E6
100
AcDbEntity
  8
0
  6
Continuous
 62
     0
370
    30
100
AcDbLine
 10
91.008
 20
83.143
 30
0.0
 11
91.008
 21
78.384
 31
0.0
  0
LINE
  5
F2
330
E6
100
AcDbEntity
  8
0
  6
Continuous
 62
     0
370
    30
100
AcDbLine
 10
121.008
 20
83.143
 30
0.0
 11
121.008
 21
78.384
 31
0.0
  0
LINE
  5
F3
330
E6
100
AcDbEntity
  8
0
  6
Continuous
 62
     0
370
    30
100
AcDbLine
 10
91.008
 20
69.212
 30
0.0
 11
91.008
 21
64.453
 31
0.0
  0
LINE
  5
F4
330
E6
100
AcDbEntity
  8
0
  6
Continuous
 62
     0
370
    30
100
AcDbLine
 10
121.008
 20
64.453
 30
0.0
 11
121.008
 21
69.212
 31
0.0
  0
LINE
  5
F5
330
E6
100
AcDbEntity
  8
0
  6
Continuous
 62
     0
370
    30
100
AcDbLine
 10
91.008
 20
78.384
 30
0.0
 11
91.008
 21
77.798
 31
0.0
  0
LINE
  5
F6
330
E6
100
AcDbEntity
  8
0
  6
Continuous
 62
     0
370
    30
100
AcDbLine
 10
121.008
 20
78.384
 30
0.0
 11
121.008
 21
77.798
 31
0.0
  0
LINE
  5
F7
330
E6
100
AcDbEntity
  8
0
  6
Continuous
 62
     0
370
    30
100
AcDbLine
 10
91.008
 20
83.143
 30
0.0
 11
91.008
 21
83.729
 31
0.0
  0
LINE
  5
F8
330
E6
100
AcDbEntity
  8
0
  6
Continuous
 62
     0
370
    30
100
AcDbLine
 10
121.008
 20
83.143
 30
0.0
 11
121.008
 21
83.729
 31
0.0
  0
LINE
  5
F9
330
E6
100
AcDbEntity
  8
0
  6
Continuous
 62
     0
370
    30
100
AcDbLine
 10
91.008
 20
69.212
 30
0.0
 11
91.008
 21
69.798
 31
0.0
  0
LINE
  5
FA
330
E6
100
AcDbEntity
  8
0
  6
Continuous
 62
     0
370
    30
100
AcDbLine
 10
121.008
 20
69.212
 30
0.0
 11
121.008
 21
69.798
 31
0.0
  0
LINE
  5
FB
330
E6
100
AcDbEntity
  8
0
  6
Continuous
 62
     0
370
    30
100
AcDbLine
 10
91.008
 20
64.453
 30
0.0
 11
91.008
 21
63.867
 31
0.0
  0
LINE
  5
FC
330
E6
100
AcDbEntity
  8
0
  6
Continuous
 62
     0
370
    30
100
AcDbLine
 10
121.008
 20
64.453
 30
0.0
 11
121.008
 21
63.867
 31
0.0
  0
LINE
  5
FD
330
E6
100
AcDbEntity
  8
0
  6
Continuous
 62
     0
370
    30
100
AcDbLine
 10
91.008
 20
83.729
 30
0.0
 11
121.008
 21
83.729
 31
0.0
  0
LINE
  5
FE
330
E6
100
AcDbEntity
  8
0
  6
Continuous
 62
     0
370
    30
100
AcDbLine
 10
91.008
 20
63.867
 30
0.0
 11
121.008
 21
63.867
 31
0.0
  0
ENDBLK
  5
100
330
E6
100
AcDbEntity
  8
0
100
AcDbBlockEnd
  0
ENDSEC
  0
SECTION
  2
ENTITIES
  0
INSERT
  5
63
330
1F
100
AcDbEntity
  8
0
  6
Continuous
 62
    72
370
     0
100
AcDbBlockReference
  2
a
 10
7.862
 20
12.708
 30
0.0
  0
INSERT
  5
AB
330
1F
100
AcDbEntity
  8
0
  6
Continuous
 62
    72
370
     0
100
AcDbBlockReference
  2
b
 10
67.803
 20
3.575
 30
0.0
  0
INSERT
  5
E5
330
1F
100
AcDbEntity
  8
0
  6
Continuous
 62
    72
370
     0
100
AcDbBlockReference
  2
c
 10
-42.035
 20
24.621
 30
0.0
  0
INSERT
  5
101
330
1F
100
AcDbEntity
  8
0
  6
Continuous
 62
    72
370
     0
100
AcDbBlockReference
  2
d
 10
41.016
 20
-55.775
 30
0.0
  0
ENDSEC
  0
SECTION
  2
OBJECTS
  0
DICTIONARY
  5
C
330
0
100
AcDbDictionary
281
     1
  3
ACAD_GROUP
350
D
  3
ACAD_LAYOUT
350
1A
  3
ACAD_MLEADERSTYLE
350
103
  3
ACAD_MLINESTYLE
350
17
  3
ACAD_PLOTSETTINGS
350
19
  3
ACAD_PLOTSTYLENAME
350
E
  3
ACAD_TABLESTYLE
350
102
  3
ACAD_VISUALSTYLE
350
2A
  0
DICTIONARY
  5
D
102
{ACAD_REACTORS
330
C
102
}
330
C
100
AcDbDictionary
281
     1
  0
DICTIONARY
  5
1A
102
{ACAD_REACTORS
330
C
102
}
330
C
100
AcDbDictionary
281
     1
  3
Layout1
350
1E
  3
Layout2
350
26
  3
Model
350
22
  0
DICTIONARY
  5
103
102
{ACAD_REACTORS
330
C
102
}
330
C
100
AcDbDictionary
281
     1
  0
DICTIONARY
  5
17
102
{ACAD_REACTORS
330
C
102
}
330
C
100
AcDbDictionary
281
     1
  3
Standard
350
18
  0
DICTIONARY
  5
19
102
{ACAD_REACTORS
330
C
102
}
330
C
100
AcDbDictionary
281
     1
  0
ACDBDICTIONARYWDFLT
  5
E
102
{ACAD_REACTORS
330
C
102
}
330
C
100
AcDbDictionary
281
     1
  3
Normal
350
F
100
AcDbDictionaryWithDefault
340
F
  0
DICTIONARY
  5
102
102
{ACAD_REACTORS
330
C
102
}
330
C
100
AcDbDictionary
281
     1
  0
DICTIONARY
  5
2A
102
{ACAD_REACTORS
330
C
102
}
330
C
100
AcDbDictionary
281
     1
  3
2dWireframe
350
2F
  3
3D Hidden
350
31
  3
3dWireframe
350
30
  3
Basic
350
32
  3
Brighten
350
36
  3
ColorChange
350
3A
  3
Conceptual
350
34
  3
Dim
350
35
  3
Facepattern
350
39
  3
Flat
350
2B
  3
FlatWithEdges
350
2C
  3
Gouraud
350
2D
  3
GouraudWithEdges
350
2E
  3
Linepattern
350
38
  3
Realistic
350
33
  3
Thicken
350
37
  0
LAYOUT
  5
1E
102
{ACAD_REACTORS
330
1A
102
}
330
1A
100
AcDbPlotSettings
  1

  2
none_device
  4

  6

 40
0.0
 41
0.0
 42
0.0
 43
0.0
 44
0.0
 45
0.0
 46
0.0
 47
0.0
 48
0.0
 49
0.0
140
0.0
141
0.0
142
1.0
143
1.0
 70
   688
 72
     0
 73
     0
 74
     5
  7

 75
    16
 76
     0
 77
     2
 78
   300
147
1.0
148
0.0
149
0.0
100
AcDbLayout
  1
Layout1
 70
     1
 71
     1
 10
0.0
 20
0.0
 11
420.0
 21
297.0
 12
0.0
 22
0.0
 32
0.0
 14
1.000E+20
 24
1.000E+20
 34
1.000E+20
 15
-1.000E+20
 25
-1.000E+20
 35
-1.000E+20
146
0.0
 13
0.0
 23
0.0
 33
0.0
 16
1.0
 26
0.0
 36
0.0
 17
0.0
 27
1.0
 37
0.0
 76
     0
330
1B
  0
LAYOUT
  5
26
102
{ACAD_REACTORS
330
1A
102
}
330
1A
100
AcDbPlotSettings
  1

  2
none_device
  4

  6

 40
0.0
 41
0.0
 42
0.0
 43
0.0
 44
0.0
 45
0.0
 46
0.0
 47
0.0
 48
0.0
 49
0.0
140
0.0
141
0.0
142
1.0
143
1.0
 70
   688
 72
     0
 73
     0
 74
     5
  7

 75
    16
 76
     0
 77
     2
 78
   300
147
1.0
148
0.0
149
0.0
100
AcDbLayout
  1
Layout2
 70
     1
 71
     2
 10
0.0
 20
0.0
 11
0.0
 21
0.0
 12
0.0
 22
0.0
 32
0.0
 14
0.0
 24
0.0
 34
0.0
 15
0.0
 25
0.0
 35
0.0
146
0.0
 13
0.0
 23
0.0
 33
0.0
 16
1.0
 26
0.0
 36
0.0
 17
0.0
 27
1.0
 37
0.0
 76
     0
330
23
  0
LAYOUT
  5
22
102
{ACAD_REACTORS
330
1A
102
}
330
1A
100
AcDbPlotSettings
  1

  2
none_device
  4

  6

 40
0.0
 41
0.0
 42
0.0
 43
0.0
 44
0.0
 45
0.0
 46
0.0
 47
0.0
 48
0.0
 49
0.0
140
0.0
141
0.0
142
1.0
143
1.0
 70
  1712
 72
     0
 73
     0
 74
     0
  7

 75
     0
 76
     0
 77
     2
 78
   300
147
1.0
148
0.0
149
0.0
100
AcDbLayout
  1
Model
 70
     1
 71
     0
 10
0.0
 20
0.0
 11
420.0
 21
297.0
 12
0.0
 22
0.0
 32
0.0
 14
1.000E+20
 24
1.000E+20
 34
1.000E+20
 15
-1.000E+20
 25
-1.000E+20
 35
-1.000E+20
146
0.0
 13
0.0
 23
0.0
 33
0.0
 16
1.0
 26
0.0
 36
0.0
 17
0.0
 27
1.0
 37
0.0
 76
     0
330
1F
331
29
  0
MLINESTYLE
  5
18
102
{ACAD_REACTORS
330
17
102
}
330
17
100
AcDbMlineStyle
  2
Standard
 70
     0
  3

 62
   256
 51
90.0
 52
90.0
 71
     2
 49
0.5
 62
   256
  6
BYLAYER
 49
-0.5
 62
   256
  6
BYLAYER
  0
ACDBPLACEHOLDER
  5
F
102
{ACAD_REACTORS
330
E
102
}
330
E
  0
VISUALSTYLE
  5
2F
102
{ACAD_REACTORS
330
2A
102
}
330
2A
100
AcDbVisualStyle
  2
2dWireframe
 70
     4
 71
     0
 72
     2
 73
     0
 90
        0
 40
-0.6
 41
-30.0
 62
     5
 63
     7
421
 16777215
 74
     1
 91
        4
 64
     7
 65
   257
 75
     1
175
     1
 42
1.0
 92
        0
 66
   257
 43
1.0
 76
     1
 77
     6
 78
     2
 67
     7
 79
     5
170
     0
171
     0
290
     0
174
     0
 93
        1
 44
0.0
173
     0
291
     0
 45
0.0
1001
ACAD
1000
AcDbSavedByObjectVersion
1070
     0
  0
VISUALSTYLE
  5
31
102
{ACAD_REACTORS
330
2A
102
}
330
2A
100
AcDbVisualStyle
  2
3D Hidden
 70
     6
 71
     1
 72
     2
 73
     2
 90
        0
 40
-0.6
 41
-30.0
 62
     5
 63
     7
421
 16777215
 74
     2
 91
        2
 64
     7
 65
   257
 75
     2
175
     1
 42
40.0
 92
        0
 66
   257
 43
1.0
 76
     1
 77
     6
 78
     2
 67
     7
 79
     3
170
     0
171
     0
290
     0
174
     0
 93
        1
 44
0.0
173
     0
291
     0
 45
0.0
1001
ACAD
1000
AcDbSavedByObjectVersion
1070
     0
  0
VISUALSTYLE
  5
30
102
{ACAD_REACTORS
330
2A
102
}
330
2A
100
AcDbVisualStyle
  2
3dWireframe
 70
     5
 71
     0
 72
     2
 73
     0
 90
        0
 40
-0.6
 41
-30.0
 62
     5
 63
     7
421
 16777215
 74
     1
 91
        4
 64
     7
 65
   257
 75
     1
175
     1
 42
1.0
 92
        0
 66
   257
 43
1.0
 76
     1
 77
     6
 78
     2
 67
     7
 79
     5
170
     0
171
     0
290
     0
174
     0
 93
        1
 44
0.0
173
     0
291
     0
 45
0.0
1001
ACAD
1000
AcDbSavedByObjectVersion
1070
     0
  0
VISUALSTYLE
  5
32
102
{ACAD_REACTORS
330
2A
102
}
330
2A
100
AcDbVisualStyle
  2
Basic
 70
     7
 71
     1
 72
     0
 73
     1
 90
        0
 40
-0.6
 41
-30.0
 62
     5
 63
     7
421
 16777215
 74
     0
 91
        4
 64
     7
 65
   257
 75
     1
175
     1
 42
1.0
 92
        8
 66
     7
 43
1.0
 76
     1
 77
     6
 78
     2
 67
     7
 79
     5
170
     0
171
     0
290
     0
174
     0
 93
        1
 44
0.0
173
     0
291
     1
 45
0.0
1001
ACAD
1000
AcDbSavedByObjectVersion
1070
     0
  0
VISUALSTYLE
  5
36
102
{ACAD_REACTORS
330
2A
102
}
330
2A
100
AcDbVisualStyle
  2
Brighten
 70
    12
 71
     2
 72
     2
 73
     0
 90
        0
 40
-0.6
 41
-30.0
 62
     5
 63
     7
421
 16777215
 74
     1
 91
        4
 64
     7
 65
   257
 75
     1
175
     1
 42
1.0
 92
        8
 66
     7
 43
1.0
 76
     1
 77
     6
 78
     2
 67
     7
 79
     5
170
     0
171
     0
290
     0
174
     0
 93
        1
 44
50.0
173
     0
291
     1
 45
0.0
1001
ACAD
1000
AcDbSavedByObjectVersion
1070
     0
  0
VISUALSTYLE
  5
3A
102
{ACAD_REACTORS
330
2A
102
}
330
2A
100
AcDbVisualStyle
  2
ColorChange
 70
    16
 71
     2
 72
     2
 73
     3
 90
        0
 40
-0.6
 41
-30.0
 62
     5
 63
     8
421
  8421504
 74
     1
 91
        4
 64
     7
 65
   257
 75
     1
175
     1
 42
1.0
 92
        8
 66
     8
424
  8421504
 43
1.0
 76
     1
 77
     6
 78
     2
 67
     7
 79
     5
170
     0
171
     0
290
     0
174
     0
 93
        1
 44
0.0
173
     0
291
     1
 45
0.0
1001
ACAD
1000
AcDbSavedByObjectVersion
1070
     0
  0
VISUALSTYLE
  5
34
102
{ACAD_REACTORS
330
2A
102
}
330
2A
100
AcDbVisualStyle
  2
Conceptual
 70
     9
 71
     3
 72
     2
 73
     0
 90
        0
 40
-0.6
 41
-30.0
 62
     5
 63
     7
421
 16777215
 74
     2
 91
        2
 64
     7
 65
   257
 75
     1
175
     1
 42
40.0
 92
        8
 66
     7
 43
1.0
 76
     1
 77
     6
 78
     2
 67
     7
 79
     3
170
     0
171
     0
290
     0
174
     0
 93
        1
 44
0.0
173
     0
291
     0
 45
0.0
1001
ACAD
1000
AcDbSavedByObjectVersion
1070
     0
  0
VISUALSTYLE
  5
35
102
{ACAD_REACTORS
330
2A
102
}
330
2A
100
AcDbVisualStyle
  2
Dim
 70
    11
 71
     2
 72
     2
 73
     0
 90
        0
 40
-0.6
 41
-30.0
 62
     5
 63
     7
421
 16777215
 74
     1
 91
        4
 64
     7
 65
   257
 75
     1
175
     1
 42
1.0
 92
        8
 66
     7
 43
1.0
 76
     1
 77
     6
 78
     2
 67
     7
 79
     5
170
     0
171
     0
290
     0
174
     0
 93
        1
 44
-50.0
173
     0
291
     1
 45
0.0
1001
ACAD
1000
AcDbSavedByObjectVersion
1070
     0
  0
VISUALSTYLE
  5
39
102
{ACAD_REACTORS
330
2A
102
}
330
2A
100
AcDbVisualStyle
  2
Facepattern
 70
    15
 71
     2
 72
     2
 73
     0
 90
        0
 40
-0.6
 41
-30.0
 62
     5
 63
     7
421
 16777215
 74
     1
 91
        4
 64
     7
 65
   257
 75
     1
175
     1
 42
1.0
 92
        8
 66
     7
 43
1.0
 76
     1
 77
     6
 78
     2
 67
     7
 79
     5
170
     0
171
     0
290
     0
174
     0
 93
        1
 44
0.0
173
     0
291
     1
 45
0.0
1001
ACAD
1000
AcDbSavedByObjectVersion
1070
     0
  0
VISUALSTYLE
  5
2B
102
{ACAD_REACTORS
330
2A
102
}
330
2A
100
AcDbVisualStyle
  2
Flat
 70
     0
 71
     2
 72
     1
 73
     1
 90
        2
 40
-0.6
 41
30.0
 62
     5
 63
     7
421
 16777215
 74
     0
 91
        4
 64
     7
 65
   257
 75
     1
175
     1
 42
1.0
 92
        8
 66
     7
 43
1.0
 76
     1
 77
     6
 78
     2
 67
     7
 79
     5
170
     0
171
     0
290
     0
174
     0
 93
       13
 44
0.0
173
     0
291
     1
 45
0.0
1001
ACAD
1000
AcDbSavedByObjectVersion
1070
     0
  0
VISUALSTYLE
  5
2C
102
{ACAD_REACTORS
330
2A
102
}
330
2A
100
AcDbVisualStyle
  2
FlatWithEdges
 70
     1
 71
     2
 72
     1
 73
     1
 90
        2
 40
-0.6
 41
30.0
 62
     5
 63
     7
421
 16777215
 74
     1
 91
        4
 64
     7
 65
   257
 75
     1
175
     1
 42
1.0
 92
        0
 66
   257
 43
1.0
 76
     1
 77
     6
 78
     2
 67
     7
 79
     5
170
     0
171
     0
290
     0
174
     0
 93
       13
 44
0.0
173
     0
291
     1
 45
0.0
1001
ACAD
1000
AcDbSavedByObjectVersion
1070
     0
  0
VISUALSTYLE
  5
2D
102
{ACAD_REACTORS
330
2A
102
}
330
2A
100
AcDbVisualStyle
  2
Gouraud
 70
     2
 71
     2
 72
     2
 73
     1
 90
        2
 40
-0.6
 41
30.0
 62
     5
 63
     7
421
 16777215
 74
     0
 91
        4
 64
     7
 65
   257
 75
     1
175
     1
 42
1.0
 92
        0
 66
     7
 43
1.0
 76
     1
 77
     6
 78
     2
 67
     7
 79
     5
170
     0
171
     0
290
     0
174
     0
 93
       13
 44
0.0
173
     0
291
     1
 45
0.0
1001
ACAD
1000
AcDbSavedByObjectVersion
1070
     0
  0
VISUALSTYLE
  5
2E
102
{ACAD_REACTORS
330
2A
102
}
330
2A
100
AcDbVisualStyle
  2
GouraudWithEdges
 70
     3
 71
     2
 72
     2
 73
     1
 90
        2
 40
-0.6
 41
30.0
 62
     5
 63
     7
421
 16777215
 74
     1
 91
        4
 64
     7
 65
   257
 75
     1
175
     1
 42
1.0
 92
        0
 66
   257
 43
1.0
 76
     1
 77
     6
 78
     2
 67
     7
 79
     5
170
     0
171
     0
290
     0
174
     0
 93
       13
 44
0.0
173
     0
291
     1
 45
0.0
1001
ACAD
1000
AcDbSavedByObjectVersion
1070
     0
  0
VISUALSTYLE
  5
38
102
{ACAD_REACTORS
330
2A
102
}
330
2A
100
AcDbVisualStyle
  2
Linepattern
 70
    14
 71
     2
 72
     2
 73
     0
 90
        0
 40
-0.6
 41
-30.0
 62
     5
 63
     7
421
 16777215
 74
     1
 91
        4
 64
     7
 65
   257
 75
     7
175
     7
 42
1.0
 92
        8
 66
     7
 43
1.0
 76
     1
 77
     6
 78
     2
 67
     7
 79
     5
170
     0
171
     0
290
     0
174
     0
 93
        1
 44
0.0
173
     0
291
     1
 45
0.0
1001
ACAD
1000
AcDbSavedByObjectVersion
1070
     0
  0
VISUALSTYLE
  5
33
102
{ACAD_REACTORS
330
2A
102
}
330
2A
100
AcDbVisualStyle
  2
Realistic
 70
     8
 71
     2
 72
     2
 73
     0
 90
        0
 40
-0.6
 41
-30.0
 62
     5
 63
     7
421
 16777215
 74
     1
 91
        0
 64
     7
 65
   257
 75
     1
175
     1
 42
1.0
 92
        8
 66
     8
424
  7895160
 43
1.0
 76
     1
 77
     6
 78
     2
 67
     7
 79
     5
170
     0
171
     0
290
     0
174
     0
 93
       13
 44
0.0
173
     0
291
     0
 45
0.0
1001
ACAD
1000
AcDbSavedByObjectVersion
1070
     0
  0
VISUALSTYLE
  5
37
102
{ACAD_REACTORS
330
2A
102
}
330
2A
100
AcDbVisualStyle
  2
Thicken
 70
    13
 71
     2
 72
     2
 73
     0
 90
        0
 40
-0.6
 41
-30.0
 62
     5
 63
     7
421
 16777215
 74
     1
 91
        4
 64
     7
 65
   257
 75
     1
175
     1
 42
1.0
 92
       12
 66
     7
 43
1.0
 76
     1
 77
     6
 78
     2
 67
     7
 79
     5
170
     0
171
     0
290
     0
174
     0
 93
        1
 44
0.0
173
     0
291
     1
 45
0.0
1001
ACAD
1000
AcDbSavedByObjectVersion
1070
     0
  0
ENDSEC
  0
EOF
